  0
SECTION
  2
HEADER
  9
$ACADVER
  1
AC1009
  9
$INSBASE
 10
0.0
 20
0.0
 30
0.0
  9
$EXTMIN
 10
-4.70052
 20
-21.070999999999991
 30
0.0
  9
$EXTMAX
 10
205.30099999999999
 20
275.93099999999993
 30
0.0
  9
$LIMMIN
 10
0.0
 20
0.0
  9
$LIMMAX
 10
12.0
 20
9.0
  9
$ORTHOMODE
 70
     0
  9
$REGENMODE
 70
     1
  9
$FILLMODE
 70
     1
  9
$QTEXTMODE
 70
     0
  9
$MIRRTEXT
 70
     1
  9
$DRAGMODE
 70
     2
  9
$LTSCALE
 40
1.0
  9
$OSMODE
 70
    37
  9
$ATTMODE
 70
     1
  9
$TEXTSIZE
 40
0.0
  9
$TRACEWID
 40
0.05
  9
$TEXTSTYLE
  7
STANDARD
  9
$CLAYER
  8
0
  9
$CELTYPE
  6
CONTINUOUS
  9
$CECOLOR
 62
   256
  9
$DIMSCALE
 40
1.0
  9
$DIMASZ
 40
0.18
  9
$DIMEXO
 40
0.0625
  9
$DIMDLI
 40
0.38
  9
$DIMRND
 40
0.0
  9
$DIMDLE
 40
0.0
  9
$DIMEXE
 40
0.18
  9
$DIMTP
 40
0.0
  9
$DIMTM
 40
0.0
  9
$DIMTXT
 40
0.18
  9
$DIMCEN
 40
0.09
  9
$DIMTSZ
 40
0.0
  9
$DIMTOL
 70
     0
  9
$DIMLIM
 70
     0
  9
$DIMTIH
 70
     1
  9
$DIMTOH
 70
     1
  9
$DIMSE1
 70
     0
  9
$DIMSE2
 70
     0
  9
$DIMTAD
 70
     0
  9
$DIMZIN
 70
     0
  9
$DIMBLK
  1

  9
$DIMASO
 70
     1
  9
$DIMSHO
 70
     1
  9
$DIMPOST
  1

  9
$DIMAPOST
  1

  9
$DIMALT
 70
     0
  9
$DIMALTD
 70
     2
  9
$DIMALTF
 40
25.399999999999999
  9
$DIMLFAC
 40
1.0
  9
$DIMTOFL
 70
     0
  9
$DIMTVP
 40
0.0
  9
$DIMTIX
 70
     0
  9
$DIMSOXD
 70
     0
  9
$DIMSAH
 70
     0
  9
$DIMBLK1
  1

  9
$DIMBLK2
  1

  9
$DIMSTYLE
  2
STANDARD
  9
$DIMCLRD
 70
     0
  9
$DIMCLRE
 70
     0
  9
$DIMCLRT
 70
     0
  9
$DIMTFAC
 40
1.0
  9
$DIMGAP
 40
0.09
  9
$LUNITS
 70
     2
  9
$LUPREC
 70
     4
  9
$SKETCHINC
 40
0.1
  9
$FILLETRAD
 40
0.0
  9
$AUNITS
 70
     0
  9
$AUPREC
 70
     0
  9
$MENU
  1
.
  9
$ELEVATION
 40
0.0
  9
$PELEVATION
 40
0.0
  9
$THICKNESS
 40
0.0
  9
$LIMCHECK
 70
     0
  9
$BLIPMODE
 70
     0
  9
$CHAMFERA
 40
0.0
  9
$CHAMFERB
 40
0.0
  9
$SKPOLY
 70
     0
  9
$TDCREATE
 40
2444972.375
  9
$TDUPDATE
 40
2453467.2539116661
  9
$TDINDWG
 40
0.0000171412
  9
$TDUSRTIMER
 40
0.0000171412
  9
$USRTIMER
 70
     1
  9
$ANGBASE
 50
0.0
  9
$ANGDIR
 70
     0
  9
$PDMODE
 70
     0
  9
$PDSIZE
 40
0.0
  9
$PLINEWID
 40
0.0
  9
$COORDS
 70
     1
  9
$SPLFRAME
 70
     0
  9
$SPLINETYPE
 70
     6
  9
$SPLINESEGS
 70
     8
  9
$ATTDIA
 70
     0
  9
$ATTREQ
 70
     1
  9
$HANDLING
 70
 22529
  9
$HANDSEED
  5
248
  9
$SURFTAB1
 70
     6
  9
$SURFTAB2
 70
     6
  9
$SURFTYPE
 70
     6
  9
$SURFU
 70
     6
  9
$SURFV
 70
     6
  9
$UCSNAME
  2

  9
$UCSORG
 10
0.0
 20
0.0
 30
0.0
  9
$UCSXDIR
 10
1.0
 20
0.0
 30
0.0
  9
$UCSYDIR
 10
0.0
 20
1.0
 30
0.0
  9
$PUCSNAME
  2

  9
$PUCSORG
 10
0.0
 20
0.0
 30
0.0
  9
$PUCSXDIR
 10
1.0
 20
0.0
 30
0.0
  9
$PUCSYDIR
 10
0.0
 20
1.0
 30
0.0
  9
$USERI1
 70
     0
  9
$USERI2
 70
     0
  9
$USERI3
 70
     0
  9
$USERI4
 70
     0
  9
$USERI5
 70
     0
  9
$USERR1
 40
0.0
  9
$USERR2
 40
0.0
  9
$USERR3
 40
0.0
  9
$USERR4
 40
0.0
  9
$USERR5
 40
0.0
  9
$WORLDVIEW
 70
     1
  9
$SHADEDGE
 70
     3
  9
$SHADEDIF
 70
    70
  9
$TILEMODE
 70
     1
  9
$MAXACTVP
 70
    48
  9
$PLIMCHECK
 70
     0
  9
$PEXTMIN
 10
1.0000000000000000E+020
 20
1.0000000000000000E+020
 30
1.0000000000000000E+020
  9
$PEXTMAX
 10
-1.0000000000000000E+020
 20
-1.0000000000000000E+020
 30
-1.0000000000000000E+020
  9
$PLIMMIN
 10
0.0
 20
0.0
  9
$PLIMMAX
 10
12.0
 20
9.0
  9
$UNITMODE
 70
     0
  9
$VISRETAIN
 70
     1
  9
$PLINEGEN
 70
     0
  9
$PSLTSCALE
 70
     1
  0
ENDSEC
  0
SECTION
  2
TABLES
  0
TABLE
  2
VPORT
 70
     2
  0
VPORT
  2
*ACTIVE
 70
     0
 10
0.0
 20
0.0
 11
1.0
 21
1.0
 12
189.56073629873211
 22
127.42999999999989
 13
0.0
 23
0.0
 14
1.0
 24
1.0
 15
0.0
 25
0.0
 16
0.0
 26
0.0
 36
1.0
 17
0.0
 27
0.0
 37
0.0
 40
299.24634760705283
 41
2.1842105263157889
 42
50.0
 43
0.0
 44
0.0
 50
0.0
 51
0.0
 71
     0
 72
   100
 73
     1
 74
     1
 75
     0
 76
     0
 77
     0
 78
     0
  0
ENDTAB
  0
TABLE
  2
LTYPE
 70
     3
  0
LTYPE
  2
CONTINUOUS
 70
     0
  3
Solid line
 72
    65
 73
     0
 40
0.0
  0
LTYPE
  2
AIGENLINE001
 70
     0
  3
generate AI->DXF Converter
 72
    65
 73
     4
 40
5.8561449999999988
 49
3.5278
 49
-0.776115
 49
0.776115
 49
-0.776115
  0
LTYPE
  2
AIGENLINE002
 70
     0
  3
generate AI->DXF Converter
 72
    65
 73
     2
 40
1.5522299999999991
 49
0.776115
 49
-0.776115
  0
ENDTAB
  0
TABLE
  2
LAYER
 70
     2
  0
LAYER
  2
0
 70
     0
 62
     7
  6
CONTINUOUS
  0
LAYER
  2
_________2
 70
     0
 62
     7
  6
CONTINUOUS
  0
ENDTAB
  0
TABLE
  2
STYLE
 70
     1
  0
STYLE
  2
STANDARD
 70
     0
 40
0.0
 41
0.0
 50
0.0
 71
     0
 42
0.0
  3
TXT
  4
EXTFONT.SHX
  0
ENDTAB
  0
TABLE
  2
VIEW
 70
     0
  0
ENDTAB
  0
TABLE
  2
UCS
 70
     0
  0
ENDTAB
  0
TABLE
  2
APPID
 70
     1
  0
APPID
  2
ACAD
 70
     0
  0
ENDTAB
  0
TABLE
  2
DIMSTYLE
 70
     1
  0
DIMSTYLE
  2
STANDARD
 70
     0
  3

  4

  5

  6

  7

 40
1.0
 41
0.18
 42
0.0625
 43
0.38
 44
0.18
 45
0.0
 46
0.0
 47
0.0
 48
0.0
140
0.18
141
0.09
142
0.0
143
25.399999999999999
144
1.0
145
0.0
146
1.0
147
0.09
 71
     0
 72
     0
 73
     1
 74
     1
 75
     0
 76
     0
 77
     0
 78
     0
170
     0
171
     2
172
     0
173
     0
174
     0
175
     0
176
     0
177
     0
178
     0
  0
ENDTAB
  0
ENDSEC
  0
SECTION
  2
BLOCKS
  0
BLOCK
  8
0
  2
$MODEL_SPACE
 70
     0
 10
0.0
 20
0.0
 30
0.0
  3
$MODEL_SPACE
  1

  0
ENDBLK
  5
1A
  8
0
  0
BLOCK
 67
     1
  8
0
  2
$PAPER_SPACE
 70
     0
 10
0.0
 20
0.0
 30
0.0
  3
$PAPER_SPACE
  1

  0
ENDBLK
  5
17
 67
     1
  8
0
  0
ENDSEC
  0
SECTION
  2
ENTITIES
  0
TEXT
  5
23
  8
0
 62
     7
 10
159.53698249999999
 20
72.198300000000003
 30
0.0
 40
3.0923400000000001
  1
210
 41
0.5
 72
     1
 11
161.21199999999999
 21
72.198300000000003
 31
0.0
  0
TEXT
  5
24
  8
0
 62
     7
 10
174.68952499999989
 20
106.967
 30
0.0
 40
3.0923400000000001
  1
35
 41
0.5
 72
     1
 11
175.97799999999989
 21
106.967
 31
0.0
  0
TEXT
  5
25
  8
0
 62
     7
 10
164.66937250000001
 20
106.967
 30
0.0
 40
3.0923400000000001
  1
50
 41
0.5
 72
     1
 11
165.82900000000001
 21
106.967
 31
0.0
  0
TEXT
  5
26
  8
0
 62
     7
 10
140.78744
 20
106.967
 30
0.0
 40
3.0923400000000001
  1
275
 41
0.5
 72
     1
 11
142.8489999999999
 21
106.967
 31
0.0
  0
TEXT
  5
27
  8
0
 62
     7
 10
158.69952499999999
 20
106.967
 30
0.0
 40
3.0923400000000001
  1
65
 41
0.5
 72
     1
 11
159.98799999999989
 21
106.967
 31
0.0
  0
TEXT
  5
28
  8
0
 62
     7
 10
127.0065249999999
 20
106.967
 30
0.0
 40
3.0923400000000001
  1
35
 41
0.5
 72
     1
 11
128.2949999999999
 21
106.967
 31
0.0
  0
TEXT
  5
29
  8
0
 62
     7
 10
146.85328749999999
 20
114.7229999999999
 30
0.0
 40
3.0923400000000001
  1
460
 41
0.5
 72
     1
 11
148.78599999999989
 21
114.7229999999999
 31
0.0
  0
TEXT
  5
2A
  8
0
 62
     7
 10
142.43975999999989
 20
147.04900000000001
 30
0.0
 40
3.0923400000000001
  1
カウンター開口寸法
 41
0.5
 72
     1
 11
150.68600000000001
 21
147.04900000000001
 31
0.0
  0
TEXT
  5
2B
  8
0
 62
     7
 10
134.2912874999999
 20
175.30000000000001
 30
0.0
 40
3.0923400000000001
  1
R30
 41
0.5
 72
     1
 11
136.2239999999999
 21
175.30000000000001
 31
0.0
  0
TEXT
  5
2C
  8
0
 62
     7
 10
134.2912874999999
 20
195.01699999999991
 30
0.0
 40
3.0923400000000001
  1
R30
 41
0.5
 72
     1
 11
136.2239999999999
 21
195.01699999999991
 31
0.0
  0
TEXT
  5
2D
  8
0
 62
     7
 10
147.52328750000001
 20
156.3609999999999
 30
0.0
 40
3.0923400000000001
  1
520
 41
0.5
 72
     1
 11
149.45599999999999
 21
156.3609999999999
 31
0.0
  0
TEXT
  5
2E
  8
0
 62
     7
 10
100.6565249999999
 20
149.46000000000001
 30
0.0
 40
3.0923400000000001
  1
35
 41
0.5
 72
     1
 11
101.94499999999989
 21
149.46000000000001
 31
0.0
  0
TEXT
  5
2F
  8
0
 62
     7
 10
34.334524999999999
 20
149.46000000000001
 30
0.0
 40
3.0923400000000001
  1
35
 41
0.5
 72
     1
 11
35.622999999999998
 21
149.46000000000001
 31
0.0
  0
TEXT
  5
30
  8
0
 62
     7
 10
66.869687500000012
 20
142.28700000000001
 30
0.0
 40
3.0923400000000001
  1
560
 41
0.5
 72
     1
 11
68.802400000000006
 21
142.28700000000001
 31
0.0
  0
TEXT
  5
31
  8
0
 62
     7
 10
66.869687500000012
 20
149.46000000000001
 30
0.0
 40
3.0923400000000001
  1
490
 41
0.5
 72
     1
 11
68.802400000000006
 21
149.46000000000001
 31
0.0
  0
TEXT
  5
32
  8
0
 62
     7
 10
72.313829999999996
 20
216.15999999999991
 30
0.0
 40
3.0923400000000001
  1
100
 41
0.5
 72
     1
 11
73.859999999999999
 21
216.15999999999991
 31
0.0
  0
TEXT
  5
33
  8
0
 62
     7
 10
53.419056944177072
 20
185.848256944177
 30
0.0
 40
3.0923400000000001
  1
%%c35
 50
45.0
 41
0.5
 72
     1
 11
54.87680000000001
 21
187.3059999999999
 31
0.0
  0
TEXT
  5
34
  8
0
 62
     7
 10
58.581556944177059
 20
178.01325694417699
 30
0.0
 40
3.0923400000000001
  1
%%c46
 50
45.0
 41
0.5
 72
     1
 11
60.039299999999997
 21
179.47099999999989
 31
0.0
  0
TEXT
  5
35
  8
0
 62
     7
 10
62.373630000000013
 20
216.15999999999991
 30
0.0
 40
3.0923400000000001
  1
100
 41
0.5
 72
     1
 11
63.919800000000002
 21
216.15999999999991
 31
0.0
  0
TEXT
  5
36
  8
0
 62
     7
 10
114.68300000000001
 20
181.95428749999991
 30
0.0
 40
3.0923400000000001
  1
420
 50
90.0
 41
0.5
 72
     1
 11
114.68300000000001
 21
183.887
 31
0.0
  0
TEXT
  5
37
  8
0
 62
     7
 10
49.784199999999991
 20
210.676525
 30
0.0
 40
3.0923400000000001
  1
35
 50
90.0
 41
0.5
 72
     1
 11
49.784199999999991
 21
211.965
 31
0.0
  0
TEXT
  5
38
  8
0
 62
     7
 10
49.784199999999991
 20
199.9953725
 30
0.0
 40
3.0923400000000001
  1
50
 50
90.0
 41
0.5
 72
     1
 11
49.784199999999991
 21
201.155
 31
0.0
  0
TEXT
  5
39
  8
0
 62
     7
 10
49.784199999999991
 20
194.1445249999999
 30
0.0
 40
3.0923400000000001
  1
65
 50
90.0
 41
0.5
 72
     1
 11
49.784199999999991
 21
195.43299999999991
 31
0.0
  0
TEXT
  5
3A
  8
0
 62
     7
 10
103.401
 20
194.52398249999999
 30
0.0
 40
3.0923400000000001
  1
210
 50
90.0
 41
0.5
 72
     1
 11
103.401
 21
196.19900000000001
 31
0.0
  0
TEXT
  5
3B
  8
0
 62
     7
 10
153.464
 20
90.949667500000004
 30
0.0
 40
3.0923400000000001
  1
10
 50
90.0
 41
0.5
 72
     1
 11
153.464
 21
91.851600000000005
 31
0.0
  0
TEXT
  5
3C
  8
0
 62
     7
 10
148.19799999999989
 20
88.836182500000007
 30
0.0
 40
3.0923400000000001
  1
140
 50
90.0
 41
0.5
 72
     1
 11
148.19799999999989
 21
90.511200000000002
 31
0.0
  0
TEXT
  5
3D
  8
0
 62
     7
 10
120.6239999999999
 20
100.84622
 30
0.0
 40
3.0923400000000001
  1
12
 50
90.0
 41
0.5
 72
     1
 11
120.6239999999999
 21
101.877
 31
0.0
  0
TEXT
  5
3E
  8
0
 62
     7
 10
120.6239999999999
 20
85.997734999999992
 30
0.0
 40
3.0923400000000001
  1
178
 50
90.0
 41
0.5
 72
     1
 11
120.6239999999999
 21
87.801599999999993
 31
0.0
  0
TEXT
  5
3F
  8
0
 62
     7
 10
103.21299999999989
 20
88.777582500000008
 30
0.0
 40
3.0923400000000001
  1
120
 50
90.0
 41
0.5
 72
     1
 11
103.21299999999989
 21
90.452600000000004
 31
0.0
  0
TEXT
  5
40
  8
0
 62
     7
 10
31.828900000000001
 20
103.0073725
 30
0.0
 40
3.0923400000000001
  1
20
 50
90.0
 41
0.5
 72
     1
 11
31.828900000000001
 21
104.167
 31
0.0
  0
TEXT
  5
41
  8
0
 62
     7
 10
31.828900000000001
 20
95.479019999999977
 30
0.0
 40
3.0923400000000001
  1
12
 50
90.0
 41
0.5
 72
     1
 11
31.828900000000001
 21
96.509799999999998
 31
0.0
  0
TEXT
  5
42
  8
0
 62
     7
 10
31.828900000000001
 20
85.192234999999997
 30
0.0
 40
3.0923400000000001
  1
178
 50
90.0
 41
0.5
 72
     1
 11
31.828900000000001
 21
86.996099999999984
 31
0.0
  0
TEXT
  5
43
  8
0
 62
     7
 10
31.873699999999999
 20
155.67852500000001
 30
0.0
 40
3.0923400000000001
  1
35
 50
90.0
 41
0.5
 72
     1
 11
31.873699999999999
 21
156.96700000000001
 31
0.0
  0
TEXT
  5
44
  8
0
 62
     7
 10
31.873699999999999
 20
176.19044
 30
0.0
 40
3.0923400000000001
  1
275
 50
90.0
 41
0.5
 72
     1
 11
31.873699999999999
 21
178.25200000000001
 31
0.0
  0
TEXT
  5
45
  8
0
 62
     7
 10
31.873699999999999
 20
197.67098250000001
 30
0.0
 40
3.0923400000000001
  1
150
 50
90.0
 41
0.5
 72
     1
 11
31.873699999999999
 21
199.34599999999989
 31
0.0
  0
TEXT
  5
46
  8
0
 62
     7
 10
24.9359
 20
180.97428749999989
 30
0.0
 40
3.0923400000000001
  1
460
 50
90.0
 41
0.5
 72
     1
 11
24.9359
 21
182.90700000000001
 31
0.0
  0
ARC
  5
47
  8
0
 62
     7
 10
32.822248999999999
 20
97.643852999999993
 30
0.0
 40
0.410174
 50
182.10780500000001
 51
267.89222499999988
  0
ARC
  5
48
  8
0
 62
     7
 10
32.792288999999997
 20
97.643640000000005
 30
0.0
 40
0.4099540000000001
 50
272.07919299999998
 51
357.920817
  0
ARC
  5
49
  8
0
 62
     7
 10
32.792076999999999
 20
97.613680000000002
 30
0.0
 40
0.410174
 50
2.1078019999999991
 51
87.892188000000004
  0
ARC
  5
4A
  8
0
 62
     7
 10
32.822232999999997
 20
97.613696000000004
 30
0.0
 40
0.410158
 50
92.105719000000008
 51
177.894251
  0
ARC
  5
4B
  8
0
 62
     7
 10
134.88217199999991
 20
86.041392999999985
 30
0.0
 40
0.8122939999999999
 50
242.698712
 51
270.09902
  0
ARC
  5
4C
  8
0
 62
     7
 10
134.814019
 20
85.802165000000002
 30
0.0
 40
0.5705770000000001
 50
202.86050299999999
 51
237.75548099999989
  0
ARC
  5
4D
  8
0
 62
     7
 10
135.49067600000001
 20
86.029891000000006
 30
0.0
 40
2.035263
 50
216.541269
 51
224.7408969999999
  0
ARC
  5
4E
  8
0
 62
     7
 10
140.8825379999999
 20
90.194816000000003
 30
0.0
 40
8.8480840000000001
 50
212.8155549999999
 51
217.42130599999999
  0
ARC
  5
4F
  8
0
 62
     7
 10
153.60568499999999
 20
98.518234000000007
 30
0.0
 40
24.051835000000001
 50
210.07314199999999
 51
213.05384499999991
  0
ARC
  5
50
  8
0
 62
     7
 10
174.63867999999991
 20
110.731602
 30
0.0
 40
48.373694
 50
205.72856100000001
 51
210.10813999999991
  0
ARC
  5
51
  8
0
 62
     7
 10
191.421988
 20
119.15492399999999
 30
0.0
 40
67.150431999999995
 50
199.50974600000001
 51
205.98664699999989
  0
ARC
  5
52
  8
0
 62
     7
 10
152.99355800000001
 20
121.813272
 30
0.0
 40
39.081423000000001
 50
258.21539499999989
 51
259.97311400000001
  0
ARC
  5
53
  8
0
 62
     7
 10
148.70563100000001
 20
100.95228400000001
 30
0.0
 40
17.784511999999999
 50
248.29104399999991
 51
258.01255800000001
  0
ARC
  5
54
  8
0
 62
     7
 10
152.29836
 20
107.09503599999999
 30
0.0
 40
24.23856
 50
243.8134529999999
 51
255.493808
  0
ARC
  5
55
  8
0
 62
     7
 10
154.47165100000001
 20
112.177037
 30
0.0
 40
29.759454999999988
 50
225.05978999999991
 51
244.37648599999989
  0
ARC
  5
56
  8
0
 62
     7
 10
148.56320600000001
 20
105.89607700000001
 30
0.0
 40
21.141504999999999
 50
212.5232419999999
 51
224.3702789999999
  0
ARC
  5
57
  8
0
 62
     7
 10
143.48797899999991
 20
102.48276199999989
 30
0.0
 40
15.027810000000001
 50
199.9781679999999
 51
211.953756
  0
ARC
  5
58
  8
0
 62
     7
 10
146.20927699999999
 20
104.081093
 30
0.0
 40
18.985462999999989
 50
210.154696
 51
223.409863
  0
ARC
  5
59
  8
0
 62
     7
 10
152.164479
 20
109.3437959999999
 30
0.0
 40
26.929600000000001
 50
222.83675099999991
 51
237.5064669999999
  0
ARC
  5
5A
  8
0
 62
     7
 10
154.937198
 20
113.0915659999999
 30
0.0
 40
31.581858
 50
236.91623299999989
 51
241.91522800000001
  0
ARC
  5
5B
  8
0
 62
     7
 10
145.12266699999989
 20
93.057068999999998
 30
0.0
 40
13.163716000000001
 50
211.5944409999999
 51
214.6086479999999
  0
ARC
  5
5C
  8
0
 62
     7
 10
160.43035900000001
 20
102.60845499999991
 30
0.0
 40
31.206686000000001
 50
209.303448
 51
211.80726000000001
  0
ARC
  5
5D
  8
0
 62
     7
 10
183.56297900000001
 20
115.58035700000001
 30
0.0
 40
57.728155000000001
 50
201.43260100000001
 51
209.293633
  0
ARC
  5
5E
  8
0
 62
     7
 10
65.958748
 20
158.06719699999999
 30
0.0
 40
75.143253999999999
 50
278.64666899999997
 51
281.48729600000001
  0
ARC
  5
5F
  8
0
 62
     7
 10
154.55248399999999
 20
-482.93244699999991
 30
0.0
 40
571.95760800000005
 50
97.766938000000025
 51
98.140051999999997
  0
ARC
  5
60
  8
0
 62
     7
 10
74.12219300000001
 20
81.801276000000001
 30
0.0
 40
1.56325
 50
110.80148299999991
 51
142.291774
  0
ARC
  5
61
  8
0
 62
     7
 10
73.585238000000004
 20
82.254091999999986
 30
0.0
 40
0.862001
 50
144.27396200000001
 51
178.59302199999999
  0
LINE
  5
62
  8
0
 62
     7
 10
72.723500000000001
 20
78.628900000000002
 30
0.0
 11
72.723500000000001
 21
82.275299999999987
 31
0.0
  0
ARC
  5
63
  8
0
 62
     7
 10
71.888317000000001
 20
158.06719699999999
 30
0.0
 40
75.143253999999999
 50
258.51272399999999
 51
261.35335099999992
  0
ARC
  5
64
  8
0
 62
     7
 10
-16.705418999999988
 20
-482.93244699999991
 30
0.0
 40
571.95760800000005
 50
81.859927999999996
 51
82.233042000000012
  0
ARC
  5
65
  8
0
 62
     7
 10
63.724871999999998
 20
81.801276000000001
 30
0.0
 40
1.56325
 50
37.708205999999997
 51
69.198497000000003
  0
ARC
  5
66
  8
0
 62
     7
 10
64.261826999999997
 20
82.254091999999986
 30
0.0
 40
0.862001
 50
1.406957999999999
 51
35.726017999999989
  0
LINE
  5
67
  8
0
 62
     7
 10
65.123599999999996
 20
78.628900000000002
 30
0.0
 11
65.123599999999996
 21
82.275299999999987
 31
0.0
  0
LINE
  5
68
  8
0
 62
     7
 10
125.7419999999999
 20
155.95799999999991
 30
0.0
 11
123.532
 21
155.36600000000001
 31
0.0
  0
LINE
  5
69
  8
0
 62
     7
 10
123.532
 20
155.36600000000001
 30
0.0
 11
125.7419999999999
 21
154.773
 31
0.0
  0
LINE
  5
6A
  8
0
 62
     7
 10
125.7419999999999
 20
154.773
 30
0.0
 11
125.7419999999999
 21
155.95799999999991
 31
0.0
  0
LINE
  5
6B
  8
0
 62
     7
 10
173.32099999999991
 20
154.7879999999999
 30
0.0
 11
175.5329999999999
 21
155.38
 31
0.0
  0
LINE
  5
6C
  8
0
 62
     7
 10
175.5329999999999
 20
155.38
 30
0.0
 11
173.32099999999991
 21
155.9729999999999
 31
0.0
  0
LINE
  5
6D
  8
0
 62
     7
 10
173.32099999999991
 20
155.9729999999999
 30
0.0
 11
173.32099999999991
 21
154.7879999999999
 31
0.0
  0
LINE
  5
6E
  8
0
 62
     7
 10
123.532
 20
155.37299999999991
 30
0.0
 11
175.5329999999999
 21
155.37299999999991
 31
0.0
  0
LINE
  5
6F
  8
0
 62
     7
 10
175.5329999999999
 20
154.809
 30
0.0
 11
175.5329999999999
 21
162.65100000000001
 31
0.0
  0
LINE
  5
70
  8
0
 62
     7
 10
123.532
 20
162.65100000000001
 30
0.0
 11
123.532
 21
154.809
 31
0.0
  0
LINE
  5
71
  8
0
 62
     7
 10
116.3279999999999
 20
202.94399999999999
 30
0.0
 11
115.735
 21
205.155
 31
0.0
  0
LINE
  5
72
  8
0
 62
     7
 10
115.735
 20
205.155
 30
0.0
 11
115.1429999999999
 21
202.94399999999999
 31
0.0
  0
LINE
  5
73
  8
0
 62
     7
 10
115.1429999999999
 20
202.94399999999999
 30
0.0
 11
116.3279999999999
 21
202.94399999999999
 31
0.0
  0
LINE
  5
74
  8
0
 62
     7
 10
115.1579999999999
 20
165.36500000000001
 30
0.0
 11
115.7499999999999
 21
163.154
 31
0.0
  0
LINE
  5
75
  8
0
 62
     7
 10
115.7499999999999
 20
163.154
 30
0.0
 11
116.342
 21
165.36500000000001
 31
0.0
  0
LINE
  5
76
  8
0
 62
     7
 10
116.342
 20
165.36500000000001
 30
0.0
 11
115.1579999999999
 21
165.36500000000001
 31
0.0
  0
LINE
  5
77
  8
0
 62
     7
 10
115.7429999999999
 20
205.155
 30
0.0
 11
115.7429999999999
 21
163.154
 31
0.0
  0
LINE
  5
78
  8
0
 62
     7
 10
114.84099999999999
 20
163.155
 30
0.0
 11
122.5589999999999
 21
163.155
 31
0.0
  0
LINE
  5
79
  8
0
 62
     7
 10
139.5449999999999
 20
174.303
 30
0.0
 11
130.98799999999989
 21
174.303
 31
0.0
  0
LINE
  5
7A
  8
0
 62
     7
 10
125.973
 20
165.715
 30
0.0
 11
124.25399999999991
 21
164.20400000000001
 31
0.0
  0
LINE
  5
7B
  8
0
 62
     7
 10
124.25399999999991
 20
164.20400000000001
 30
0.0
 11
124.98699999999999
 21
166.37200000000001
 31
0.0
  0
LINE
  5
7C
  8
0
 62
     7
 10
124.98699999999999
 20
166.37200000000001
 30
0.0
 11
125.973
 21
165.715
 31
0.0
  0
LINE
  5
7D
  8
0
 62
     7
 10
130.98799999999989
 20
174.303
 30
0.0
 11
124.261
 21
164.1999999999999
 31
0.0
  0
LINE
  5
7E
  8
0
 62
     7
 10
139.5449999999999
 20
194.005
 30
0.0
 11
130.98799999999989
 21
194.005
 31
0.0
  0
LINE
  5
7F
  8
0
 62
     7
 10
122.5589999999999
 20
205.155
 30
0.0
 11
114.84099999999999
 21
205.155
 31
0.0
  0
ARC
  5
80
  8
0
 62
     7
 10
126.64626299999991
 20
202.040662
 30
0.0
 40
3.1164469999999991
 50
92.102606000000009
 51
177.89736499999989
  0
ARC
  5
81
  8
0
 62
     7
 10
126.647047
 20
166.269857
 30
0.0
 40
3.1172589999999998
 50
182.11650800000001
 51
267.88352200000003
  0
ARC
  5
82
  8
0
 62
     7
 10
172.41738100000001
 20
166.26985799999991
 30
0.0
 40
3.117259999999999
 50
272.11651499999999
 51
357.88349499999998
  0
ARC
  5
83
  8
0
 62
     7
 10
172.4173909999999
 20
202.03988699999999
 30
0.0
 40
3.117249999999999
 50
2.1163270000000001
 51
87.883662999999984
  0
LINE
  5
84
  8
0
 62
     7
 10
175.5329999999999
 20
166.155
 30
0.0
 11
175.5329999999999
 21
202.15499999999989
 31
0.0
  0
LINE
  5
85
  8
0
 62
     7
 10
126.532
 20
163.155
 30
0.0
 11
172.5329999999999
 21
163.155
 31
0.0
  0
LINE
  5
86
  8
0
 62
     7
 10
123.532
 20
202.15499999999989
 30
0.0
 11
123.532
 21
166.155
 31
0.0
  0
LINE
  5
87
  8
0
 62
     7
 10
172.5329999999999
 20
205.155
 30
0.0
 11
126.532
 21
205.155
 31
0.0
  0
LINE
  5
88
  8
0
 62
     7
 10
122.16799999999991
 20
94.218799999999987
 30
0.0
 11
121.575
 21
96.429199999999994
 31
0.0
  0
LINE
  5
89
  8
0
 62
     7
 10
121.575
 20
96.429199999999994
 30
0.0
 11
120.9829999999999
 21
94.218799999999987
 31
0.0
  0
LINE
  5
8A
  8
0
 62
     7
 10
120.9829999999999
 20
94.218799999999987
 30
0.0
 11
122.16799999999991
 21
94.218799999999987
 31
0.0
  0
LINE
  5
8B
  8
0
 62
     7
 10
120.99799999999991
 20
99.839799999999997
 30
0.0
 11
121.5899999999999
 21
97.628799999999998
 31
0.0
  0
LINE
  5
8C
  8
0
 62
     7
 10
121.5899999999999
 20
97.628799999999998
 30
0.0
 11
122.182
 21
99.839799999999997
 31
0.0
  0
LINE
  5
8D
  8
0
 62
     7
 10
122.182
 20
99.839799999999997
 30
0.0
 11
120.99799999999991
 21
99.839799999999997
 31
0.0
  0
LINE
  5
8E
  8
0
 62
     7
 10
120.99799999999991
 20
80.839299999999994
 30
0.0
 11
121.5899999999999
 21
78.628299999999996
 31
0.0
  0
LINE
  5
8F
  8
0
 62
     7
 10
121.5899999999999
 20
78.628299999999996
 30
0.0
 11
122.182
 21
80.839299999999994
 31
0.0
  0
LINE
  5
90
  8
0
 62
     7
 10
122.182
 20
80.839299999999994
 30
0.0
 11
120.99799999999991
 21
80.839299999999994
 31
0.0
  0
LINE
  5
91
  8
0
 62
     7
 10
121.5829999999999
 20
104.19
 30
0.0
 11
121.5829999999999
 21
78.628900000000002
 31
0.0
  0
LINE
  5
92
  8
0
 62
     7
 10
121.18600000000001
 20
78.628900000000002
 30
0.0
 11
146.17500000000001
 21
78.628900000000002
 31
0.0
  0
LINE
  5
93
  8
0
 62
     7
 10
121.18600000000001
 20
96.429199999999994
 30
0.0
 11
125.37899999999991
 21
96.429199999999994
 31
0.0
  0
LINE
  5
94
  8
0
 62
     7
 10
121.18600000000001
 20
97.628799999999998
 30
0.0
 11
125.54000000000001
 21
97.628799999999998
 31
0.0
  0
LINE
  5
95
  8
0
 62
     7
 10
171.72799999999989
 20
70.994600000000005
 30
0.0
 11
171.72799999999989
 21
95.674700000000001
 31
0.0
  0
LINE
  5
96
  8
0
 62
     7
 10
169.517
 20
70.820899999999995
 30
0.0
 11
171.72799999999989
 21
71.413499999999999
 31
0.0
  0
LINE
  5
97
  8
0
 62
     7
 10
171.72799999999989
 20
71.413499999999999
 30
0.0
 11
169.517
 21
72.005399999999995
 31
0.0
  0
LINE
  5
98
  8
0
 62
     7
 10
169.517
 20
72.005399999999995
 30
0.0
 11
169.517
 21
70.820899999999995
 31
0.0
  0
LINE
  5
99
  8
0
 62
     7
 10
152.93700000000001
 20
71.990899999999996
 30
0.0
 11
150.727
 21
71.399000000000001
 31
0.0
  0
LINE
  5
9A
  8
0
 62
     7
 10
150.727
 20
71.399000000000001
 30
0.0
 11
152.93700000000001
 21
70.8065
 31
0.0
  0
LINE
  5
9B
  8
0
 62
     7
 10
152.93700000000001
 20
70.8065
 30
0.0
 11
152.93700000000001
 21
71.990899999999996
 31
0.0
  0
LINE
  5
9C
  8
0
 62
     7
 10
171.72799999999989
 20
71.405900000000003
 30
0.0
 11
150.727
 21
71.405900000000003
 31
0.0
  0
LINE
  5
9D
  8
0
 62
     7
 10
150.727
 20
71.106200000000001
 30
0.0
 11
150.727
 21
76.847099999999983
 31
0.0
  0
LINE
  5
9E
  8
0
 62
     7
 10
154.91200000000001
 20
94.418599999999998
 30
0.0
 11
154.31999999999991
 21
96.629000000000005
 31
0.0
  0
LINE
  5
9F
  8
0
 62
     7
 10
154.31999999999991
 20
96.629000000000005
 30
0.0
 11
153.72799999999989
 21
94.418599999999998
 31
0.0
  0
LINE
  5
A0
  8
0
 62
     7
 10
153.72799999999989
 20
94.418599999999998
 30
0.0
 11
154.91200000000001
 21
94.418599999999998
 31
0.0
  0
LINE
  5
A1
  8
0
 62
     7
 10
153.74199999999999
 20
99.839799999999997
 30
0.0
 11
154.334
 21
97.628799999999998
 31
0.0
  0
LINE
  5
A2
  8
0
 62
     7
 10
154.334
 20
97.628799999999998
 30
0.0
 11
154.92699999999999
 21
99.839799999999997
 31
0.0
  0
LINE
  5
A3
  8
0
 62
     7
 10
154.92699999999999
 20
99.839799999999997
 30
0.0
 11
153.74199999999999
 21
99.839799999999997
 31
0.0
  0
LINE
  5
A4
  8
0
 62
     7
 10
154.32699999999991
 20
101.7979999999999
 30
0.0
 11
154.32699999999991
 21
89.635800000000003
 31
0.0
  0
LINE
  5
A5
  8
0
 62
     7
 10
156.53200000000001
 20
92.379099999999994
 30
0.0
 11
157.33199999999999
 21
92.379099999999994
 31
0.0
  0
LINE
  5
A6
  8
0
 62
     7
 10
156.6279999999999
 20
94.879199999999997
 30
0.0
 11
157.42799999999991
 21
94.879199999999997
 31
0.0
  0
LINE
  5
A7
  8
0
  6
AIGENLINE001
 62
     7
 10
155.6049999999999
 20
93.629300000000001
 30
0.0
 11
158.251
 21
93.629300000000001
 31
0.0
  0
LINE
  5
A8
  8
0
 62
     7
 10
154.03599999999989
 20
96.629000000000005
 30
0.0
 11
156.19
 21
96.629000000000005
 31
0.0
  0
LINE
  5
A9
  8
0
 62
     7
 10
129.227
 20
106.121
 30
0.0
 11
129.227
 21
98.157200000000003
 31
0.0
  0
LINE
  5
AA
  8
0
 62
     7
 10
127.9379999999999
 20
114.187
 30
0.0
 11
125.727
 21
113.595
 31
0.0
  0
LINE
  5
AB
  8
0
 62
     7
 10
125.727
 20
113.595
 30
0.0
 11
127.9379999999999
 21
113.0029999999999
 31
0.0
  0
LINE
  5
AC
  8
0
 62
     7
 10
127.9379999999999
 20
113.0029999999999
 30
0.0
 11
127.9379999999999
 21
114.187
 31
0.0
  0
LINE
  5
AD
  8
0
 62
     7
 10
169.517
 20
113.017
 30
0.0
 11
171.72799999999989
 21
113.61
 31
0.0
  0
LINE
  5
AE
  8
0
 62
     7
 10
171.72799999999989
 20
113.61
 30
0.0
 11
169.517
 21
114.202
 31
0.0
  0
LINE
  5
AF
  8
0
 62
     7
 10
169.517
 20
114.202
 30
0.0
 11
169.517
 21
113.017
 31
0.0
  0
LINE
  5
B0
  8
0
 62
     7
 10
125.727
 20
113.602
 30
0.0
 11
171.72799999999989
 21
113.602
 31
0.0
  0
LINE
  5
B1
  8
0
 62
     7
 10
156.727
 20
106.121
 30
0.0
 11
156.727
 21
97.248400000000004
 31
0.0
  0
LINE
  5
B2
  8
0
 62
     7
 10
163.227
 20
106.121
 30
0.0
 11
163.227
 21
99.193500000000014
 31
0.0
  0
LINE
  5
B3
  8
0
 62
     7
 10
168.227
 20
106.121
 30
0.0
 11
168.227
 21
99.974900000000005
 31
0.0
  0
LINE
  5
B4
  8
0
 62
     7
 10
173.9379999999999
 20
106.377
 30
0.0
 11
171.72799999999989
 21
105.7849999999999
 31
0.0
  0
LINE
  5
B5
  8
0
 62
     7
 10
171.72799999999989
 20
105.7849999999999
 30
0.0
 11
173.9379999999999
 21
105.193
 31
0.0
  0
LINE
  5
B6
  8
0
 62
     7
 10
173.9379999999999
 20
105.193
 30
0.0
 11
173.9379999999999
 21
106.377
 31
0.0
  0
LINE
  5
B7
  8
0
 62
     7
 10
165.4379999999999
 20
106.377
 30
0.0
 11
163.227
 21
105.7849999999999
 31
0.0
  0
LINE
  5
B8
  8
0
 62
     7
 10
163.227
 20
105.7849999999999
 30
0.0
 11
165.4379999999999
 21
105.193
 31
0.0
  0
LINE
  5
B9
  8
0
 62
     7
 10
165.4379999999999
 20
105.193
 30
0.0
 11
165.4379999999999
 21
106.377
 31
0.0
  0
LINE
  5
BA
  8
0
 62
     7
 10
158.93700000000001
 20
106.377
 30
0.0
 11
156.727
 21
105.7849999999999
 31
0.0
  0
LINE
  5
BB
  8
0
 62
     7
 10
156.727
 20
105.7849999999999
 30
0.0
 11
158.93700000000001
 21
105.193
 31
0.0
  0
LINE
  5
BC
  8
0
 62
     7
 10
158.93700000000001
 20
105.193
 30
0.0
 11
158.93700000000001
 21
106.377
 31
0.0
  0
LINE
  5
BD
  8
0
 62
     7
 10
131.4379999999999
 20
106.377
 30
0.0
 11
129.227
 21
105.7849999999999
 31
0.0
  0
LINE
  5
BE
  8
0
 62
     7
 10
129.227
 20
105.7849999999999
 30
0.0
 11
131.4379999999999
 21
105.193
 31
0.0
  0
LINE
  5
BF
  8
0
 62
     7
 10
131.4379999999999
 20
105.193
 30
0.0
 11
131.4379999999999
 21
106.377
 31
0.0
  0
LINE
  5
C0
  8
0
 62
     7
 10
166.01599999999991
 20
105.20699999999999
 30
0.0
 11
168.227
 21
105.8
 31
0.0
  0
LINE
  5
C1
  8
0
 62
     7
 10
168.227
 20
105.8
 30
0.0
 11
166.01599999999991
 21
106.392
 31
0.0
  0
LINE
  5
C2
  8
0
 62
     7
 10
166.01599999999991
 20
106.392
 30
0.0
 11
166.01599999999991
 21
105.20699999999999
 31
0.0
  0
LINE
  5
C3
  8
0
 62
     7
 10
161.01599999999999
 20
105.20699999999999
 30
0.0
 11
163.227
 21
105.8
 31
0.0
  0
LINE
  5
C4
  8
0
 62
     7
 10
163.227
 20
105.8
 30
0.0
 11
161.01599999999999
 21
106.392
 31
0.0
  0
LINE
  5
C5
  8
0
 62
     7
 10
161.01599999999999
 20
106.392
 30
0.0
 11
161.01599999999999
 21
105.20699999999999
 31
0.0
  0
LINE
  5
C6
  8
0
 62
     7
 10
154.51599999999991
 20
105.20699999999999
 30
0.0
 11
156.727
 21
105.8
 31
0.0
  0
LINE
  5
C7
  8
0
 62
     7
 10
156.727
 20
105.8
 30
0.0
 11
154.51599999999991
 21
106.392
 31
0.0
  0
LINE
  5
C8
  8
0
 62
     7
 10
154.51599999999991
 20
106.392
 30
0.0
 11
154.51599999999991
 21
105.20699999999999
 31
0.0
  0
LINE
  5
C9
  8
0
 62
     7
 10
123.51600000000001
 20
105.20699999999999
 30
0.0
 11
125.727
 21
105.8
 31
0.0
  0
LINE
  5
CA
  8
0
 62
     7
 10
125.727
 20
105.8
 30
0.0
 11
123.51600000000001
 21
106.392
 31
0.0
  0
LINE
  5
CB
  8
0
 62
     7
 10
123.51600000000001
 20
106.392
 30
0.0
 11
123.51600000000001
 21
105.20699999999999
 31
0.0
  0
LINE
  5
CC
  8
0
 62
     7
 10
120.20399999999989
 20
105.7919999999999
 30
0.0
 11
178.07599999999991
 21
105.7919999999999
 31
0.0
  0
LINE
  5
CD
  8
0
 62
     7
 10
171.72799999999989
 20
114.02799999999991
 30
0.0
 11
171.72799999999989
 21
99.974900000000005
 31
0.0
  0
LINE
  5
CE
  8
0
 62
     7
 10
125.727
 20
114.1729999999999
 30
0.0
 11
125.727
 21
98.157200000000003
 31
0.0
  0
LINE
  5
CF
  8
0
 62
     7
 10
128.91499999999999
 20
97.628799999999998
 30
0.0
 11
126.227
 21
97.628799999999998
 31
0.0
  0
LINE
  5
D0
  8
0
 62
     7
 10
129.227
 20
97.628799999999998
 30
0.0
 11
128.91499999999999
 21
97.628799999999998
 31
0.0
  0
ARC
  5
D1
  8
0
 62
     7
 10
128.90770699999999
 20
97.116605000000007
 30
0.0
 40
0.512207
 50
26.898559999999989
 51
89.232735999999989
  0
LINE
  5
D2
  8
0
 62
     7
 10
149.61199999999991
 20
95.418400000000005
 30
0.0
 11
149.02000000000001
 21
97.628799999999998
 31
0.0
  0
LINE
  5
D3
  8
0
 62
     7
 10
149.02000000000001
 20
97.628799999999998
 30
0.0
 11
148.428
 21
95.418400000000005
 31
0.0
  0
LINE
  5
D4
  8
0
 62
     7
 10
148.428
 20
95.418400000000005
 30
0.0
 11
149.61199999999991
 21
95.418400000000005
 31
0.0
  0
LINE
  5
D5
  8
0
 62
     7
 10
148.44200000000001
 20
85.839600000000004
 30
0.0
 11
149.03399999999991
 21
83.628499999999988
 31
0.0
  0
LINE
  5
D6
  8
0
 62
     7
 10
149.03399999999991
 20
83.628499999999988
 30
0.0
 11
149.62700000000001
 21
85.839600000000004
 31
0.0
  0
LINE
  5
D7
  8
0
 62
     7
 10
149.62700000000001
 20
85.839600000000004
 30
0.0
 11
148.44200000000001
 21
85.839600000000004
 31
0.0
  0
LINE
  5
D8
  8
0
 62
     7
 10
149.02699999999999
 20
97.628799999999998
 30
0.0
 11
149.02699999999999
 21
83.629199999999997
 31
0.0
  0
LINE
  5
D9
  8
0
 62
     7
 10
134.8839999999999
 20
85.229100000000017
 30
0.0
 11
140.0689999999999
 21
85.229100000000017
 31
0.0
  0
LINE
  5
DA
  8
0
 62
     7
 10
134.31399999999999
 20
84.429100000000005
 30
0.0
 11
142.1269999999999
 21
84.429100000000005
 31
0.0
  0
ARC
  5
DB
  8
0
 62
     7
 10
134.31886900000001
 20
84.736155999999994
 30
0.0
 40
0.307044
 50
206.89435399999991
 51
269.17397199999999
  0
LINE
  5
DC
  8
0
 62
     7
 10
153.02799999999991
 20
80.128900000000002
 30
0.0
 11
154.86000000000001
 21
80.130300000000005
 31
0.0
  0
LINE
  5
DD
  8
0
 62
     7
 10
159.93799999999999
 20
95.629199999999997
 30
0.0
 11
167.36799999999999
 21
95.629199999999997
 31
0.0
  0
LINE
  5
DE
  8
0
 62
     7
 10
157.899
 20
95.629199999999997
 30
0.0
 11
158.726
 21
95.629199999999997
 31
0.0
  0
LINE
  5
DF
  8
0
 62
     7
 10
158.68899999999991
 20
82.218800000000002
 30
0.0
 11
159.50200000000001
 21
95.219300000000004
 31
0.0
  0
ARC
  5
E0
  8
0
 62
     7
 10
159.9525899999999
 20
95.176546999999985
 30
0.0
 40
0.4529130000000001
 50
91.865453000000002
 51
174.58965599999999
  0
LINE
  5
E1
  8
0
 62
     7
 10
157.43999999999991
 20
95.187600000000003
 30
0.0
 11
157.0149999999999
 21
84.126000000000005
 31
0.0
  0
ARC
  5
E2
  8
0
 62
     7
 10
157.9154199999999
 20
95.152961000000005
 30
0.0
 40
0.4765410000000001
 50
91.971523000000005
 51
175.83683300000001
  0
ARC
  5
E3
  8
0
 62
     7
 10
155.558166
 20
84.313693000000001
 30
0.0
 40
4.112245999999999
 50
274.42391099999992
 51
281.06913900000001
  0
ARC
  5
E4
  8
0
 62
     7
 10
156.098882
 20
81.602035999999998
 30
0.0
 40
1.3472589999999991
 50
280.64232800000002
 51
294.94344000000001
  0
ARC
  5
E5
  8
0
 62
     7
 10
155.94303099999999
 20
81.824563999999995
 30
0.0
 40
1.615454999999999
 50
296.62725099999989
 51
315.17102699999992
  0
ARC
  5
E6
  8
0
 62
     7
 10
812.99061399999994
 20
-556.43424200000004
 30
0.0
 40
914.40093500000012
 50
135.80003400000001
 51
135.83218400000001
  0
ARC
  5
E7
  8
0
 62
     7
 10
156.35381599999999
 20
82.11363399999999
 30
0.0
 40
1.522246999999999
 50
315.86517900000001
 51
335.57814400000001
  0
ARC
  5
E8
  8
0
 62
     7
 10
156.82323
 20
81.908777999999998
 30
0.0
 40
1.010163999999999
 50
335.14975099999992
 51
346.45506799999998
  0
ARC
  5
E9
  8
0
 62
     7
 10
154.85953299999991
 20
82.397786999999994
 30
0.0
 40
3.0338129999999999
 50
346.162419
 51
357.63319799999988
  0
LINE
  5
EA
  8
0
 62
     7
 10
155.875
 20
80.213700000000003
 30
0.0
 11
154.86000000000001
 21
80.130300000000005
 31
0.0
  0
LINE
  5
EB
  8
0
 62
     7
 10
157.89099999999999
 20
82.269099999999995
 30
0.0
 11
158.726
 21
95.629199999999997
 31
0.0
  0
LINE
  5
EC
  8
0
 62
     7
 10
170.52699999999999
 20
96.429199999999994
 30
0.0
 11
170.52699999999999
 21
98.0291
 31
0.0
  0
LINE
  5
ED
  8
0
 62
     7
 10
170.12700000000001
 20
98.428700000000006
 30
0.0
 11
169.31899999999999
 21
98.428700000000006
 31
0.0
  0
ARC
  5
EE
  8
0
 62
     7
 10
170.11265599999999
 20
98.013905000000008
 30
0.0
 40
0.41507
 50
2.0964520000000002
 51
88.002239000000003
  0
LINE
  5
EF
  8
0
 62
     7
 10
168.91900000000001
 20
98.037400000000005
 30
0.0
 11
168.63799999999989
 21
84.918400000000005
 31
0.0
  0
ARC
  5
F0
  8
0
 62
     7
 10
169.33341200000001
 20
98.014184000000014
 30
0.0
 40
0.4147930000000001
 50
92.004854000000009
 51
176.79733899999991
  0
LINE
  5
F1
  8
0
 62
     7
 10
167.53599999999989
 20
84.429100000000005
 30
0.0
 11
168.13800000000001
 21
84.429100000000005
 31
0.0
  0
ARC
  5
F2
  8
0
 62
     7
 10
168.12004999999991
 20
84.947766999999999
 30
0.0
 40
0.5189300000000001
 50
271.97287799999998
 51
356.75039900000002
  0
LINE
  5
F3
  8
0
 62
     7
 10
158.827
 20
84.429100000000005
 30
0.0
 11
167.53599999999989
 21
84.429100000000005
 31
0.0
  0
LINE
  5
F4
  8
0
 62
     7
 10
167.36799999999999
 20
95.629199999999997
 30
0.0
 11
167.13599999999991
 21
84.837699999999984
 31
0.0
  0
ARC
  5
F5
  8
0
 62
     7
 10
167.551524
 20
84.843941999999998
 30
0.0
 40
0.415496
 50
180.8559249999999
 51
266.6769680000001
  0
LINE
  5
F6
  8
0
 62
     7
 10
167.52699999999999
 20
84.429100000000005
 30
0.0
 11
167.53599999999989
 21
84.429100000000005
 31
0.0
  0
LINE
  5
F7
  8
0
 62
     7
 10
155.28100000000001
 20
83.009100000000004
 30
0.0
 11
155.8539999999999
 21
83.009100000000004
 31
0.0
  0
LINE
  5
F8
  8
0
 62
     7
 10
153.828
 20
80.129599999999996
 30
0.0
 11
153.828
 21
81.555899999999994
 31
0.0
  0
ARC
  5
F9
  8
0
 62
     7
 10
155.33638300000001
 20
81.500269999999986
 30
0.0
 40
1.509822999999999
 50
92.112174999999993
 51
177.8877949999999
  0
ARC
  5
FA
  8
0
 62
     7
 10
155.81246999999999
 20
84.214116000000004
 30
0.0
 40
1.2057649999999991
 50
271.97403500000001
 51
355.80790399999989
  0
LINE
  5
FB
  8
0
 62
     7
 10
156.67699999999999
 20
96.148099999999999
 30
0.0
 11
156.214
 21
84.109399999999994
 31
0.0
  0
LINE
  5
FC
  8
0
 62
     7
 10
155.71399999999991
 20
83.629199999999997
 30
0.0
 11
155.227
 21
83.629199999999997
 31
0.0
  0
ARC
  5
FD
  8
0
 62
     7
 10
155.6967939999999
 20
84.147152000000006
 30
0.0
 40
0.518254
 50
271.91719699999999
 51
355.826731
  0
LINE
  5
FE
  8
0
 62
     7
 10
148.42699999999999
 20
80.128900000000002
 30
0.0
 11
147.42699999999999
 21
80.128900000000002
 31
0.0
  0
LINE
  5
FF
  8
0
 62
     7
 10
148.42699999999999
 20
81.628999999999976
 30
0.0
 11
147.42699999999999
 21
81.628999999999976
 31
0.0
  0
LINE
  5
100
  8
0
 62
     7
 10
147.42699999999999
 20
80.128900000000002
 30
0.0
 11
147.42699999999999
 21
81.628999999999976
 31
0.0
  0
LINE
  5
101
  8
0
 62
     7
 10
148.42699999999999
 20
82.628699999999995
 30
0.0
 11
146.227
 21
83.629199999999997
 31
0.0
  0
LINE
  5
102
  8
0
 62
     7
 10
148.42699999999999
 20
82.628699999999995
 30
0.0
 11
150.727
 21
82.628699999999995
 31
0.0
  0
LINE
  5
103
  8
0
 62
     7
 10
148.42699999999999
 20
81.628999999999976
 30
0.0
 11
150.727
 21
81.628999999999976
 31
0.0
  0
LINE
  5
104
  8
0
 62
     7
 10
148.42699999999999
 20
80.128900000000002
 30
0.0
 11
150.727
 21
80.128900000000002
 31
0.0
  0
LINE
  5
105
  8
0
 62
     7
 10
148.42699999999999
 20
81.628999999999976
 30
0.0
 11
148.42699999999999
 21
82.628699999999995
 31
0.0
  0
LINE
  5
106
  8
0
 62
     7
 10
148.42699999999999
 20
78.628900000000002
 30
0.0
 11
148.42699999999999
 21
80.128900000000002
 31
0.0
  0
LINE
  5
107
  8
0
 62
     7
 10
146.92699999999999
 20
78.628900000000002
 30
0.0
 11
146.92699999999999
 21
82.363499999999988
 31
0.0
  0
ARC
  5
108
  8
0
 62
     7
 10
145.89756
 20
82.341202999999993
 30
0.0
 40
1.029696999999999
 50
1.23811
 51
73.554377000000017
  0
LINE
  5
109
  8
0
 62
     7
 10
146.227
 20
83.629199999999997
 30
0.0
 11
155.227
 21
83.629199999999997
 31
0.0
  0
LINE
  5
10A
  8
0
 62
     7
 10
168.19499999999999
 20
97.606000000000009
 30
0.0
 11
168.21599999999989
 21
98.607900000000015
 31
0.0
  0
LINE
  5
10B
  8
0
 62
     7
 10
168.21599999999989
 20
98.607900000000015
 30
0.0
 11
168.227
 21
99.128800000000012
 31
0.0
  0
LINE
  5
10C
  8
0
 62
     7
 10
129.227
 20
97.628799999999998
 30
0.0
 11
167.21700000000001
 21
97.628799999999998
 31
0.0
  0
ARC
  5
10D
  8
0
 62
     7
 10
167.1801199999999
 20
98.666100000000014
 30
0.0
 40
1.0379780000000001
 50
272.01909499999999
 51
356.78397100000001
  0
LINE
  5
10E
  8
0
 62
     7
 10
157.17599999999999
 20
96.629000000000005
 30
0.0
 11
167.19499999999999
 21
96.629000000000005
 31
0.0
  0
ARC
  5
10F
  8
0
 62
     7
 10
167.15880799999999
 20
97.666320000000013
 30
0.0
 40
1.0379689999999999
 50
272.01646599999998
 51
356.74627400000003
  0
ARC
  5
110
  8
0
 62
     7
 10
157.1938759999999
 20
96.110773999999992
 30
0.0
 40
0.51852
 50
91.949081999999976
 51
175.87688899999989
  0
LINE
  5
111
  8
0
 62
     7
 10
155.94099999999989
 20
79.416499999999999
 30
0.0
 11
154.92599999999999
 21
79.333100000000002
 31
0.0
  0
ARC
  5
112
  8
0
 62
     7
 10
155.6004979999999
 20
82.499256000000003
 30
0.0
 40
3.1014849999999989
 50
276.29970800000001
 51
354.82385199999987
  0
LINE
  5
113
  8
0
 62
     7
 10
153.02799999999991
 20
82.628699999999995
 30
0.0
 11
155.227
 21
83.629199999999997
 31
0.0
  0
LINE
  5
114
  8
0
 62
     7
 10
153.02799999999991
 20
82.628699999999995
 30
0.0
 11
150.727
 21
82.628699999999995
 31
0.0
  0
LINE
  5
115
  8
0
 62
     7
 10
153.828
 20
81.628999999999976
 30
0.0
 11
150.727
 21
81.628999999999976
 31
0.0
  0
LINE
  5
116
  8
0
 62
     7
 10
153.02799999999991
 20
80.128900000000002
 30
0.0
 11
150.727
 21
80.128900000000002
 31
0.0
  0
LINE
  5
117
  8
0
 62
     7
 10
153.02799999999991
 20
78.628900000000002
 30
0.0
 11
153.02799999999991
 21
82.628699999999995
 31
0.0
  0
LINE
  5
118
  8
0
 62
     7
 10
161.477
 20
95.629199999999997
 30
0.0
 11
161.477
 21
96.629000000000005
 31
0.0
  0
LINE
  5
119
  8
0
 62
     7
 10
164.977
 20
95.629199999999997
 30
0.0
 11
164.977
 21
96.629000000000005
 31
0.0
  0
LINE
  5
11A
  8
0
  6
AIGENLINE001
 62
     7
 10
163.227
 20
94.616399999999999
 30
0.0
 11
163.227
 21
98.822199999999995
 31
0.0
  0
LINE
  5
11B
  8
0
 62
     7
 10
170.52699999999999
 20
96.429199999999994
 30
0.0
 11
171.72799999999989
 21
96.429199999999994
 31
0.0
  0
LINE
  5
11C
  8
0
 62
     7
 10
171.72799999999989
 20
96.429199999999994
 30
0.0
 11
171.72799999999989
 21
99.128800000000012
 31
0.0
  0
LINE
  5
11D
  8
0
 62
     7
 10
171.227
 20
99.628999999999991
 30
0.0
 11
168.72799999999989
 21
99.628999999999991
 31
0.0
  0
ARC
  5
11E
  8
0
 62
     7
 10
171.227496
 20
99.128771000000015
 30
0.0
 40
0.5002310000000002
 50
0.00001
 51
89.999980000000008
  0
ARC
  5
11F
  8
0
 62
     7
 10
168.72771900000001
 20
99.128771000000015
 30
0.0
 40
0.5002310000000002
 50
90.0
 51
179.99996999999991
  0
LINE
  5
120
  8
0
 62
     7
 10
154.52699999999999
 20
78.628900000000002
 30
0.0
 11
154.52699999999999
 21
78.900400000000005
 31
0.0
  0
ARC
  5
121
  8
0
 62
     7
 10
154.97710599999991
 20
78.885644999999997
 30
0.0
 40
0.4504030000000001
 50
96.529291999999998
 51
178.1201429999999
  0
LINE
  5
122
  8
0
 62
     7
 10
154.52699999999999
 20
78.628900000000002
 30
0.0
 11
150.727
 21
78.628900000000002
 31
0.0
  0
LINE
  5
123
  8
0
  6
AIGENLINE001
 62
     7
 10
150.727
 20
77.186099999999996
 30
0.0
 11
150.727
 21
85.294600000000003
 31
0.0
  0
LINE
  5
124
  8
0
 62
     7
 10
150.727
 20
78.628900000000002
 30
0.0
 11
146.92699999999999
 21
78.628900000000002
 31
0.0
  0
LINE
  5
125
  8
0
 62
     7
 10
126.92700000000001
 20
96.429199999999994
 30
0.0
 11
126.92700000000001
 21
96.728899999999996
 31
0.0
  0
LINE
  5
126
  8
0
 62
     7
 10
128.12700000000001
 20
96.728899999999996
 30
0.0
 11
126.92700000000001
 21
96.728899999999996
 31
0.0
  0
LINE
  5
127
  8
0
 62
     7
 10
126.92700000000001
 20
96.429199999999994
 30
0.0
 11
125.727
 21
96.429199999999994
 31
0.0
  0
LINE
  5
128
  8
0
 62
     7
 10
125.727
 20
96.429199999999994
 30
0.0
 11
125.727
 21
97.129199999999997
 31
0.0
  0
ARC
  5
129
  8
0
 62
     7
 10
126.24637
 20
97.109513000000007
 30
0.0
 40
0.519601
 50
92.095127000000019
 51
177.8258689999999
  0
LINE
  5
12A
  8
0
 62
     7
 10
32.2547
 20
99.628999999999991
 30
0.0
 11
40.280099999999997
 21
99.628999999999991
 31
0.0
  0
LINE
  5
12B
  8
0
 62
     7
 10
32.254899999999999
 20
97.628799999999998
 30
0.0
 11
40.280099999999997
 21
97.628799999999998
 31
0.0
  0
LINE
  5
12C
  8
0
 62
     7
 10
32.254899999999999
 20
96.429199999999994
 30
0.0
 11
40.280099999999997
 21
96.429199999999994
 31
0.0
  0
LINE
  5
12D
  8
0
 62
     7
 10
32.254899999999999
 20
78.628900000000002
 30
0.0
 11
64.222200000000001
 21
78.628900000000002
 31
0.0
  0
LINE
  5
12E
  8
0
 62
     7
 10
33.392099999999999
 20
94.218799999999987
 30
0.0
 11
32.799900000000001
 21
96.429199999999994
 31
0.0
  0
LINE
  5
12F
  8
0
 62
     7
 10
32.799900000000001
 20
96.429199999999994
 30
0.0
 11
32.207500000000003
 21
94.218799999999987
 31
0.0
  0
LINE
  5
130
  8
0
 62
     7
 10
32.207500000000003
 20
94.218799999999987
 30
0.0
 11
33.392099999999999
 21
94.218799999999987
 31
0.0
  0
LINE
  5
131
  8
0
 62
     7
 10
32.222200000000001
 20
101.8389999999999
 30
0.0
 11
32.814399999999992
 21
99.628999999999991
 31
0.0
  0
LINE
  5
132
  8
0
 62
     7
 10
32.814399999999992
 20
99.628999999999991
 30
0.0
 11
33.40679999999999
 21
101.8389999999999
 31
0.0
  0
LINE
  5
133
  8
0
 62
     7
 10
33.40679999999999
 20
101.8389999999999
 30
0.0
 11
32.222200000000001
 21
101.8389999999999
 31
0.0
  0
LINE
  5
134
  8
0
 62
     7
 10
32.222200000000001
 20
80.839299999999994
 30
0.0
 11
32.814399999999992
 21
78.628900000000002
 31
0.0
  0
LINE
  5
135
  8
0
 62
     7
 10
32.814399999999992
 20
78.628900000000002
 30
0.0
 11
33.40679999999999
 21
80.839299999999994
 31
0.0
  0
LINE
  5
136
  8
0
 62
     7
 10
33.40679999999999
 20
80.839299999999994
 30
0.0
 11
32.222200000000001
 21
80.839299999999994
 31
0.0
  0
LINE
  5
137
  8
0
 62
     7
 10
32.807200000000002
 20
106.191
 30
0.0
 11
32.807200000000002
 21
78.628900000000002
 31
0.0
  0
LINE
  5
138
  8
0
 62
     7
 10
92.031800000000004
 20
84.429100000000005
 30
0.0
 11
105.074
 21
84.429100000000005
 31
0.0
  0
LINE
  5
139
  8
0
 62
     7
 10
97.823099999999997
 20
96.429199999999994
 30
0.0
 11
105.074
 21
96.429199999999994
 31
0.0
  0
LINE
  5
13A
  8
0
 62
     7
 10
103.81399999999989
 20
86.639499999999984
 30
0.0
 11
104.40599999999991
 21
84.428499999999985
 31
0.0
  0
LINE
  5
13B
  8
0
 62
     7
 10
104.40599999999991
 20
84.428499999999985
 30
0.0
 11
104.9989999999999
 21
86.639499999999984
 31
0.0
  0
LINE
  5
13C
  8
0
 62
     7
 10
104.9989999999999
 20
86.639499999999984
 30
0.0
 11
103.81399999999989
 21
86.639499999999984
 31
0.0
  0
LINE
  5
13D
  8
0
 62
     7
 10
104.9839999999999
 20
94.218799999999987
 30
0.0
 11
104.392
 21
96.429199999999994
 31
0.0
  0
LINE
  5
13E
  8
0
 62
     7
 10
104.392
 20
96.429199999999994
 30
0.0
 11
103.8
 21
94.218799999999987
 31
0.0
  0
LINE
  5
13F
  8
0
 62
     7
 10
103.8
 20
94.218799999999987
 30
0.0
 11
104.9839999999999
 21
94.218799999999987
 31
0.0
  0
LINE
  5
140
  8
0
 62
     7
 10
104.3989999999999
 20
84.429100000000005
 30
0.0
 11
104.3989999999999
 21
96.429199999999994
 31
0.0
  0
LINE
  5
141
  8
0
 62
     7
 10
94.164699999999996
 20
96.429199999999994
 30
0.0
 11
91.023399999999995
 21
84.798500000000004
 31
0.0
  0
ARC
  5
142
  8
0
 62
     7
 10
90.529744999999991
 20
84.943623000000002
 30
0.0
 40
0.5145970000000001
 50
271.22902999999991
 51
343.61508300000003
  0
LINE
  5
143
  8
0
 62
     7
 10
90.540800000000004
 20
84.429100000000005
 30
0.0
 11
47.3063
 21
84.429100000000005
 31
0.0
  0
LINE
  5
144
  8
0
 62
     7
 10
43.68249999999999
 20
96.429199999999994
 30
0.0
 11
46.823599999999999
 21
84.798500000000004
 31
0.0
  0
ARC
  5
145
  8
0
 62
     7
 10
47.317352999999997
 20
84.943664999999996
 30
0.0
 40
0.5146390000000001
 50
196.388383
 51
268.76754299999999
  0
LINE
  5
146
  8
0
 62
     7
 10
96.923900000000003
 20
97.129199999999997
 30
0.0
 11
96.923900000000003
 21
96.429199999999994
 31
0.0
  0
LINE
  5
147
  8
0
 62
     7
 10
96.923900000000003
 20
99.128800000000012
 30
0.0
 11
96.923900000000003
 21
97.129199999999997
 31
0.0
  0
LINE
  5
148
  8
0
 62
     7
 10
96.424000000000007
 20
97.628799999999998
 30
0.0
 11
41.423099999999998
 21
97.628799999999998
 31
0.0
  0
ARC
  5
149
  8
0
 62
     7
 10
96.405302000000006
 20
97.110159999999993
 30
0.0
 40
0.518944
 50
2.1053639999999989
 51
87.934127000000004
  0
LINE
  5
14A
  8
0
 62
     7
 10
96.424000000000007
 20
99.628999999999991
 30
0.0
 11
41.423099999999998
 21
99.628999999999991
 31
0.0
  0
ARC
  5
14B
  8
0
 62
     7
 10
96.404631000000009
 20
99.109750000000005
 30
0.0
 40
0.5196130000000001
 50
2.0977749999999991
 51
87.862741999999983
  0
LINE
  5
14C
  8
0
 62
     7
 10
40.923199999999987
 20
97.129199999999997
 30
0.0
 11
40.923199999999987
 21
96.429199999999994
 31
0.0
  0
LINE
  5
14D
  8
0
 62
     7
 10
40.923199999999987
 20
99.128800000000012
 30
0.0
 11
40.923199999999987
 21
97.129199999999997
 31
0.0
  0
ARC
  5
14E
  8
0
 62
     7
 10
41.442064999999999
 20
97.109859
 30
0.0
 40
0.5192560000000001
 50
92.097848999999997
 51
177.8626209999999
  0
ARC
  5
14F
  8
0
 62
     7
 10
41.442112999999999
 20
99.110072000000002
 30
0.0
 40
0.51928
 50
92.103113000000022
 51
177.93633099999991
  0
LINE
  5
150
  8
0
 62
     7
 10
72.723500000000001
 20
78.628900000000002
 30
0.0
 11
65.123599999999996
 21
78.628900000000002
 31
0.0
  0
LINE
  5
151
  8
0
 62
     7
 10
96.923900000000003
 20
96.429199999999994
 30
0.0
 11
40.923199999999987
 21
96.429199999999994
 31
0.0
  0
LINE
  5
152
  8
0
 62
     7
 10
38.712400000000002
 20
147.97999999999999
 30
0.0
 11
40.923199999999987
 21
148.572
 31
0.0
  0
LINE
  5
153
  8
0
 62
     7
 10
40.923199999999987
 20
148.572
 30
0.0
 11
38.712400000000002
 21
149.1639999999999
 31
0.0
  0
LINE
  5
154
  8
0
 62
     7
 10
38.712400000000002
 20
149.1639999999999
 30
0.0
 11
38.712400000000002
 21
147.97999999999999
 31
0.0
  0
LINE
  5
155
  8
0
 62
     7
 10
91.213300000000004
 20
147.97999999999999
 30
0.0
 11
93.423999999999992
 21
148.572
 31
0.0
  0
LINE
  5
156
  8
0
 62
     7
 10
93.423999999999992
 20
148.572
 30
0.0
 11
91.213300000000004
 21
149.1639999999999
 31
0.0
  0
LINE
  5
157
  8
0
 62
     7
 10
91.213300000000004
 20
149.1639999999999
 30
0.0
 11
91.213300000000004
 21
147.97999999999999
 31
0.0
  0
LINE
  5
158
  8
0
 62
     7
 10
99.134299999999996
 20
149.15000000000001
 30
0.0
 11
96.923900000000003
 21
148.55799999999991
 31
0.0
  0
LINE
  5
159
  8
0
 62
     7
 10
96.923900000000003
 20
148.55799999999991
 30
0.0
 11
99.134299999999996
 21
147.965
 31
0.0
  0
LINE
  5
15A
  8
0
 62
     7
 10
99.134299999999996
 20
147.965
 30
0.0
 11
99.134299999999996
 21
149.15000000000001
 31
0.0
  0
LINE
  5
15B
  8
0
 62
     7
 10
46.633499999999998
 20
149.15000000000001
 30
0.0
 11
44.423099999999991
 21
148.55799999999991
 31
0.0
  0
LINE
  5
15C
  8
0
 62
     7
 10
44.423099999999991
 20
148.55799999999991
 30
0.0
 11
46.633499999999998
 21
147.965
 31
0.0
  0
LINE
  5
15D
  8
0
 62
     7
 10
46.633499999999998
 20
147.965
 30
0.0
 11
46.633499999999998
 21
149.15000000000001
 31
0.0
  0
LINE
  5
15E
  8
0
 62
     7
 10
104.163
 20
148.56499999999991
 30
0.0
 11
33.1798
 21
148.56499999999991
 31
0.0
  0
LINE
  5
15F
  8
0
 62
     7
 10
50.592399999999991
 20
200.86500000000001
 30
0.0
 11
51.184600000000003
 21
198.655
 31
0.0
  0
LINE
  5
160
  8
0
 62
     7
 10
51.184600000000003
 20
198.655
 30
0.0
 11
51.777000000000001
 21
200.86500000000001
 31
0.0
  0
LINE
  5
161
  8
0
 62
     7
 10
51.777000000000001
 20
200.86500000000001
 30
0.0
 11
50.592399999999991
 21
200.86500000000001
 31
0.0
  0
LINE
  5
162
  8
0
 62
     7
 10
50.592399999999991
 20
209.3659999999999
 30
0.0
 11
51.184600000000003
 21
207.155
 31
0.0
  0
LINE
  5
163
  8
0
 62
     7
 10
51.184600000000003
 20
207.155
 30
0.0
 11
51.777000000000001
 21
209.3659999999999
 31
0.0
  0
LINE
  5
164
  8
0
 62
     7
 10
51.777000000000001
 20
209.3659999999999
 30
0.0
 11
50.592399999999991
 21
209.3659999999999
 31
0.0
  0
LINE
  5
165
  8
0
 62
     7
 10
50.592399999999991
 20
194.36500000000001
 30
0.0
 11
51.184600000000003
 21
192.155
 31
0.0
  0
LINE
  5
166
  8
0
 62
     7
 10
51.184600000000003
 20
192.155
 30
0.0
 11
51.777000000000001
 21
194.36500000000001
 31
0.0
  0
LINE
  5
167
  8
0
 62
     7
 10
51.777000000000001
 20
194.36500000000001
 30
0.0
 11
50.592399999999991
 21
194.36500000000001
 31
0.0
  0
LINE
  5
168
  8
0
 62
     7
 10
51.762399999999992
 20
201.44399999999999
 30
0.0
 11
51.170200000000001
 21
203.655
 31
0.0
  0
LINE
  5
169
  8
0
 62
     7
 10
51.170200000000001
 20
203.655
 30
0.0
 11
50.577800000000011
 21
201.44399999999999
 31
0.0
  0
LINE
  5
16A
  8
0
 62
     7
 10
50.577800000000011
 20
201.44399999999999
 30
0.0
 11
51.762399999999992
 21
201.44399999999999
 31
0.0
  0
LINE
  5
16B
  8
0
 62
     7
 10
51.762399999999992
 20
196.44399999999999
 30
0.0
 11
51.170200000000001
 21
198.655
 31
0.0
  0
LINE
  5
16C
  8
0
 62
     7
 10
51.170200000000001
 20
198.655
 30
0.0
 11
50.577800000000011
 21
196.44399999999999
 31
0.0
  0
LINE
  5
16D
  8
0
 62
     7
 10
50.577800000000011
 20
196.44399999999999
 30
0.0
 11
51.762399999999992
 21
196.44399999999999
 31
0.0
  0
LINE
  5
16E
  8
0
 62
     7
 10
51.177399999999999
 20
192.155
 30
0.0
 11
51.177399999999999
 21
213.971
 31
0.0
  0
LINE
  5
16F
  8
0
 62
     7
 10
50.78929999999999
 20
198.655
 30
0.0
 11
55.664700000000003
 21
198.655
 31
0.0
  0
LINE
  5
170
  8
0
 62
     7
 10
68.923400000000001
 20
215.494
 30
0.0
 11
68.923400000000001
 21
211.179
 31
0.0
  0
LINE
  5
171
  8
0
 62
     7
 10
71.133700000000005
 20
215.52799999999991
 30
0.0
 11
68.923400000000001
 21
214.93599999999989
 31
0.0
  0
LINE
  5
172
  8
0
 62
     7
 10
68.923400000000001
 20
214.93599999999989
 30
0.0
 11
71.133700000000005
 21
214.3429999999999
 31
0.0
  0
LINE
  5
173
  8
0
 62
     7
 10
71.133700000000005
 20
214.3429999999999
 30
0.0
 11
71.133700000000005
 21
215.52799999999991
 31
0.0
  0
LINE
  5
174
  8
0
 62
     7
 10
61.133800000000001
 20
215.52799999999991
 30
0.0
 11
58.923400000000001
 21
214.93599999999989
 31
0.0
  0
LINE
  5
175
  8
0
 62
     7
 10
58.923400000000001
 20
214.93599999999989
 30
0.0
 11
61.133800000000001
 21
214.3429999999999
 31
0.0
  0
LINE
  5
176
  8
0
 62
     7
 10
61.133800000000001
 20
214.3429999999999
 30
0.0
 11
61.133800000000001
 21
215.52799999999991
 31
0.0
  0
LINE
  5
177
  8
0
 62
     7
 10
66.712800000000001
 20
214.358
 30
0.0
 11
68.923400000000001
 21
214.9499999999999
 31
0.0
  0
LINE
  5
178
  8
0
 62
     7
 10
68.923400000000001
 20
214.9499999999999
 30
0.0
 11
66.712800000000001
 21
215.54299999999989
 31
0.0
  0
LINE
  5
179
  8
0
 62
     7
 10
66.712800000000001
 20
215.54299999999989
 30
0.0
 11
66.712800000000001
 21
214.358
 31
0.0
  0
LINE
  5
17A
  8
0
 62
     7
 10
76.713099999999997
 20
214.358
 30
0.0
 11
78.923699999999997
 21
214.9499999999999
 31
0.0
  0
LINE
  5
17B
  8
0
 62
     7
 10
78.923699999999997
 20
214.9499999999999
 30
0.0
 11
76.713099999999997
 21
215.54299999999989
 31
0.0
  0
LINE
  5
17C
  8
0
 62
     7
 10
76.713099999999997
 20
215.54299999999989
 30
0.0
 11
76.713099999999997
 21
214.358
 31
0.0
  0
LINE
  5
17D
  8
0
 62
     7
 10
58.923400000000001
 20
214.9429999999999
 30
0.0
 11
78.9238
 21
214.9429999999999
 31
0.0
  0
LINE
  5
17E
  8
0
 62
     7
 10
58.923400000000001
 20
215.613
 30
0.0
 11
58.923400000000001
 21
202.3719999999999
 31
0.0
  0
LINE
  5
17F
  8
0
 62
     7
 10
78.923500000000004
 20
215.673
 30
0.0
 11
78.923500000000004
 21
202.3719999999999
 31
0.0
  0
LINE
  5
180
  8
0
  6
AIGENLINE001
 62
     7
 10
58.923400000000001
 20
201.797
 30
0.0
 11
58.923400000000001
 21
195.1509999999999
 31
0.0
  0
LINE
  5
181
  8
0
  6
AIGENLINE001
 62
     7
 10
78.923500000000004
 20
201.797
 30
0.0
 11
78.923500000000004
 21
195.1509999999999
 31
0.0
  0
LINE
  5
182
  8
0
  6
AIGENLINE001
 62
     7
 10
56.125399999999999
 20
198.655
 30
0.0
 11
82.615300000000005
 21
198.655
 31
0.0
  0
LINE
  5
183
  8
0
 62
     7
 10
25.418800000000001
 20
163.36500000000001
 30
0.0
 11
26.010999999999999
 21
161.155
 31
0.0
  0
LINE
  5
184
  8
0
 62
     7
 10
26.010999999999999
 20
161.155
 30
0.0
 11
26.603400000000001
 21
163.36500000000001
 31
0.0
  0
LINE
  5
185
  8
0
 62
     7
 10
26.603400000000001
 20
163.36500000000001
 30
0.0
 11
25.418800000000001
 21
163.36500000000001
 31
0.0
  0
LINE
  5
186
  8
0
 62
     7
 10
26.588699999999999
 20
204.94499999999991
 30
0.0
 11
25.996500000000001
 21
207.155
 31
0.0
  0
LINE
  5
187
  8
0
 62
     7
 10
25.996500000000001
 20
207.155
 30
0.0
 11
25.4041
 21
204.94499999999991
 31
0.0
  0
LINE
  5
188
  8
0
 62
     7
 10
25.4041
 20
204.94499999999991
 30
0.0
 11
26.588699999999999
 21
204.94499999999991
 31
0.0
  0
LINE
  5
189
  8
0
 62
     7
 10
26.003699999999991
 20
161.155
 30
0.0
 11
26.003699999999991
 21
207.155
 31
0.0
  0
LINE
  5
18A
  8
0
 62
     7
 10
32.230600000000003
 20
192.155
 30
0.0
 11
43.459099999999992
 21
192.155
 31
0.0
  0
LINE
  5
18B
  8
0
 62
     7
 10
33.392099999999999
 20
189.94399999999999
 30
0.0
 11
32.799900000000001
 21
192.155
 31
0.0
  0
LINE
  5
18C
  8
0
 62
     7
 10
32.799900000000001
 20
192.155
 30
0.0
 11
32.207500000000003
 21
189.94399999999999
 31
0.0
  0
LINE
  5
18D
  8
0
 62
     7
 10
32.207500000000003
 20
189.94399999999999
 30
0.0
 11
33.392099999999999
 21
189.94399999999999
 31
0.0
  0
LINE
  5
18E
  8
0
 62
     7
 10
33.392099999999999
 20
158.9439999999999
 30
0.0
 11
32.799900000000001
 21
161.155
 31
0.0
  0
LINE
  5
18F
  8
0
 62
     7
 10
32.799900000000001
 20
161.155
 30
0.0
 11
32.207500000000003
 21
158.9439999999999
 31
0.0
  0
LINE
  5
190
  8
0
 62
     7
 10
32.207500000000003
 20
158.9439999999999
 30
0.0
 11
33.392099999999999
 21
158.9439999999999
 31
0.0
  0
LINE
  5
191
  8
0
 62
     7
 10
33.392099999999999
 20
204.94399999999999
 30
0.0
 11
32.799900000000001
 21
207.155
 31
0.0
  0
LINE
  5
192
  8
0
 62
     7
 10
32.799900000000001
 20
207.155
 30
0.0
 11
32.207500000000003
 21
204.94399999999999
 31
0.0
  0
LINE
  5
193
  8
0
 62
     7
 10
32.207500000000003
 20
204.94399999999999
 30
0.0
 11
33.392099999999999
 21
204.94399999999999
 31
0.0
  0
LINE
  5
194
  8
0
 62
     7
 10
32.222200000000001
 20
194.36500000000001
 30
0.0
 11
32.814399999999992
 21
192.155
 31
0.0
  0
LINE
  5
195
  8
0
 62
     7
 10
32.814399999999992
 20
192.155
 30
0.0
 11
33.40679999999999
 21
194.36500000000001
 31
0.0
  0
LINE
  5
196
  8
0
 62
     7
 10
33.40679999999999
 20
194.36500000000001
 30
0.0
 11
32.222200000000001
 21
194.36500000000001
 31
0.0
  0
LINE
  5
197
  8
0
 62
     7
 10
32.222200000000001
 20
166.86500000000001
 30
0.0
 11
32.814399999999992
 21
164.65499999999989
 31
0.0
  0
LINE
  5
198
  8
0
 62
     7
 10
32.814399999999992
 20
164.65499999999989
 30
0.0
 11
33.40679999999999
 21
166.86500000000001
 31
0.0
  0
LINE
  5
199
  8
0
 62
     7
 10
33.40679999999999
 20
166.86500000000001
 30
0.0
 11
32.222200000000001
 21
166.86500000000001
 31
0.0
  0
LINE
  5
19A
  8
0
 62
     7
 10
32.807200000000002
 20
207.155
 30
0.0
 11
32.807200000000002
 21
154.58199999999991
 31
0.0
  0
LINE
  5
19B
  8
0
 62
     7
 10
32.254899999999999
 20
164.65499999999989
 30
0.0
 11
43.459099999999992
 21
164.65499999999989
 31
0.0
  0
LINE
  5
19C
  8
0
 62
     7
 10
42.742899999999992
 20
161.155
 30
0.0
 11
25.5562
 21
161.155
 31
0.0
  0
LINE
  5
19D
  8
0
 62
     7
 10
103.64700000000001
 20
188.36500000000001
 30
0.0
 11
104.2389999999999
 21
186.155
 31
0.0
  0
LINE
  5
19E
  8
0
 62
     7
 10
104.2389999999999
 20
186.155
 30
0.0
 11
104.83199999999999
 21
188.36500000000001
 31
0.0
  0
LINE
  5
19F
  8
0
 62
     7
 10
104.83199999999999
 20
188.36500000000001
 30
0.0
 11
103.64700000000001
 21
188.36500000000001
 31
0.0
  0
LINE
  5
1A0
  8
0
 62
     7
 10
125.973
 20
202.5929999999999
 30
0.0
 11
124.25399999999991
 21
204.10400000000001
 31
0.0
  0
LINE
  5
1A1
  8
0
 62
     7
 10
124.25399999999991
 20
204.10400000000001
 30
0.0
 11
124.98699999999999
 21
201.93599999999989
 31
0.0
  0
LINE
  5
1A2
  8
0
 62
     7
 10
124.98699999999999
 20
201.93599999999989
 30
0.0
 11
125.973
 21
202.5929999999999
 31
0.0
  0
LINE
  5
1A3
  8
0
 62
     7
 10
130.98799999999989
 20
194.005
 30
0.0
 11
124.261
 21
204.108
 31
0.0
  0
LINE
  5
1A4
  8
0
 62
     7
 10
104.81699999999999
 20
204.94499999999991
 30
0.0
 11
104.22499999999989
 21
207.155
 31
0.0
  0
LINE
  5
1A5
  8
0
 62
     7
 10
104.22499999999989
 20
207.155
 30
0.0
 11
103.6329999999999
 21
204.94499999999991
 31
0.0
  0
LINE
  5
1A6
  8
0
 62
     7
 10
103.6329999999999
 20
204.94499999999991
 30
0.0
 11
104.81699999999999
 21
204.94499999999991
 31
0.0
  0
LINE
  5
1A7
  8
0
 62
     7
 10
104.232
 20
186.155
 30
0.0
 11
104.232
 21
207.155
 31
0.0
  0
LINE
  5
1A8
  8
0
 62
     7
 10
76.834000000000003
 20
186.155
 30
0.0
 11
104.813
 21
186.155
 31
0.0
  0
LINE
  5
1A9
  8
0
  6
AIGENLINE001
 62
     7
 10
61.8643
 20
186.155
 30
0.0
 11
75.905799999999999
 21
186.155
 31
0.0
  0
LINE
  5
1AA
  8
0
 62
     7
 10
94.713300000000004
 20
140.77099999999999
 30
0.0
 11
96.923699999999997
 21
141.36199999999991
 31
0.0
  0
LINE
  5
1AB
  8
0
 62
     7
 10
96.923699999999997
 20
141.36199999999991
 30
0.0
 11
94.713300000000004
 21
141.95500000000001
 31
0.0
  0
LINE
  5
1AC
  8
0
 62
     7
 10
94.713300000000004
 20
141.95500000000001
 30
0.0
 11
94.713300000000004
 21
140.77099999999999
 31
0.0
  0
LINE
  5
1AD
  8
0
 62
     7
 10
43.133600000000001
 20
141.941
 30
0.0
 11
40.923199999999987
 21
141.3479999999999
 31
0.0
  0
LINE
  5
1AE
  8
0
 62
     7
 10
40.923199999999987
 20
141.3479999999999
 30
0.0
 11
43.133600000000001
 21
140.75599999999989
 31
0.0
  0
LINE
  5
1AF
  8
0
 62
     7
 10
43.133600000000001
 20
140.75599999999989
 30
0.0
 11
43.133600000000001
 21
141.941
 31
0.0
  0
LINE
  5
1B0
  8
0
 62
     7
 10
96.923900000000003
 20
141.35599999999991
 30
0.0
 11
40.923199999999987
 21
141.35599999999991
 31
0.0
  0
LINE
  5
1B1
  8
0
 62
     7
 10
71.305300000000003
 20
201.874
 30
0.0
 11
70.161000000000001
 21
199.892
 31
0.0
  0
LINE
  5
1B2
  8
0
 62
     7
 10
70.161000000000001
 20
199.892
 30
0.0
 11
72.143000000000001
 21
201.03699999999989
 31
0.0
  0
LINE
  5
1B3
  8
0
 62
     7
 10
72.143000000000001
 20
201.03699999999989
 30
0.0
 11
71.305300000000003
 21
201.874
 31
0.0
  0
LINE
  5
1B4
  8
0
 62
     7
 10
71.693899999999985
 20
189.76300000000001
 30
0.0
 11
70.549599999999998
 21
187.78099999999989
 31
0.0
  0
LINE
  5
1B5
  8
0
 62
     7
 10
70.549599999999998
 20
187.78099999999989
 30
0.0
 11
72.531599999999997
 21
188.92500000000001
 31
0.0
  0
LINE
  5
1B6
  8
0
 62
     7
 10
72.531599999999997
 20
188.92500000000001
 30
0.0
 11
71.693899999999985
 21
189.76300000000001
 31
0.0
  0
LINE
  5
1B7
  8
0
 62
     7
 10
66.541799999999995
 20
195.43599999999989
 30
0.0
 11
67.686000000000007
 21
197.41699999999989
 31
0.0
  0
LINE
  5
1B8
  8
0
 62
     7
 10
67.686000000000007
 20
197.41699999999989
 30
0.0
 11
65.704099999999997
 21
196.273
 31
0.0
  0
LINE
  5
1B9
  8
0
 62
     7
 10
65.704099999999997
 20
196.273
 30
0.0
 11
66.541799999999995
 21
195.43599999999989
 31
0.0
  0
LINE
  5
1BA
  8
0
 62
     7
 10
66.152799999999999
 20
182.54699999999991
 30
0.0
 11
67.2971
 21
184.529
 31
0.0
  0
LINE
  5
1BB
  8
0
 62
     7
 10
67.2971
 20
184.529
 30
0.0
 11
65.315100000000001
 21
183.38399999999999
 31
0.0
  0
LINE
  5
1BC
  8
0
 62
     7
 10
65.315100000000001
 20
183.38399999999999
 30
0.0
 11
66.152799999999999
 21
182.54699999999991
 31
0.0
  0
LINE
  5
1BD
  8
0
 62
     7
 10
53.588099999999997
 20
183.31999999999991
 30
0.0
 11
74.125500000000002
 21
203.85699999999991
 31
0.0
  0
LINE
  5
1BE
  8
0
 62
     7
 10
58.6907
 20
175.922
 30
0.0
 11
74.125299999999996
 21
191.35699999999991
 31
0.0
  0
LINE
  5
1BF
  8
0
 62
     7
 10
98.08250000000001
 20
207.155
 30
0.0
 11
104.813
 21
207.155
 31
0.0
  0
LINE
  5
1C0
  8
0
 62
     7
 10
93.423999999999992
 20
163.62299999999991
 30
0.0
 11
93.423999999999992
 21
147.92899999999989
 31
0.0
  0
LINE
  5
1C1
  8
0
 62
     7
 10
96.923900000000003
 20
161.61600000000001
 30
0.0
 11
96.923900000000003
 21
140.72
 31
0.0
  0
LINE
  5
1C2
  8
0
 62
     7
 10
91.923999999999992
 20
192.155
 30
0.0
 11
68.923500000000004
 21
192.155
 31
0.0
  0
LINE
  5
1C3
  8
0
 62
     7
 10
93.423999999999992
 20
190.655
 30
0.0
 11
93.423999999999992
 21
166.155
 31
0.0
  0
LINE
  5
1C4
  8
0
 62
     7
 10
93.423999999999992
 20
202.65499999999989
 30
0.0
 11
93.423999999999992
 21
190.655
 31
0.0
  0
ARC
  5
1C5
  8
0
 62
     7
 10
91.866821000000002
 20
190.59768099999999
 30
0.0
 40
1.5582290000000001
 50
2.102806999999999
 51
87.897182999999998
  0
LINE
  5
1C6
  8
0
 62
     7
 10
91.923999999999992
 20
164.65499999999989
 30
0.0
 11
68.923699999999997
 21
164.65499999999989
 31
0.0
  0
ARC
  5
1C7
  8
0
 62
     7
 10
91.866821000000002
 20
166.21208100000001
 30
0.0
 40
1.5582290000000001
 50
272.10281700000002
 51
357.89719300000002
  0
LINE
  5
1C8
  8
0
 62
     7
 10
92.423900000000003
 20
203.655
 30
0.0
 11
68.923500000000004
 21
203.655
 31
0.0
  0
LINE
  5
1C9
  8
0
 62
     7
 10
96.424000000000007
 20
203.655
 30
0.0
 11
92.423900000000003
 21
203.655
 31
0.0
  0
ARC
  5
1CA
  8
0
 62
     7
 10
92.423883000000004
 20
202.65488899999991
 30
0.0
 40
1.0001180000000001
 50
0.00001
 51
89.999980000000008
  0
LINE
  5
1CB
  8
0
 62
     7
 10
96.923900000000003
 20
204.15499999999989
 30
0.0
 11
96.923900000000003
 21
166.155
 31
0.0
  0
LINE
  5
1CC
  8
0
 62
     7
 10
96.923900000000003
 20
206.15499999999989
 30
0.0
 11
96.923900000000003
 21
204.15499999999989
 31
0.0
  0
ARC
  5
1CD
  8
0
 62
     7
 10
96.405257999999975
 20
204.17363700000001
 30
0.0
 40
0.51897
 50
272.07061599999997
 51
357.9491339999999
  0
LINE
  5
1CE
  8
0
 62
     7
 10
95.924099999999996
 20
207.155
 30
0.0
 11
68.923699999999997
 21
207.155
 31
0.0
  0
ARC
  5
1CF
  8
0
 62
     7
 10
95.885143999999997
 20
206.11633499999999
 30
0.0
 40
1.0394699999999999
 50
2.1292810000000002
 51
87.850968999999992
  0
LINE
  5
1D0
  8
0
 62
     7
 10
91.923999999999992
 20
161.155
 30
0.0
 11
68.923699999999997
 21
161.155
 31
0.0
  0
ARC
  5
1D1
  8
0
 62
     7
 10
91.923823999999996
 20
166.15473399999999
 30
0.0
 40
5.0000720000000003
 50
270.00199399999991
 51
0.001964
  0
LINE
  5
1D2
  8
0
 62
     7
 10
39.764600000000002
 20
207.155
 30
0.0
 11
25.5562
 21
207.155
 31
0.0
  0
LINE
  5
1D3
  8
0
 62
     7
 10
44.423099999999991
 20
163.62299999999991
 30
0.0
 11
44.423099999999991
 21
147.92899999999989
 31
0.0
  0
LINE
  5
1D4
  8
0
 62
     7
 10
40.923199999999987
 20
161.61600000000001
 30
0.0
 11
40.923199999999987
 21
140.72
 31
0.0
  0
LINE
  5
1D5
  8
0
  6
AIGENLINE001
 62
     7
 10
68.923400000000001
 20
104.952
 30
0.0
 11
68.923400000000001
 21
72.741600000000005
 31
0.0
  0
LINE
  5
1D6
  8
0
  6
AIGENLINE001
 62
     7
 10
68.923400000000001
 20
210.65499999999989
 30
0.0
 11
68.923400000000001
 21
157.28200000000001
 31
0.0
  0
LINE
  5
1D7
  8
0
 62
     7
 10
45.923099999999998
 20
192.155
 30
0.0
 11
68.923500000000004
 21
192.155
 31
0.0
  0
LINE
  5
1D8
  8
0
 62
     7
 10
44.423099999999991
 20
190.655
 30
0.0
 11
44.423099999999991
 21
166.155
 31
0.0
  0
LINE
  5
1D9
  8
0
 62
     7
 10
44.423099999999991
 20
202.65499999999989
 30
0.0
 11
44.423099999999991
 21
190.655
 31
0.0
  0
ARC
  5
1DA
  8
0
 62
     7
 10
45.923068999999991
 20
190.654856
 30
0.0
 40
1.5000039999999999
 50
90.0
 51
179.99996999999991
  0
ARC
  5
1DB
  8
0
  6
AIGENLINE002
 62
     7
 10
78.923587999999995
 20
198.65484900000001
 30
0.0
 40
1.7500340000000001
 50
0.00283
 51
90.002800000000008
  0
ARC
  5
1DC
  8
0
  6
AIGENLINE002
 62
     7
 10
78.923589000000007
 20
198.655021
 30
0.0
 40
1.7498610000000001
 50
90.002820000000014
 51
180.00282999999999
  0
ARC
  5
1DD
  8
0
  6
AIGENLINE002
 62
     7
 10
78.923587999999995
 20
198.65484900000001
 30
0.0
 40
1.7498610000000001
 50
179.99715
 51
269.99720000000002
  0
ARC
  5
1DE
  8
0
  6
AIGENLINE002
 62
     7
 10
78.923587999999995
 20
198.65502199999989
 30
0.0
 40
1.7500340000000001
 50
269.99720000000002
 51
359.99716999999998
  0
ARC
  5
1DF
  8
0
  6
AIGENLINE002
 62
     7
 10
58.923476999999998
 20
198.65484900000001
 30
0.0
 40
1.7500340000000001
 50
0.00283
 51
90.002800000000008
  0
ARC
  5
1E0
  8
0
  6
AIGENLINE002
 62
     7
 10
58.923391000000002
 20
198.65493499999999
 30
0.0
 40
1.7499480000000001
 50
90.0
 51
179.99996999999991
  0
ARC
  5
1E1
  8
0
  6
AIGENLINE002
 62
     7
 10
58.923391000000002
 20
198.65493499999999
 30
0.0
 40
1.7499469999999999
 50
179.99996999999991
 51
270.00002000000001
  0
ARC
  5
1E2
  8
0
  6
AIGENLINE002
 62
     7
 10
58.923476999999998
 20
198.65502199999989
 30
0.0
 40
1.7500340000000001
 50
269.99720000000002
 51
359.99716999999998
  0
ARC
  5
1E3
  8
0
 62
     7
 10
68.923531999999994
 20
198.65493499999999
 30
0.0
 40
1.7499480000000001
 50
0.00001
 51
89.999980000000008
  0
ARC
  5
1E4
  8
0
 62
     7
 10
68.923532999999992
 20
198.65493499999999
 30
0.0
 40
1.7499480000000001
 50
90.0
 51
179.99996999999991
  0
ARC
  5
1E5
  8
0
 62
     7
 10
68.923531999999994
 20
198.65493499999999
 30
0.0
 40
1.7499469999999999
 50
179.99996999999991
 51
270.00002000000001
  0
ARC
  5
1E6
  8
0
 62
     7
 10
68.923531999999994
 20
198.65493599999999
 30
0.0
 40
1.7499480000000001
 50
270.00002000000001
 51
359.99998999999991
  0
ARC
  5
1E7
  8
0
 62
     7
 10
68.923360000000002
 20
186.15484399999991
 30
0.0
 40
2.2999610000000001
 50
0.00001
 51
89.999980000000008
  0
ARC
  5
1E8
  8
0
 62
     7
 10
68.923361
 20
186.15484399999991
 30
0.0
 40
2.2999610000000001
 50
90.0
 51
179.99996999999991
  0
ARC
  5
1E9
  8
0
 62
     7
 10
68.923360000000002
 20
186.15484399999991
 30
0.0
 40
2.29996
 50
179.99996999999991
 51
270.00002000000001
  0
ARC
  5
1EA
  8
0
 62
     7
 10
68.923360000000002
 20
186.15484499999991
 30
0.0
 40
2.2999610000000001
 50
270.00002000000001
 51
359.99998999999991
  0
ARC
  5
1EB
  8
0
 62
     7
 10
68.923360000000002
 20
186.15484399999991
 30
0.0
 40
4.500013
 50
0.00001
 51
89.999980000000008
  0
ARC
  5
1EC
  8
0
 62
     7
 10
68.923361
 20
186.15484399999991
 30
0.0
 40
4.500013
 50
90.0
 51
179.99996999999991
  0
ARC
  5
1ED
  8
0
 62
     7
 10
68.923360000000002
 20
186.15484399999991
 30
0.0
 40
4.5000109999999989
 50
179.99996999999991
 51
270.00002000000001
  0
ARC
  5
1EE
  8
0
 62
     7
 10
68.923360000000002
 20
186.15484499999991
 30
0.0
 40
4.500013
 50
270.00002000000001
 51
359.99998999999991
  0
LINE
  5
1EF
  8
0
 62
     7
 10
45.923099999999998
 20
164.65499999999989
 30
0.0
 11
68.923400000000001
 21
164.65499999999989
 31
0.0
  0
ARC
  5
1F0
  8
0
 62
     7
 10
45.923068000000001
 20
166.15490500000001
 30
0.0
 40
1.5000039999999999
 50
179.99996999999991
 51
270.00002000000001
  0
LINE
  5
1F1
  8
0
 62
     7
 10
45.423200000000001
 20
203.655
 30
0.0
 11
68.923500000000004
 21
203.655
 31
0.0
  0
LINE
  5
1F2
  8
0
 62
     7
 10
41.423099999999998
 20
203.655
 30
0.0
 11
45.423200000000001
 21
203.655
 31
0.0
  0
ARC
  5
1F3
  8
0
 62
     7
 10
45.423181999999997
 20
202.65488899999991
 30
0.0
 40
1.0001180000000001
 50
90.0
 51
179.99996999999991
  0
LINE
  5
1F4
  8
0
 62
     7
 10
40.923199999999987
 20
204.15499999999989
 30
0.0
 11
40.923199999999987
 21
166.155
 31
0.0
  0
LINE
  5
1F5
  8
0
 62
     7
 10
40.923199999999987
 20
206.15499999999989
 30
0.0
 11
40.923199999999987
 21
204.15499999999989
 31
0.0
  0
ARC
  5
1F6
  8
0
 62
     7
 10
41.442445999999997
 20
204.17427599999991
 30
0.0
 40
0.519632
 50
182.118754
 51
267.861536
  0
LINE
  5
1F7
  8
0
 62
     7
 10
41.923099999999991
 20
207.155
 30
0.0
 11
68.923400000000001
 21
207.155
 31
0.0
  0
ARC
  5
1F8
  8
0
 62
     7
 10
41.923202000000003
 20
206.1550419999999
 30
0.0
 40
1.000032
 50
90.004935000000003
 51
180.00494499999991
  0
LINE
  5
1F9
  8
0
 62
     7
 10
45.923099999999998
 20
161.155
 30
0.0
 11
68.923400000000001
 21
161.155
 31
0.0
  0
ARC
  5
1FA
  8
0
 62
     7
 10
45.92324
 20
166.15473199999991
 30
0.0
 40
5.00007
 50
179.99799599999989
 51
269.99804599999987
  0
LINE
  5
1FB
  8
_________2
 62
     7
 10
205.30099999999999
 20
127.411
 30
0.0
 11
183.55000000000001
 21
127.411
 31
0.0
  0
LINE
  5
1FC
  8
_________2
 62
     7
 10
100.2999999999999
 20
-4.0907299999999998
 30
0.0
 11
100.2999999999999
 21
-21.070999999999991
 31
0.0
  0
LINE
  5
1FD
  8
_________2
 62
     7
 10
100.2999999999999
 20
275.93099999999993
 30
0.0
 11
100.2999999999999
 21
258.911
 31
0.0
  0
LINE
  5
1FE
  8
_________2
 62
     7
 10
17.049499999999998
 20
127.411
 30
0.0
 11
-4.70052
 21
127.411
 31
0.0
  0
LINE
  5
1FF
  8
_________2
 62
     7
 10
76.741200000000006
 20
28.740500000000001
 30
0.0
 11
74.554699999999997
 21
28.740500000000001
 31
0.0
  0
LINE
  5
200
  8
_________2
 62
     7
 10
77.233800000000002
 20
28.740500000000001
 30
0.0
 11
76.981700000000004
 21
28.740500000000001
 31
0.0
  0
LINE
  5
201
  8
_________2
 62
     7
 10
77.726299999999995
 20
28.740500000000001
 30
0.0
 11
80.651399999999995
 21
28.740500000000001
 31
0.0
  0
LINE
  5
202
  8
_________2
 62
     7
 10
77.233800000000002
 20
28.740500000000001
 30
0.0
 11
77.485699999999994
 21
28.740500000000001
 31
0.0
  0
LINE
  5
203
  8
_________2
 62
     7
 10
70.837299999999999
 20
28.740500000000001
 30
0.0
 11
68.650499999999994
 21
28.740500000000001
 31
0.0
  0
LINE
  5
204
  8
_________2
 62
     7
 10
71.329800000000006
 20
28.740500000000001
 30
0.0
 11
71.077799999999996
 21
28.740500000000001
 31
0.0
  0
LINE
  5
205
  8
_________2
 62
     7
 10
71.329800000000006
 20
29.232900000000001
 30
0.0
 11
71.329800000000006
 21
31.419799999999999
 31
0.0
  0
LINE
  5
206
  8
_________2
 62
     7
 10
71.329800000000006
 20
28.740500000000001
 30
0.0
 11
71.329800000000006
 21
28.992699999999989
 31
0.0
  0
LINE
  5
207
  8
_________2
 62
     7
 10
71.822400000000002
 20
28.740500000000001
 30
0.0
 11
74.009
 21
28.740500000000001
 31
0.0
  0
LINE
  5
208
  8
_________2
 62
     7
 10
71.329800000000006
 20
28.740500000000001
 30
0.0
 11
71.581999999999994
 21
28.740500000000001
 31
0.0
  0
LINE
  5
209
  8
_________2
 62
     7
 10
71.329800000000006
 20
28.248200000000001
 30
0.0
 11
71.329800000000006
 21
26.061299999999999
 31
0.0
  0
LINE
  5
20A
  8
_________2
 62
     7
 10
71.329800000000006
 20
28.740500000000001
 30
0.0
 11
71.329800000000006
 21
28.488700000000001
 31
0.0
  0
LINE
  5
20B
  8
_________2
 62
     7
 10
75.040899999999993
 20
27.521000000000001
 30
0.0
 11
80.218500000000006
 21
26.655899999999988
 31
0.0
  0
LINE
  5
20C
  8
_________2
 62
     7
 10
75.040899999999993
 20
29.960100000000001
 30
0.0
 11
80.218500000000006
 21
30.825199999999999
 31
0.0
  0
LINE
  5
20D
  8
_________2
 62
     7
 10
80.218500000000006
 20
26.655899999999988
 30
0.0
 11
80.218500000000006
 21
30.825199999999999
 31
0.0
  0
LINE
  5
20E
  8
_________2
 62
     7
 10
75.040899999999993
 20
27.521000000000001
 30
0.0
 11
75.040899999999993
 21
29.960100000000001
 31
0.0
  0
ARC
  5
20F
  8
_________2
 62
     7
 10
71.329860999999994
 20
28.740459999999992
 30
0.0
 40
1.219657999999999
 50
0.004056
 51
90.004025999999996
  0
ARC
  5
210
  8
_________2
 62
     7
 10
71.329689000000002
 20
28.740459999999992
 30
0.0
 40
1.219657999999999
 50
89.995953999999998
 51
179.99592399999989
  0
ARC
  5
211
  8
_________2
 62
     7
 10
71.329689000000002
 20
28.740632000000002
 30
0.0
 40
1.2196569999999991
 50
180.00405599999999
 51
270.00406600000002
  0
ARC
  5
212
  8
_________2
 62
     7
 10
71.329860999999994
 20
28.740632999999999
 30
0.0
 40
1.219657999999999
 50
269.99597399999999
 51
359.99594400000001
  0
ARC
  5
213
  8
_________2
 62
     7
 10
71.329774999999984
 20
28.740545999999998
 30
0.0
 40
2.0846409999999991
 50
0.00001
 51
89.999980000000008
  0
ARC
  5
214
  8
_________2
 62
     7
 10
71.329689000000002
 20
28.740459999999992
 30
0.0
 40
2.0847269999999991
 50
89.997632999999993
 51
179.997603
  0
ARC
  5
215
  8
_________2
 62
     7
 10
71.409621999999999
 20
28.820571999999999
 30
0.0
 40
2.1661389999999989
 50
182.11724599999999
 51
267.88751799999989
  0
ARC
  5
216
  8
_________2
 62
     7
 10
71.249769999999998
 20
28.820550999999998
 30
0.0
 40
2.1661229999999989
 50
272.11667999999992
 51
357.88332999999989
  0
TEXT
  5
217
  8
_________2
 62
     7
 10
32.7119
 20
18.486799999999992
 30
0.0
 40
2.5300899999999991
  1
福田
 41
0.5
  0
TEXT
  5
218
  8
_________2
 62
     7
 10
22.456299999999992
 20
18.486799999999992
 30
0.0
 40
2.5300899999999991
  1
石原
 41
0.5
  0
TEXT
  5
219
  8
_________2
 62
     7
 10
104.605
 20
11.6669
 30
0.0
 40
2.248969999999999
  1
図番
 41
0.5
  0
TEXT
  5
21A
  8
_________2
 62
     7
 10
104.605
 20
30.805199999999989
 30
0.0
 40
2.248969999999999
  1
名称
 41
0.5
  0
TEXT
  5
21B
  8
_________2
 62
     7
 10
90.890100000000004
 20
25.319900000000001
 30
0.0
 40
3.3734599999999988
  1
m m
 41
0.5
  0
TEXT
  5
21C
  8
_________2
 62
     7
 10
85.643199999999993
 20
30.805199999999989
 30
0.0
 40
2.248969999999999
  1
単位
 41
0.5
  0
TEXT
  5
21D
  8
_________2
 62
     7
 10
85.643199999999993
 20
20.398199999999999
 30
0.0
 40
2.248969999999999
  1
尺度
 41
0.5
  0
TEXT
  5
21E
  8
_________2
 62
     7
 10
88.186599999999984
 20
14.078099999999999
 30
0.0
 40
3.6545800000000002
  1
1 ： 10
 41
0.5
  0
TEXT
  5
21F
  8
_________2
 62
     7
 10
136.00657499999991
 20
1.6460799999999991
 30
0.0
 40
3.9357000000000002
  1
DV030256
 41
0.5
 72
     1
 11
143.55000000000001
 21
1.6460799999999991
 31
0.0
  0
TEXT
  5
220
  8
_________2
 62
     7
 10
24.587099999999989
 20
0.707627
 30
0.0
 40
3.9357000000000002
  1
560サイズ・実容量6.4L・オーバーフロー付
 41
0.5
  0
TEXT
  5
221
  8
_________2
 62
     7
 10
109.179
 20
24.226099999999999
 30
0.0
 40
3.9357000000000002
  1
スタルク3　カウンター式洗面器
 41
0.5
  0
TEXT
  5
222
  8
_________2
 62
     7
 10
67.785600000000002
 20
14.078099999999999
 30
0.0
 40
3.6545800000000002
  1
02.12.10
 41
0.5
  0
TEXT
  5
223
  8
_________2
 62
     7
 10
66.593100000000007
 20
20.398199999999999
 30
0.0
 40
2.248969999999999
  1
日付
 41
0.5
  0
TEXT
  5
224
  8
_________2
 62
     7
 10
29.639399999999998
 20
20.398199999999999
 30
0.0
 40
2.248969999999999
  1
検図
 41
0.5
  0
TEXT
  5
225
  8
_________2
 62
     7
 10
18.021399999999989
 20
6.1988000000000003
 30
0.0
 40
2.248969999999999
  1
備考
 41
0.5
  0
TEXT
  5
226
  8
_________2
 62
     7
 10
18.021399999999989
 20
20.398199999999999
 30
0.0
 40
2.248969999999999
  1
製図
 41
0.5
  0
TEXT
  5
227
  8
_________2
 62
     7
 10
23.788665333333341
 20
26.7179
 30
0.0
 40
4.4979399999999989
  1
セラトレーディング株式会社
 41
0.5
 72
     1
 11
41.180700000000002
 21
26.7179
 31
0.0
  0
LINE
  5
228
  8
_________2
 62
     7
 10
183.55099999999999
 20
-4.0910799999999998
 30
0.0
 11
17.049499999999998
 21
-4.0910799999999998
 31
0.0
  0
LINE
  5
229
  8
_________2
 62
     7
 10
17.049499999999998
 20
-4.0910799999999998
 30
0.0
 11
17.049499999999998
 21
258.911
 31
0.0
  0
LINE
  5
22A
  8
_________2
 62
     7
 10
17.049499999999998
 20
258.911
 30
0.0
 11
183.55099999999999
 21
258.911
 31
0.0
  0
LINE
  5
22B
  8
_________2
 62
     7
 10
183.55099999999999
 20
258.911
 30
0.0
 11
183.55099999999999
 21
-4.0910799999999998
 31
0.0
  0
LINE
  5
22C
  8
_________2
 62
     7
 10
65.549700000000001
 20
9.4092999999999982
 30
0.0
 11
65.549700000000001
 21
33.909300000000002
 31
0.0
  0
LINE
  5
22D
  8
_________2
 62
     7
 10
84.549899999999994
 20
9.4092999999999982
 30
0.0
 11
84.549899999999994
 21
33.909300000000002
 31
0.0
  0
LINE
  5
22E
  8
_________2
 62
     7
 10
103.55
 20
-4.0910799999999998
 30
0.0
 11
103.55
 21
33.909300000000002
 31
0.0
  0
LINE
  5
22F
  8
_________2
 62
     7
 10
28.549700000000001
 20
9.4092999999999982
 30
0.0
 11
28.549700000000001
 21
23.409199999999998
 31
0.0
  0
LINE
  5
230
  8
_________2
 62
     7
 10
17.049499999999998
 20
9.4092999999999982
 30
0.0
 11
103.55
 21
9.4092999999999982
 31
0.0
  0
LINE
  5
231
  8
_________2
 62
     7
 10
17.049499999999998
 20
23.409199999999998
 30
0.0
 11
103.55
 21
23.409199999999998
 31
0.0
  0
LINE
  5
232
  8
_________2
 62
     7
 10
103.55
 20
14.9091
 30
0.0
 11
183.55099999999999
 21
14.9091
 31
0.0
  0
LINE
  5
233
  8
_________2
 62
     7
 10
17.049499999999998
 20
33.909300000000002
 30
0.0
 11
183.55099999999999
 21
33.909300000000002
 31
0.0
  0
ENDSEC
  0
EOF
