  0
SECTION
  2
HEADER
  9
$ACADVER
  1
AC1015
  9
$ACADMAINTVER
 70
     6
  9
$DWGCODEPAGE
  3
ANSI_932
  9
$INSBASE
 10
0.0
 20
0.0
 30
0.0
  9
$EXTMIN
 10
0.238058
 20
0.4482100000000001
 30
0.0
  9
$EXTMAX
 10
210.24
 20
297.4499999999999
 30
0.0
  9
$LIMMIN
 10
0.0
 20
0.0
  9
$LIMMAX
 10
12.0
 20
9.0
  9
$ORTHOMODE
 70
     0
  9
$REGENMODE
 70
     1
  9
$FILLMODE
 70
     1
  9
$QTEXTMODE
 70
     0
  9
$MIRRTEXT
 70
     1
  9
$LTSCALE
 40
1.0
  9
$ATTMODE
 70
     1
  9
$TEXTSIZE
 40
0.0
  9
$TRACEWID
 40
0.05
  9
$TEXTSTYLE
  7
STANDARD
  9
$CLAYER
  8
0
  9
$CELTYPE
  6
CONTINUOUS
  9
$CECOLOR
 62
   256
  9
$CELTSCALE
 40
1.0
  9
$DISPSILH
 70
     0
  9
$DIMSCALE
 40
1.0
  9
$DIMASZ
 40
0.18
  9
$DIMEXO
 40
0.0625
  9
$DIMDLI
 40
0.38
  9
$DIMRND
 40
0.0
  9
$DIMDLE
 40
0.0
  9
$DIMEXE
 40
0.18
  9
$DIMTP
 40
0.0
  9
$DIMTM
 40
0.0
  9
$DIMTXT
 40
0.18
  9
$DIMCEN
 40
0.09
  9
$DIMTSZ
 40
0.0
  9
$DIMTOL
 70
     0
  9
$DIMLIM
 70
     0
  9
$DIMTIH
 70
     1
  9
$DIMTOH
 70
     1
  9
$DIMSE1
 70
     0
  9
$DIMSE2
 70
     0
  9
$DIMTAD
 70
     0
  9
$DIMZIN
 70
     0
  9
$DIMBLK
  1

  9
$DIMASO
 70
     1
  9
$DIMSHO
 70
     1
  9
$DIMPOST
  1

  9
$DIMAPOST
  1

  9
$DIMALT
 70
     0
  9
$DIMALTD
 70
     2
  9
$DIMALTF
 40
25.4
  9
$DIMLFAC
 40
1.0
  9
$DIMTOFL
 70
     0
  9
$DIMTVP
 40
0.0
  9
$DIMTIX
 70
     0
  9
$DIMSOXD
 70
     0
  9
$DIMSAH
 70
     0
  9
$DIMBLK1
  1

  9
$DIMBLK2
  1

  9
$DIMSTYLE
  2
STANDARD
  9
$DIMCLRD
 70
     0
  9
$DIMCLRE
 70
     0
  9
$DIMCLRT
 70
     0
  9
$DIMTFAC
 40
1.0
  9
$DIMGAP
 40
0.09
  9
$DIMJUST
 70
     0
  9
$DIMSD1
 70
     0
  9
$DIMSD2
 70
     0
  9
$DIMTOLJ
 70
     1
  9
$DIMTZIN
 70
     0
  9
$DIMALTZ
 70
     0
  9
$DIMALTTZ
 70
     0
  9
$DIMUPT
 70
     0
  9
$DIMDEC
 70
     4
  9
$DIMTDEC
 70
     4
  9
$DIMALTU
 70
     2
  9
$DIMALTTD
 70
     2
  9
$DIMTXSTY
  7
STANDARD
  9
$DIMAUNIT
 70
     0
  9
$DIMADEC
 70
     0
  9
$DIMALTRND
 40
0.0
  9
$DIMAZIN
 70
     0
  9
$DIMDSEP
 70
    46
  9
$DIMATFIT
 70
     3
  9
$DIMFRAC
 70
     0
  9
$DIMLDRBLK
  1

  9
$DIMLUNIT
 70
     2
  9
$DIMLWD
 70
    -2
  9
$DIMLWE
 70
    -2
  9
$DIMTMOVE
 70
     0
  9
$LUNITS
 70
     2
  9
$LUPREC
 70
     4
  9
$SKETCHINC
 40
0.1
  9
$FILLETRAD
 40
0.0
  9
$AUNITS
 70
     0
  9
$AUPREC
 70
     0
  9
$MENU
  1
.
  9
$ELEVATION
 40
0.0
  9
$PELEVATION
 40
0.0
  9
$THICKNESS
 40
0.0
  9
$LIMCHECK
 70
     0
  9
$CHAMFERA
 40
0.0
  9
$CHAMFERB
 40
0.0
  9
$CHAMFERC
 40
0.0
  9
$CHAMFERD
 40
0.0
  9
$SKPOLY
 70
     0
  9
$TDCREATE
 40
2444972.375000000
  9
$TDUCREATE
 40
2444972.000000000
  9
$TDUPDATE
 40
2454657.450554051
  9
$TDUUPDATE
 40
2454657.075554051
  9
$TDINDWG
 40
0.0019127894
  9
$TDUSRTIMER
 40
0.0019127894
  9
$USRTIMER
 70
     1
  9
$ANGBASE
 50
0.0
  9
$ANGDIR
 70
     0
  9
$PDMODE
 70
     0
  9
$PDSIZE
 40
0.0
  9
$PLINEWID
 40
0.0
  9
$SPLFRAME
 70
     0
  9
$SPLINETYPE
 70
     6
  9
$SPLINESEGS
 70
     8
  9
$HANDSEED
  5
1A9
  9
$SURFTAB1
 70
     6
  9
$SURFTAB2
 70
     6
  9
$SURFTYPE
 70
     6
  9
$SURFU
 70
     6
  9
$SURFV
 70
     6
  9
$UCSBASE
  2

  9
$UCSNAME
  2

  9
$UCSORG
 10
0.0
 20
0.0
 30
0.0
  9
$UCSXDIR
 10
1.0
 20
0.0
 30
0.0
  9
$UCSYDIR
 10
0.0
 20
1.0
 30
0.0
  9
$UCSORTHOREF
  2

  9
$UCSORTHOVIEW
 70
     0
  9
$UCSORGTOP
 10
0.0
 20
0.0
 30
0.0
  9
$UCSORGBOTTOM
 10
0.0
 20
0.0
 30
0.0
  9
$UCSORGLEFT
 10
0.0
 20
0.0
 30
0.0
  9
$UCSORGRIGHT
 10
0.0
 20
0.0
 30
0.0
  9
$UCSORGFRONT
 10
0.0
 20
0.0
 30
0.0
  9
$UCSORGBACK
 10
0.0
 20
0.0
 30
0.0
  9
$PUCSBASE
  2

  9
$PUCSNAME
  2

  9
$PUCSORG
 10
0.0
 20
0.0
 30
0.0
  9
$PUCSXDIR
 10
1.0
 20
0.0
 30
0.0
  9
$PUCSYDIR
 10
0.0
 20
1.0
 30
0.0
  9
$PUCSORTHOREF
  2

  9
$PUCSORTHOVIEW
 70
     0
  9
$PUCSORGTOP
 10
0.0
 20
0.0
 30
0.0
  9
$PUCSORGBOTTOM
 10
0.0
 20
0.0
 30
0.0
  9
$PUCSORGLEFT
 10
0.0
 20
0.0
 30
0.0
  9
$PUCSORGRIGHT
 10
0.0
 20
0.0
 30
0.0
  9
$PUCSORGFRONT
 10
0.0
 20
0.0
 30
0.0
  9
$PUCSORGBACK
 10
0.0
 20
0.0
 30
0.0
  9
$USERI1
 70
     0
  9
$USERI2
 70
     0
  9
$USERI3
 70
     0
  9
$USERI4
 70
     0
  9
$USERI5
 70
     0
  9
$USERR1
 40
0.0
  9
$USERR2
 40
0.0
  9
$USERR3
 40
0.0
  9
$USERR4
 40
0.0
  9
$USERR5
 40
0.0
  9
$WORLDVIEW
 70
     1
  9
$SHADEDGE
 70
     3
  9
$SHADEDIF
 70
    70
  9
$TILEMODE
 70
     1
  9
$MAXACTVP
 70
    48
  9
$PINSBASE
 10
0.0
 20
0.0
 30
0.0
  9
$PLIMCHECK
 70
     0
  9
$PEXTMIN
 10
1.000000000000000E+20
 20
1.000000000000000E+20
 30
1.000000000000000E+20
  9
$PEXTMAX
 10
-1.000000000000000E+20
 20
-1.000000000000000E+20
 30
-1.000000000000000E+20
  9
$PLIMMIN
 10
0.0
 20
0.0
  9
$PLIMMAX
 10
12.0
 20
9.0
  9
$UNITMODE
 70
     0
  9
$VISRETAIN
 70
     1
  9
$PLINEGEN
 70
     0
  9
$PSLTSCALE
 70
     1
  9
$TREEDEPTH
 70
  3020
  9
$CMLSTYLE
  2
STANDARD
  9
$CMLJUST
 70
     0
  9
$CMLSCALE
 40
1.0
  9
$PROXYGRAPHICS
 70
     1
  9
$MEASUREMENT
 70
     0
  9
$CELWEIGHT
370
    -1
  9
$ENDCAPS
280
     0
  9
$JOINSTYLE
280
     0
  9
$LWDISPLAY
290
     0
  9
$INSUNITS
 70
     0
  9
$HYPERLINKBASE
  1

  9
$STYLESHEET
  1

  9
$XEDIT
290
     1
  9
$CEPSNTYPE
380
     0
  9
$PSTYLEMODE
290
     1
  9
$FINGERPRINTGUID
  2
{416658DC-1617-403F-9F71-627995869CA8}
  9
$VERSIONGUID
  2
{83909A1D-2230-4E9C-8606-4D2728FB201C}
  9
$EXTNAMES
290
     1
  9
$PSVPSCALE
 40
0.0
  9
$OLESTARTUP
290
     0
  0
ENDSEC
  0
SECTION
  2
CLASSES
  0
CLASS
  1
ACDBDICTIONARYWDFLT
  2
AcDbDictionaryWithDefault
  3
AutoCAD 2000
 90
        0
280
     0
281
     0
  0
CLASS
  1
ACDBPLACEHOLDER
  2
AcDbPlaceHolder
  3
AutoCAD 2000
 90
        0
280
     0
281
     0
  0
CLASS
  1
LAYOUT
  2
AcDbLayout
  3
AutoCAD 2000
 90
        0
280
     0
281
     0
  0
ENDSEC
  0
SECTION
  2
TABLES
  0
TABLE
  2
VPORT
  5
8
330
0
100
AcDbSymbolTable
 70
     2
  0
VPORT
  5
1A8
330
8
100
AcDbSymbolTableRecord
100
AcDbViewportTableRecord
  2
*Active
 70
     0
 10
0.0
 20
0.0
 11
1.0
 21
1.0
 12
153.8846342491303
 22
154.0256009117281
 13
0.0
 23
0.0
 14
1.0
 24
1.0
 15
0.0
 25
0.0
 16
0.0
 26
0.0
 36
1.0
 17
0.0
 27
0.0
 37
0.0
 40
310.4338252466996
 41
1.912109375
 42
50.0
 43
0.0
 44
0.0
 50
0.0
 51
0.0
 71
     0
 72
   100
 73
     1
 74
     1
 75
     0
 76
     0
 77
     0
 78
     0
281
     0
 65
     1
110
0.0
120
0.0
130
0.0
111
1.0
121
0.0
131
0.0
112
0.0
122
1.0
132
0.0
 79
     0
146
0.0
  0
ENDTAB
  0
TABLE
  2
LTYPE
  5
5
330
0
100
AcDbSymbolTable
 70
     4
  0
LTYPE
  5
12
330
5
100
AcDbSymbolTableRecord
100
AcDbLinetypeTableRecord
  2
BYBLOCK
 70
     0
  3

 72
    65
 73
     0
 40
0.0
  0
LTYPE
  5
13
330
5
100
AcDbSymbolTableRecord
100
AcDbLinetypeTableRecord
  2
BYLAYER
 70
     0
  3

 72
    65
 73
     0
 40
0.0
  0
LTYPE
  5
14
330
5
100
AcDbSymbolTableRecord
100
AcDbLinetypeTableRecord
  2
CONTINUOUS
 70
     0
  3
Solid line
 72
    65
 73
     0
 40
0.0
  0
LTYPE
  5
1F
330
5
100
AcDbSymbolTableRecord
100
AcDbLinetypeTableRecord
  2
AIGENLINE001
 70
     0
  3
generate AI->DXF Converter
 72
    65
 73
     2
 40
1.552229999999999
 49
0.776115
 74
     0
 49
-0.776115
 74
     0
  0
LTYPE
  5
20
330
5
100
AcDbSymbolTableRecord
100
AcDbLinetypeTableRecord
  2
AIGENLINE002
 70
     0
  3
generate AI->DXF Converter
 72
    65
 73
     4
 40
5.856144999999999
 49
3.5278
 74
     0
 49
-0.776115
 74
     0
 49
0.776115
 74
     0
 49
-0.776115
 74
     0
  0
LTYPE
  5
21
330
5
100
AcDbSymbolTableRecord
100
AcDbLinetypeTableRecord
  2
AIGENLINE003
 70
     0
  3
generate AI->DXF Converter
 72
    65
 73
     6
 40
7.408375
 49
3.5278
 74
     0
 49
-0.776115
 74
     0
 49
0.776115
 74
     0
 49
-0.776115
 74
     0
 49
0.776115
 74
     0
 49
-0.776115
 74
     0
  0
ENDTAB
  0
TABLE
  2
LAYER
  5
2
330
0
100
AcDbSymbolTable
 70
     2
  0
LAYER
  5
E
330
2
100
AcDbSymbolTableRecord
100
AcDbLayerTableRecord
  2
0
 70
     0
 62
     7
  6
CONTINUOUS
370
    -3
390
195
  0
LAYER
  5
22
330
2
100
AcDbSymbolTableRecord
100
AcDbLayerTableRecord
  2
_________2
 70
     0
 62
     7
  6
CONTINUOUS
370
    -3
390
195
  0
ENDTAB
  0
TABLE
  2
STYLE
  5
3
330
0
100
AcDbSymbolTable
 70
     1
  0
STYLE
  5
F
330
3
100
AcDbSymbolTableRecord
100
AcDbTextStyleTableRecord
  2
STANDARD
 70
     0
 40
0.0
 41
0.0
 50
0.0
 71
     0
 42
0.0
  3
TXT
  4
BIGFONT
  0
ENDTAB
  0
TABLE
  2
VIEW
  5
6
330
0
100
AcDbSymbolTable
 70
     0
  0
ENDTAB
  0
TABLE
  2
UCS
  5
7
330
0
100
AcDbSymbolTable
 70
     0
  0
ENDTAB
  0
TABLE
  2
APPID
  5
9
330
0
100
AcDbSymbolTable
 70
     1
  0
APPID
  5
10
330
9
100
AcDbSymbolTableRecord
100
AcDbRegAppTableRecord
  2
ACAD
 70
     0
  0
ENDTAB
  0
TABLE
  2
DIMSTYLE
  5
A
330
0
100
AcDbSymbolTable
 70
     1
100
AcDbDimStyleTable
 71
     0
  0
DIMSTYLE
105
191
330
A
100
AcDbSymbolTableRecord
100
AcDbDimStyleTableRecord
  2
STANDARD
 70
     0
340
F
  0
ENDTAB
  0
TABLE
  2
BLOCK_RECORD
  5
1
330
0
100
AcDbSymbolTable
 70
     0
  0
BLOCK_RECORD
  5
18
330
1
100
AcDbSymbolTableRecord
100
AcDbBlockTableRecord
  2
*MODEL_SPACE
340
198
  0
BLOCK_RECORD
  5
15
330
1
100
AcDbSymbolTableRecord
100
AcDbBlockTableRecord
  2
*PAPER_SPACE
340
199
  0
ENDTAB
  0
ENDSEC
  0
SECTION
  2
BLOCKS
  0
BLOCK
  5
19
330
18
100
AcDbEntity
  8
0
100
AcDbBlockBegin
  2
*MODEL_SPACE
 70
     0
 10
0.0
 20
0.0
 30
0.0
  3
*MODEL_SPACE
  1

  0
ENDBLK
  5
1A
330
18
100
AcDbEntity
  8
0
100
AcDbBlockEnd
  0
BLOCK
  5
16
330
15
100
AcDbEntity
 67
     1
  8
0
100
AcDbBlockBegin
  2
*PAPER_SPACE
 70
     0
 10
0.0
 20
0.0
 30
0.0
  3
*PAPER_SPACE
  1

  0
ENDBLK
  5
17
330
15
100
AcDbEntity
 67
     1
  8
0
100
AcDbBlockEnd
  0
ENDSEC
  0
SECTION
  2
ENTITIES
  0
TEXT
  5
24
330
18
100
AcDbEntity
  8
0
100
AcDbText
 10
33.69324
 20
162.565
 30
0.0
 40
3.09234
  1
%%c35
 41
0.5
 72
     1
 11
35.7548
 21
162.565
 31
0.0
100
AcDbText
  0
TEXT
  5
25
330
18
100
AcDbEntity
  8
0
100
AcDbText
 10
73.56203999999999
 20
143.374
 30
0.0
 40
3.09234
  1
%%c46
 41
0.5
 72
     1
 11
75.62359999999999
 21
143.374
 31
0.0
100
AcDbText
  0
TEXT
  5
26
330
18
100
AcDbEntity
  8
0
100
AcDbText
 10
114.5799999999999
 20
146.9887449999999
 30
0.0
 40
3.09234
  1
1050
 50
90.0
 41
0.5
 72
     1
 11
114.5799999999999
 21
149.3079999999999
 31
0.0
100
AcDbText
  0
TEXT
  5
27
330
18
100
AcDbEntity
  8
0
100
AcDbText
 10
36.506
 20
152.49683
 30
0.0
 40
3.09234
  1
100
 50
90.0
 41
0.5
 72
     1
 11
36.506
 21
154.043
 31
0.0
100
AcDbText
  0
TEXT
  5
28
330
18
100
AcDbEntity
  8
0
100
AcDbText
 10
36.506
 20
142.50783
 30
0.0
 40
3.09234
  1
100
 50
90.0
 41
0.5
 72
     1
 11
36.506
 21
144.054
 31
0.0
100
AcDbText
  0
TEXT
  5
29
330
18
100
AcDbEntity
  8
0
100
AcDbText
 10
104.3509999999999
 20
147.3752874999999
 30
0.0
 40
3.09234
  1
530
 50
90.0
 41
0.5
 72
     1
 11
104.3509999999999
 21
149.3079999999999
 31
0.0
100
AcDbText
  0
TEXT
  5
2A
330
18
100
AcDbEntity
  8
0
100
AcDbText
 10
38.90257249999999
 20
191.705
 30
0.0
 40
3.09234
  1
30
 41
0.5
 72
     1
 11
40.06219999999999
 21
191.705
 31
0.0
100
AcDbText
  0
TEXT
  5
2B
330
18
100
AcDbEntity
  8
0
100
AcDbText
 10
48.18032500000001
 20
191.705
 30
0.0
 40
3.09234
  1
45
 41
0.5
 72
     1
 11
49.4688
 21
191.705
 31
0.0
100
AcDbText
  0
TEXT
  5
2C
330
18
100
AcDbEntity
  8
0
100
AcDbText
 10
53.56672500000001
 20
191.705
 30
0.0
 40
3.09234
  1
65
 41
0.5
 72
     1
 11
54.85520000000001
 21
191.705
 31
0.0
100
AcDbText
  0
TEXT
  5
2D
330
18
100
AcDbEntity
  8
0
100
AcDbText
 10
48.98608249999999
 20
210.3769999999999
 30
0.0
 40
3.09234
  1
140
 41
0.5
 72
     1
 11
50.6611
 21
210.3769999999999
 31
0.0
100
AcDbText
  0
TEXT
  5
2E
330
18
100
AcDbEntity
  8
0
100
AcDbText
 10
96.10692499999998
 20
210.3769999999999
 30
0.0
 40
3.09234
  1
35
 41
0.5
 72
     1
 11
97.39539999999999
 21
210.3769999999999
 31
0.0
100
AcDbText
  0
TEXT
  5
2F
330
18
100
AcDbEntity
  8
0
100
AcDbText
 10
72.42478250000001
 20
210.3769999999999
 30
0.0
 40
3.09234
  1
310
 41
0.5
 72
     1
 11
74.0998
 21
210.3769999999999
 31
0.0
100
AcDbText
  0
TEXT
  5
30
330
18
100
AcDbEntity
  8
0
100
AcDbText
 10
52.95468249999999
 20
88.6846
 30
0.0
 40
3.09234
  1
210
 41
0.5
 72
     1
 11
54.6297
 21
88.6846
 31
0.0
100
AcDbText
  0
TEXT
  5
31
330
18
100
AcDbEntity
  8
0
100
AcDbText
 10
67.83243999999999
 20
80.07659999999999
 30
0.0
 40
3.09234
  1
485
 41
0.5
 72
     1
 11
69.89399999999999
 21
80.07659999999999
 31
0.0
100
AcDbText
  0
TEXT
  5
32
330
18
100
AcDbEntity
  8
0
100
AcDbText
 10
148.348525
 20
88.6846
 30
0.0
 40
3.09234
  1
65
 41
0.5
 72
     1
 11
149.6369999999999
 21
88.6846
 31
0.0
100
AcDbText
  0
TEXT
  5
33
330
18
100
AcDbEntity
  8
0
100
AcDbText
 10
132.8389999999999
 20
147.3762875
 30
0.0
 40
3.09234
  1
280
 50
90.0
 41
0.5
 72
     1
 11
132.8389999999999
 21
149.309
 31
0.0
100
AcDbText
  0
TEXT
  5
34
330
18
100
AcDbEntity
  8
0
100
AcDbText
 10
140.2910675
 20
262.1259999999999
 30
0.0
 40
3.09234
  1
10
 41
0.5
 72
     1
 11
141.1929999999999
 21
262.1259999999999
 31
0.0
100
AcDbText
  0
TEXT
  5
35
330
18
100
AcDbEntity
  8
0
100
AcDbText
 10
172.8729999999999
 20
261.0899824999999
 30
0.0
 40
3.09234
  1
210
 50
90.0
 41
0.5
 72
     1
 11
172.8729999999999
 21
262.765
 31
0.0
100
AcDbText
  0
TEXT
  5
36
330
18
100
AcDbEntity
  8
0
100
AcDbText
 10
136.961525
 20
210.2629999999999
 30
0.0
 40
3.09234
  1
35
 41
0.5
 72
     1
 11
138.25
 21
210.2629999999999
 31
0.0
100
AcDbText
  0
TEXT
  5
37
330
18
100
AcDbEntity
  8
0
100
AcDbText
 10
154.0059825
 20
210.2629999999999
 30
0.0
 40
3.09234
  1
190
 41
0.5
 72
     1
 11
155.681
 21
210.2629999999999
 31
0.0
100
AcDbText
  0
TEXT
  5
38
330
18
100
AcDbEntity
  8
0
100
AcDbText
 10
154.0369825
 20
219.914
 30
0.0
 40
3.09234
  1
190
 41
0.5
 72
     1
 11
155.712
 21
219.914
 31
0.0
100
AcDbText
  0
TEXT
  5
39
330
18
100
AcDbEntity
  8
0
100
AcDbText
 10
26.4582
 20
63.1135
 30
0.0
 40
3.9357
  1
・ペデスタル（DV086516）、ハーフペデスタル（DV086515）とセットの施工に当たっては、施工説明書を参照してください。
 41
0.5
100
AcDbText
  0
ARC
  5
3A
330
18
100
AcDbEntity
  8
0
100
AcDbCircle
 10
47.129032
 20
190.6384919999999
 30
0.0
 40
0.4778380000000001
100
AcDbArc
 50
179.9999699999999
 51
270.00002
  0
ARC
  5
3B
330
18
100
AcDbEntity
  8
0
100
AcDbCircle
 10
47.129032
 20
190.6384919999999
 30
0.0
 40
0.4778380000000001
100
AcDbArc
 50
270.00002
 51
359.9999899999999
  0
ARC
  5
3C
330
18
100
AcDbEntity
  8
0
100
AcDbCircle
 10
47.129032
 20
190.6384919999999
 30
0.0
 40
0.4778380000000001
100
AcDbArc
 50
0.00001
 51
89.99998000000001
  0
ARC
  5
3D
330
18
100
AcDbEntity
  8
0
100
AcDbCircle
 10
47.129032
 20
190.6384919999999
 30
0.0
 40
0.4778380000000001
100
AcDbArc
 50
90.0
 51
179.9999699999999
  0
LINE
  5
3E
330
18
100
AcDbEntity
  8
0
100
AcDbLine
 10
37.9285
 20
147.0979999999999
 30
0.0
 11
37.3363
 21
149.3079999999999
 31
0.0
  0
LINE
  5
3F
330
18
100
AcDbEntity
  8
0
100
AcDbLine
 10
37.3363
 20
149.3079999999999
 30
0.0
 11
36.74389999999999
 21
147.0979999999999
 31
0.0
  0
LINE
  5
40
330
18
100
AcDbEntity
  8
0
100
AcDbLine
 10
36.74389999999999
 20
147.0979999999999
 30
0.0
 11
37.9285
 21
147.0979999999999
 31
0.0
  0
LINE
  5
41
330
18
100
AcDbEntity
  8
0
100
AcDbLine
 10
37.9285
 20
157.097
 30
0.0
 11
37.3363
 21
159.307
 31
0.0
  0
LINE
  5
42
330
18
100
AcDbEntity
  8
0
100
AcDbLine
 10
37.3363
 20
159.307
 30
0.0
 11
36.74389999999999
 21
157.097
 31
0.0
  0
LINE
  5
43
330
18
100
AcDbEntity
  8
0
100
AcDbLine
 10
36.74389999999999
 20
157.097
 30
0.0
 11
37.9285
 21
157.097
 31
0.0
  0
LINE
  5
44
330
18
100
AcDbEntity
  8
0
100
AcDbLine
 10
36.7585
 20
151.519
 30
0.0
 11
37.35079999999999
 21
149.3079999999999
 31
0.0
  0
LINE
  5
45
330
18
100
AcDbEntity
  8
0
100
AcDbLine
 10
37.35079999999999
 20
149.3079999999999
 30
0.0
 11
37.9431
 21
151.519
 31
0.0
  0
LINE
  5
46
330
18
100
AcDbEntity
  8
0
100
AcDbLine
 10
37.9431
 20
151.519
 30
0.0
 11
36.7585
 21
151.519
 31
0.0
  0
LINE
  5
47
330
18
100
AcDbEntity
  8
0
100
AcDbLine
 10
36.7585
 20
141.519
 30
0.0
 11
37.35079999999999
 21
139.3079999999999
 31
0.0
  0
LINE
  5
48
330
18
100
AcDbEntity
  8
0
100
AcDbLine
 10
37.35079999999999
 20
139.3079999999999
 30
0.0
 11
37.9431
 21
141.519
 31
0.0
  0
LINE
  5
49
330
18
100
AcDbEntity
  8
0
100
AcDbLine
 10
37.9431
 20
141.519
 30
0.0
 11
36.7585
 21
141.519
 31
0.0
  0
LINE
  5
4A
330
18
100
AcDbEntity
  8
0
100
AcDbLine
 10
37.3363
 20
159.307
 30
0.0
 11
37.3363
 21
139.3079999999999
 31
0.0
  0
LINE
  5
4B
330
18
100
AcDbEntity
  8
0
100
AcDbLine
 10
36.6362
 20
159.308
 30
0.0
 11
47.41909999999999
 21
159.308
 31
0.0
  0
LINE
  5
4C
330
18
100
AcDbEntity
  8
0
100
AcDbLine
 10
36.6362
 20
149.3079999999999
 30
0.0
 11
41.3018
 21
149.3079999999999
 31
0.0
  0
LINE
  5
4D
330
18
100
AcDbEntity
  8
0
100
AcDbLine
 10
36.6362
 20
139.3079999999999
 30
0.0
 11
47.41909999999999
 21
139.3079999999999
 31
0.0
  0
ARC
  5
4E
330
18
100
AcDbEntity
  8
0
  6
AIGENLINE001
100
AcDbCircle
 10
146.7124719999999
 20
269.764998
 30
0.0
 40
0.500145
100
AcDbArc
 50
0.009877
 51
90.009847
  0
LINE
  5
4F
330
18
100
AcDbEntity
  8
0
100
AcDbLine
 10
39.6774
 20
161.249
 30
0.0
 11
32.25659999999999
 21
161.249
 31
0.0
  0
LINE
  5
50
330
18
100
AcDbEntity
  8
0
100
AcDbLine
 10
54.8432
 20
146.9209999999999
 30
0.0
 11
52.8612
 21
148.066
 31
0.0
  0
LINE
  5
51
330
18
100
AcDbEntity
  8
0
100
AcDbLine
 10
52.8612
 20
148.066
 30
0.0
 11
54.00529999999999
 21
146.082
 31
0.0
  0
LINE
  5
52
330
18
100
AcDbEntity
  8
0
100
AcDbLine
 10
54.00529999999999
 20
146.082
 30
0.0
 11
54.8432
 21
146.9209999999999
 31
0.0
  0
LINE
  5
53
330
18
100
AcDbEntity
  8
0
100
AcDbLine
 10
48.40939999999999
 20
151.6899999999999
 30
0.0
 11
50.39139999999999
 21
150.546
 31
0.0
  0
LINE
  5
54
330
18
100
AcDbEntity
  8
0
100
AcDbLine
 10
50.39139999999999
 20
150.546
 30
0.0
 11
49.2469
 21
152.5279999999999
 31
0.0
  0
LINE
  5
55
330
18
100
AcDbEntity
  8
0
100
AcDbLine
 10
49.2469
 20
152.5279999999999
 30
0.0
 11
48.40939999999999
 21
151.6899999999999
 31
0.0
  0
LINE
  5
56
330
18
100
AcDbEntity
  8
0
100
AcDbLine
 10
39.6774
 20
161.249
 30
0.0
 11
55.6059
 21
145.3149999999999
 31
0.0
  0
LINE
  5
57
330
18
100
AcDbEntity
  8
0
100
AcDbLine
 10
78.7001
 20
142.0239999999999
 30
0.0
 11
72.3976
 21
142.0239999999999
 31
0.0
  0
LINE
  5
58
330
18
100
AcDbEntity
  8
0
100
AcDbLine
 10
69.9285
 20
145.321
 30
0.0
 11
67.9465
 21
146.47
 31
0.0
  0
LINE
  5
59
330
18
100
AcDbEntity
  8
0
100
AcDbLine
 10
67.9465
 20
146.47
 30
0.0
 11
69.09100000000001
 21
144.483
 31
0.0
  0
LINE
  5
5A
330
18
100
AcDbEntity
  8
0
100
AcDbLine
 10
69.09100000000001
 20
144.483
 30
0.0
 11
69.9285
 21
145.321
 31
0.0
  0
LINE
  5
5B
330
18
100
AcDbEntity
  8
0
100
AcDbLine
 10
60.3187
 20
153.281
 30
0.0
 11
62.3006
 21
152.137
 31
0.0
  0
LINE
  5
5C
330
18
100
AcDbEntity
  8
0
100
AcDbLine
 10
62.3006
 20
152.137
 30
0.0
 11
61.1565
 21
154.119
 31
0.0
  0
LINE
  5
5D
330
18
100
AcDbEntity
  8
0
100
AcDbLine
 10
61.1565
 20
154.119
 30
0.0
 11
60.3187
 21
153.281
 31
0.0
  0
LINE
  5
5E
330
18
100
AcDbEntity
  8
0
100
AcDbLine
 10
59.4756
 20
154.952
 30
0.0
 11
72.3976
 21
142.0239999999999
 31
0.0
  0
LINE
  5
5F
330
18
100
AcDbEntity
  8
0
100
AcDbLine
 10
62.9187
 20
87.1405
 30
0.0
 11
65.1298
 21
87.7327
 31
0.0
  0
LINE
  5
60
330
18
100
AcDbEntity
  8
0
100
AcDbLine
 10
65.1298
 20
87.7327
 30
0.0
 11
62.9187
 21
88.32489999999999
 31
0.0
  0
LINE
  5
61
330
18
100
AcDbEntity
  8
0
100
AcDbLine
 10
62.9187
 20
88.32489999999999
 30
0.0
 11
62.9187
 21
87.1405
 31
0.0
  0
LINE
  5
62
330
18
100
AcDbEntity
  8
0
100
AcDbLine
 10
46.34009999999999
 20
88.31039999999999
 30
0.0
 11
44.1297
 21
87.71819999999999
 31
0.0
  0
LINE
  5
63
330
18
100
AcDbEntity
  8
0
100
AcDbLine
 10
44.1297
 20
87.71819999999999
 30
0.0
 11
46.34009999999999
 21
87.126
 31
0.0
  0
LINE
  5
64
330
18
100
AcDbEntity
  8
0
100
AcDbLine
 10
46.34009999999999
 20
87.126
 30
0.0
 11
46.34009999999999
 21
88.31039999999999
 31
0.0
  0
LINE
  5
65
330
18
100
AcDbEntity
  8
0
100
AcDbLine
 10
65.1294
 20
87.72539999999999
 30
0.0
 11
44.1297
 21
87.72539999999999
 31
0.0
  0
LINE
  5
66
330
18
100
AcDbEntity
  8
0
  6
AIGENLINE002
100
AcDbLine
 10
48.9889
 20
135.308
 30
0.0
 11
42.0508
 21
135.308
 31
0.0
  0
LINE
  5
67
330
18
100
AcDbEntity
  8
0
  6
AIGENLINE002
100
AcDbLine
 10
48.9889
 20
163.3079999999999
 30
0.0
 11
42.0508
 21
163.3079999999999
 31
0.0
  0
LINE
  5
68
330
18
100
AcDbEntity
  8
0
  6
AIGENLINE002
100
AcDbLine
 10
55.0628
 20
139.3079999999999
 30
0.0
 11
48.1247
 21
139.3079999999999
 31
0.0
  0
ARC
  5
69
330
18
100
AcDbEntity
  8
0
  6
AIGENLINE001
100
AcDbCircle
 10
51.696042
 20
139.240956
 30
0.0
 40
1.818532
100
AcDbArc
 50
92.105925
 51
177.882768
  0
ARC
  5
6A
330
18
100
AcDbEntity
  8
0
  6
AIGENLINE001
100
AcDbCircle
 10
51.696444
 20
139.3753669999999
 30
0.0
 40
1.818934
100
AcDbArc
 50
182.1181409999999
 51
267.881889
  0
ARC
  5
6B
330
18
100
AcDbEntity
  8
0
  6
AIGENLINE001
100
AcDbCircle
 10
51.56234699999999
 20
139.3742939999999
 30
0.0
 40
1.817847999999999
100
AcDbArc
 50
272.108097
 51
357.91447
  0
ARC
  5
6C
330
18
100
AcDbEntity
  8
0
  6
AIGENLINE001
100
AcDbCircle
 10
51.629044
 20
139.308312
 30
0.0
 40
1.749948
100
AcDbArc
 50
359.99437
 51
89.99434
  0
LINE
  5
6D
330
18
100
AcDbEntity
  8
0
  6
AIGENLINE002
100
AcDbLine
 10
55.0628
 20
159.308
 30
0.0
 11
48.1247
 21
159.308
 31
0.0
  0
LINE
  5
6E
330
18
100
AcDbEntity
  8
0
100
AcDbLine
 10
55.9179
 20
190.0459999999999
 30
0.0
 11
58.1289
 21
190.638
 31
0.0
  0
LINE
  5
6F
330
18
100
AcDbEntity
  8
0
100
AcDbLine
 10
58.1289
 20
190.638
 30
0.0
 11
55.9179
 21
191.2309999999999
 31
0.0
  0
LINE
  5
70
330
18
100
AcDbEntity
  8
0
100
AcDbLine
 10
55.9179
 20
191.2309999999999
 30
0.0
 11
55.9179
 21
190.0459999999999
 31
0.0
  0
LINE
  5
71
330
18
100
AcDbEntity
  8
0
100
AcDbLine
 10
41.9176
 20
190.0459999999999
 30
0.0
 11
44.1287
 21
190.638
 31
0.0
  0
LINE
  5
72
330
18
100
AcDbEntity
  8
0
100
AcDbLine
 10
44.1287
 20
190.638
 30
0.0
 11
41.9176
 21
191.2309999999999
 31
0.0
  0
LINE
  5
73
330
18
100
AcDbEntity
  8
0
100
AcDbLine
 10
41.9176
 20
191.2309999999999
 30
0.0
 11
41.9176
 21
190.0459999999999
 31
0.0
  0
LINE
  5
74
330
18
100
AcDbEntity
  8
0
100
AcDbLine
 10
53.8403
 20
191.2309999999999
 30
0.0
 11
51.62919999999999
 21
190.638
 31
0.0
  0
LINE
  5
75
330
18
100
AcDbEntity
  8
0
100
AcDbLine
 10
51.62919999999999
 20
190.638
 30
0.0
 11
53.8403
 21
190.0459999999999
 31
0.0
  0
LINE
  5
76
330
18
100
AcDbEntity
  8
0
100
AcDbLine
 10
53.8403
 20
190.0459999999999
 30
0.0
 11
53.8403
 21
191.2309999999999
 31
0.0
  0
LINE
  5
77
330
18
100
AcDbEntity
  8
0
100
AcDbLine
 10
58.1289
 20
190.638
 30
0.0
 11
38.3149
 21
190.638
 31
0.0
  0
LINE
  5
78
330
18
100
AcDbEntity
  8
0
100
AcDbLine
 10
86.9191
 20
208.718
 30
0.0
 11
89.1295
 21
209.3109999999999
 31
0.0
  0
LINE
  5
79
330
18
100
AcDbEntity
  8
0
100
AcDbLine
 10
89.1295
 20
209.3109999999999
 30
0.0
 11
86.9191
 21
209.9029999999999
 31
0.0
  0
LINE
  5
7A
330
18
100
AcDbEntity
  8
0
100
AcDbLine
 10
86.9191
 20
209.9029999999999
 30
0.0
 11
86.9191
 21
208.718
 31
0.0
  0
LINE
  5
7B
330
18
100
AcDbEntity
  8
0
100
AcDbLine
 10
55.9186
 20
208.718
 30
0.0
 11
58.1289
 21
209.3109999999999
 31
0.0
  0
LINE
  5
7C
330
18
100
AcDbEntity
  8
0
100
AcDbLine
 10
58.1289
 20
209.3109999999999
 30
0.0
 11
55.9186
 21
209.9029999999999
 31
0.0
  0
LINE
  5
7D
330
18
100
AcDbEntity
  8
0
100
AcDbLine
 10
55.9186
 20
209.9029999999999
 30
0.0
 11
55.9186
 21
208.718
 31
0.0
  0
LINE
  5
7E
330
18
100
AcDbEntity
  8
0
100
AcDbLine
 10
60.34
 20
209.9029999999999
 30
0.0
 11
58.1289
 21
209.3109999999999
 31
0.0
  0
LINE
  5
7F
330
18
100
AcDbEntity
  8
0
100
AcDbLine
 10
58.1289
 20
209.3109999999999
 30
0.0
 11
60.34
 21
208.718
 31
0.0
  0
LINE
  5
80
330
18
100
AcDbEntity
  8
0
100
AcDbLine
 10
60.34
 20
208.718
 30
0.0
 11
60.34
 21
209.9029999999999
 31
0.0
  0
LINE
  5
81
330
18
100
AcDbEntity
  8
0
100
AcDbLine
 10
46.3398
 20
209.9029999999999
 30
0.0
 11
44.1287
 21
209.3109999999999
 31
0.0
  0
LINE
  5
82
330
18
100
AcDbEntity
  8
0
100
AcDbLine
 10
44.1287
 20
209.3109999999999
 30
0.0
 11
46.3398
 21
208.718
 31
0.0
  0
LINE
  5
83
330
18
100
AcDbEntity
  8
0
100
AcDbLine
 10
46.3398
 20
208.718
 30
0.0
 11
46.3398
 21
209.9029999999999
 31
0.0
  0
LINE
  5
84
330
18
100
AcDbEntity
  8
0
100
AcDbLine
 10
94.84050000000001
 20
209.9029999999999
 30
0.0
 11
92.6294
 21
209.3109999999999
 31
0.0
  0
LINE
  5
85
330
18
100
AcDbEntity
  8
0
100
AcDbLine
 10
92.6294
 20
209.3109999999999
 30
0.0
 11
94.84050000000001
 21
208.718
 31
0.0
  0
LINE
  5
86
330
18
100
AcDbEntity
  8
0
100
AcDbLine
 10
94.84050000000001
 20
208.718
 30
0.0
 11
94.84050000000001
 21
209.9029999999999
 31
0.0
  0
LINE
  5
87
330
18
100
AcDbEntity
  8
0
100
AcDbLine
 10
99.8032
 20
209.3109999999999
 30
0.0
 11
44.1287
 21
209.3109999999999
 31
0.0
  0
LINE
  5
88
330
18
100
AcDbEntity
  8
0
100
AcDbLine
 10
92.6294
 20
209.9109999999999
 30
0.0
 11
92.6294
 21
203.109
 31
0.0
  0
LINE
  5
89
330
18
100
AcDbEntity
  8
0
100
AcDbLine
 10
89.1295
 20
209.9109999999999
 30
0.0
 11
89.1295
 21
203.109
 31
0.0
  0
LINE
  5
8A
330
18
100
AcDbEntity
  8
0
100
AcDbLine
 10
58.1289
 20
209.9109999999999
 30
0.0
 11
58.1289
 21
177.1079999999999
 31
0.0
  0
LINE
  5
8B
330
18
100
AcDbEntity
  8
0
100
AcDbLine
 10
44.1287
 20
209.9109999999999
 30
0.0
 11
44.1287
 21
203.109
 31
0.0
  0
LINE
  5
8C
330
18
100
AcDbEntity
  8
0
100
AcDbLine
 10
116.215
 20
199.5979999999999
 30
0.0
 11
115.622
 21
201.809
 31
0.0
  0
LINE
  5
8D
330
18
100
AcDbEntity
  8
0
100
AcDbLine
 10
115.622
 20
201.809
 30
0.0
 11
115.03
 21
199.5979999999999
 31
0.0
  0
LINE
  5
8E
330
18
100
AcDbEntity
  8
0
100
AcDbLine
 10
115.03
 20
199.5979999999999
 30
0.0
 11
116.215
 21
199.5979999999999
 31
0.0
  0
LINE
  5
8F
330
18
100
AcDbEntity
  8
0
100
AcDbLine
 10
115.0379999999999
 20
99.014
 30
0.0
 11
115.6299999999999
 21
96.803
 31
0.0
  0
LINE
  5
90
330
18
100
AcDbEntity
  8
0
100
AcDbLine
 10
115.6299999999999
 20
96.803
 30
0.0
 11
116.222
 21
99.014
 31
0.0
  0
LINE
  5
91
330
18
100
AcDbEntity
  8
0
100
AcDbLine
 10
116.222
 20
99.014
 30
0.0
 11
115.0379999999999
 21
99.014
 31
0.0
  0
LINE
  5
92
330
18
100
AcDbEntity
  8
0
100
AcDbLine
 10
115.6299999999999
 20
201.809
 30
0.0
 11
115.6299999999999
 21
96.803
 31
0.0
  0
LINE
  5
93
330
18
100
AcDbEntity
  8
0
100
AcDbLine
 10
116.23
 20
201.809
 30
0.0
 11
93.9292
 21
201.809
 31
0.0
  0
LINE
  5
94
330
18
100
AcDbEntity
  8
0
100
AcDbLine
 10
116.23
 20
96.803
 30
0.0
 11
93.9292
 21
96.803
 31
0.0
  0
LINE
  5
95
330
18
100
AcDbEntity
  8
0
100
AcDbLine
 10
106.214
 20
173.5979999999999
 30
0.0
 11
105.622
 21
175.8079999999999
 31
0.0
  0
LINE
  5
96
330
18
100
AcDbEntity
  8
0
100
AcDbLine
 10
105.622
 20
175.8079999999999
 30
0.0
 11
105.03
 21
173.5979999999999
 31
0.0
  0
LINE
  5
97
330
18
100
AcDbEntity
  8
0
100
AcDbLine
 10
105.03
 20
173.5979999999999
 30
0.0
 11
106.214
 21
173.5979999999999
 31
0.0
  0
LINE
  5
98
330
18
100
AcDbEntity
  8
0
100
AcDbLine
 10
105.038
 20
125.014
 30
0.0
 11
105.6289999999999
 21
122.8029999999999
 31
0.0
  0
LINE
  5
99
330
18
100
AcDbEntity
  8
0
100
AcDbLine
 10
105.6289999999999
 20
122.8029999999999
 30
0.0
 11
106.222
 21
125.014
 31
0.0
  0
LINE
  5
9A
330
18
100
AcDbEntity
  8
0
100
AcDbLine
 10
106.222
 20
125.014
 30
0.0
 11
105.038
 21
125.014
 31
0.0
  0
LINE
  5
9B
330
18
100
AcDbEntity
  8
0
100
AcDbLine
 10
105.6289999999999
 20
175.8079999999999
 30
0.0
 11
105.6289999999999
 21
122.8029999999999
 31
0.0
  0
LINE
  5
9C
330
18
100
AcDbEntity
  8
0
100
AcDbLine
 10
106.23
 20
175.8079999999999
 30
0.0
 11
90.4293
 21
175.8079999999999
 31
0.0
  0
LINE
  5
9D
330
18
100
AcDbEntity
  8
0
100
AcDbLine
 10
106.23
 20
122.8029999999999
 30
0.0
 11
90.4293
 21
122.8029999999999
 31
0.0
  0
LINE
  5
9E
330
18
100
AcDbEntity
  8
0
100
AcDbLine
 10
90.41870000000001
 20
78.5252
 30
0.0
 11
92.62970000000001
 21
79.11750000000001
 31
0.0
  0
LINE
  5
9F
330
18
100
AcDbEntity
  8
0
100
AcDbLine
 10
92.62970000000001
 20
79.11750000000001
 30
0.0
 11
90.41870000000001
 21
79.7097
 31
0.0
  0
LINE
  5
A0
330
18
100
AcDbEntity
  8
0
100
AcDbLine
 10
90.41870000000001
 20
79.7097
 30
0.0
 11
90.41870000000001
 21
78.5252
 31
0.0
  0
LINE
  5
A1
330
18
100
AcDbEntity
  8
0
100
AcDbLine
 10
46.3398
 20
79.7097
 30
0.0
 11
44.12939999999999
 21
79.11750000000001
 31
0.0
  0
LINE
  5
A2
330
18
100
AcDbEntity
  8
0
100
AcDbLine
 10
44.12939999999999
 20
79.11750000000001
 30
0.0
 11
46.3398
 21
78.5252
 31
0.0
  0
LINE
  5
A3
330
18
100
AcDbEntity
  8
0
100
AcDbLine
 10
46.3398
 20
78.5252
 30
0.0
 11
46.3398
 21
79.7097
 31
0.0
  0
LINE
  5
A4
330
18
100
AcDbEntity
  8
0
100
AcDbLine
 10
92.62970000000001
 20
79.11750000000001
 30
0.0
 11
44.12939999999999
 21
79.11750000000001
 31
0.0
  0
LINE
  5
A5
330
18
100
AcDbEntity
  8
0
100
AcDbLine
 10
92.63009999999999
 20
78.5246
 30
0.0
 11
92.6294
 21
95.50310000000001
 31
0.0
  0
LINE
  5
A6
330
18
100
AcDbEntity
  8
0
100
AcDbLine
 10
44.12939999999999
 20
78.5246
 30
0.0
 11
44.1287
 21
95.50310000000001
 31
0.0
  0
LINE
  5
A7
330
18
100
AcDbEntity
  8
0
100
AcDbLine
 10
65.1298
 20
87.1325
 30
0.0
 11
65.12909999999999
 21
140.8249999999999
 31
0.0
  0
LINE
  5
A8
330
18
100
AcDbEntity
  8
0
100
AcDbLine
 10
51.62919999999999
 20
191.2379999999999
 30
0.0
 11
51.62919999999999
 21
163.951
 31
0.0
  0
LINE
  5
A9
330
18
100
AcDbEntity
  8
0
  6
AIGENLINE002
100
AcDbLine
 10
51.62919999999999
 20
135.424
 30
0.0
 11
51.62919999999999
 21
163.0099999999999
 31
0.0
  0
ARC
  5
AA
330
18
100
AcDbEntity
  8
0
  6
AIGENLINE001
100
AcDbCircle
 10
51.696042
 20
159.2410679999999
 30
0.0
 40
1.818532
100
AcDbArc
 50
92.105925
 51
177.882768
  0
ARC
  5
AB
330
18
100
AcDbEntity
  8
0
  6
AIGENLINE001
100
AcDbCircle
 10
51.696269
 20
159.3754829999999
 30
0.0
 40
1.818759999999999
100
AcDbArc
 50
182.118486
 51
267.8871829999999
  0
ARC
  5
AC
330
18
100
AcDbEntity
  8
0
  6
AIGENLINE001
100
AcDbCircle
 10
51.562359
 20
159.374572
 30
0.0
 40
1.817841999999999
100
AcDbArc
 50
272.10772
 51
357.9092089999999
  0
ARC
  5
AD
330
18
100
AcDbEntity
  8
0
  6
AIGENLINE001
100
AcDbCircle
 10
51.629044
 20
159.308423
 30
0.0
 40
1.749948
100
AcDbArc
 50
359.99437
 51
89.99434
  0
ARC
  5
AE
330
18
100
AcDbEntity
  8
0
100
AcDbCircle
 10
51.696042
 20
149.240926
 30
0.0
 40
1.818532
100
AcDbArc
 50
92.105925
 51
177.882768
  0
ARC
  5
AF
330
18
100
AcDbEntity
  8
0
100
AcDbCircle
 10
51.696269
 20
149.375341
 30
0.0
 40
1.818759999999999
100
AcDbArc
 50
182.118486
 51
267.8871829999999
  0
ARC
  5
B0
330
18
100
AcDbEntity
  8
0
100
AcDbCircle
 10
51.562359
 20
149.37443
 30
0.0
 40
1.817841999999999
100
AcDbArc
 50
272.10772
 51
357.9092089999999
  0
ARC
  5
B1
330
18
100
AcDbEntity
  8
0
100
AcDbCircle
 10
51.629044
 20
149.3082809999999
 30
0.0
 40
1.749948
100
AcDbArc
 50
359.99437
 51
89.99434
  0
ARC
  5
B2
330
18
100
AcDbEntity
  8
0
100
AcDbCircle
 10
65.129254
 20
149.3082809999999
 30
0.0
 40
3.999954
100
AcDbArc
 50
90.00246700000001
 51
180.002477
  0
ARC
  5
B3
330
18
100
AcDbEntity
  8
0
100
AcDbCircle
 10
65.287491
 20
149.46133
 30
0.0
 40
4.161013999999999
100
AcDbArc
 50
182.1102939999999
 51
267.818222
  0
ARC
  5
B4
330
18
100
AcDbEntity
  8
0
100
AcDbCircle
 10
64.97577099999999
 20
149.456235
 30
0.0
 40
4.155730999999999
100
AcDbArc
 50
272.114189
 51
357.957334
  0
ARC
  5
B5
330
18
100
AcDbEntity
  8
0
100
AcDbCircle
 10
65.128908
 20
149.3082809999999
 30
0.0
 40
3.999954
100
AcDbArc
 50
359.997543
 51
89.99751299999999
  0
ARC
  5
B6
330
18
100
AcDbEntity
  8
0
100
AcDbCircle
 10
65.216851
 20
149.2206969999999
 30
0.0
 40
2.388986
100
AcDbArc
 50
92.10548399999998
 51
177.9030689999999
  0
ARC
  5
B7
330
18
100
AcDbEntity
  8
0
100
AcDbCircle
 10
65.217731
 20
149.3962239999999
 30
0.0
 40
2.389891999999999
100
AcDbArc
 50
182.1129669999999
 51
267.8741889999999
  0
ARC
  5
B8
330
18
100
AcDbEntity
  8
0
100
AcDbCircle
 10
65.041316
 20
149.396053
 30
0.0
 40
2.389688
100
AcDbArc
 50
272.104757
 51
357.890962
  0
ARC
  5
B9
330
18
100
AcDbEntity
  8
0
100
AcDbCircle
 10
65.04127
 20
149.219941
 30
0.0
 40
2.389742
100
AcDbArc
 50
2.114374
 51
87.89419800000001
  0
LINE
  5
BA
330
18
100
AcDbEntity
  8
0
  6
AIGENLINE002
100
AcDbLine
 10
65.12909999999999
 20
142.125
 30
0.0
 11
65.12909999999999
 21
156.7479999999999
 31
0.0
  0
LINE
  5
BB
330
18
100
AcDbEntity
  8
0
100
AcDbLine
 10
87.62909999999999
 20
175.8079999999999
 30
0.0
 11
59.629
 21
175.8079999999999
 31
0.0
  0
ARC
  5
BC
330
18
100
AcDbEntity
  8
0
100
AcDbCircle
 10
87.57157900000001
 20
174.2503839999999
 30
0.0
 40
1.558975
100
AcDbArc
 50
2.116045
 51
87.883945
  0
LINE
  5
BD
330
18
100
AcDbEntity
  8
0
100
AcDbLine
 10
89.1295
 20
101.303
 30
0.0
 11
89.1295
 21
197.309
 31
0.0
  0
LINE
  5
BE
330
18
100
AcDbEntity
  8
0
100
AcDbLine
 10
87.62909999999999
 20
122.8029999999999
 30
0.0
 11
59.629
 21
122.8029999999999
 31
0.0
  0
ARC
  5
BF
330
18
100
AcDbEntity
  8
0
100
AcDbCircle
 10
87.571995
 20
124.36078
 30
0.0
 40
1.558556999999999
100
AcDbArc
 50
272.101314
 51
357.885538
  0
LINE
  5
C0
330
18
100
AcDbEntity
  8
0
100
AcDbLine
 10
58.1289
 20
124.303
 30
0.0
 11
58.1289
 21
174.3079999999999
 31
0.0
  0
ARC
  5
C1
330
18
100
AcDbEntity
  8
0
100
AcDbCircle
 10
59.686145
 20
174.25111
 30
0.0
 40
1.558235999999999
100
AcDbArc
 50
92.103485
 51
177.9096429999999
  0
ARC
  5
C2
330
18
100
AcDbEntity
  8
0
100
AcDbCircle
 10
59.686498
 20
124.3608229999999
 30
0.0
 40
1.558613999999999
100
AcDbArc
 50
182.1159729999999
 51
267.8840559999999
  0
LINE
  5
C3
330
18
100
AcDbEntity
  8
0
100
AcDbLine
 10
88.12940000000001
 20
100.303
 30
0.0
 11
48.1291
 21
100.303
 31
0.0
  0
ARC
  5
C4
330
18
100
AcDbEntity
  8
0
100
AcDbCircle
 10
88.09069800000001
 20
101.341301
 30
0.0
 40
1.039498999999999
100
AcDbArc
 50
272.1322
 51
357.887544
  0
LINE
  5
C5
330
18
100
AcDbEntity
  8
0
100
AcDbLine
 10
88.12940000000001
 20
198.3079999999999
 30
0.0
 11
48.1291
 21
198.3079999999999
 31
0.0
  0
ARC
  5
C6
330
18
100
AcDbEntity
  8
0
100
AcDbCircle
 10
88.09181700000001
 20
197.2706569999999
 30
0.0
 40
1.038379
100
AcDbArc
 50
2.1122
 51
87.927277
  0
LINE
  5
C7
330
18
100
AcDbEntity
  8
0
100
AcDbLine
 10
47.129
 20
97.80270000000001
 30
0.0
 11
47.129
 21
200.808
 31
0.0
  0
ARC
  5
C8
330
18
100
AcDbEntity
  8
0
100
AcDbCircle
 10
48.167736
 20
197.269626
 30
0.0
 40
1.039447
100
AcDbArc
 50
92.12740699999997
 51
177.833076
  0
ARC
  5
C9
330
18
100
AcDbEntity
  8
0
100
AcDbCircle
 10
48.16774099999999
 20
101.341218
 30
0.0
 40
1.039412
100
AcDbArc
 50
182.1080489999999
 51
267.872248
  0
LINE
  5
CA
330
18
100
AcDbEntity
  8
0
100
AcDbLine
 10
89.62899999999999
 20
201.809
 30
0.0
 11
44.1287
 21
201.809
 31
0.0
  0
ARC
  5
CB
330
18
100
AcDbEntity
  8
0
100
AcDbCircle
 10
46.090333
 20
200.7702549999999
 30
0.0
 40
1.039401999999999
100
AcDbArc
 50
2.107518
 51
87.872739
  0
LINE
  5
CC
330
18
100
AcDbEntity
  8
0
100
AcDbLine
 10
89.62899999999999
 20
96.803
 30
0.0
 11
44.1287
 21
96.803
 31
0.0
  0
ARC
  5
CD
330
18
100
AcDbEntity
  8
0
100
AcDbCircle
 10
46.09030399999999
 20
97.841713
 30
0.0
 40
1.039458999999999
100
AcDbArc
 50
272.1287439999999
 51
357.8515249999999
  0
LINE
  5
CE
330
18
100
AcDbEntity
  8
0
  6
AIGENLINE002
100
AcDbLine
 10
96.30220000000001
 20
149.3079999999999
 30
0.0
 11
42.0073
 21
149.3079999999999
 31
0.0
  0
LINE
  5
CF
330
18
100
AcDbEntity
  8
0
100
AcDbLine
 10
92.6294
 20
99.80299999999999
 30
0.0
 11
92.6294
 21
198.809
 31
0.0
  0
ARC
  5
D0
330
18
100
AcDbEntity
  8
0
100
AcDbCircle
 10
89.62903199999999
 20
198.808587
 30
0.0
 40
3.000353
100
AcDbArc
 50
0.00001
 51
89.99998000000001
  0
ARC
  5
D1
330
18
100
AcDbEntity
  8
0
100
AcDbCircle
 10
89.62920399999999
 20
99.803153
 30
0.0
 40
3.000180999999999
100
AcDbArc
 50
269.9967299999999
 51
359.9966999999999
  0
LINE
  5
D2
330
18
100
AcDbEntity
  8
0
100
AcDbLine
 10
44.1287
 20
96.803
 30
0.0
 11
44.1287
 21
201.809
 31
0.0
  0
LINE
  5
D3
330
18
100
AcDbEntity
  8
0
100
AcDbLine
 10
144.001
 20
87.1405
 30
0.0
 11
146.212
 21
87.73229999999999
 31
0.0
  0
LINE
  5
D4
330
18
100
AcDbEntity
  8
0
100
AcDbLine
 10
146.212
 20
87.73229999999999
 30
0.0
 11
144.001
 21
88.32489999999999
 31
0.0
  0
LINE
  5
D5
330
18
100
AcDbEntity
  8
0
100
AcDbLine
 10
144.001
 20
88.32489999999999
 30
0.0
 11
144.001
 21
87.1405
 31
0.0
  0
LINE
  5
D6
330
18
100
AcDbEntity
  8
0
100
AcDbLine
 10
154.923
 20
88.31039999999999
 30
0.0
 11
152.712
 21
87.71790000000001
 31
0.0
  0
LINE
  5
D7
330
18
100
AcDbEntity
  8
0
100
AcDbLine
 10
152.712
 20
87.71790000000001
 30
0.0
 11
154.923
 21
87.12560000000001
 31
0.0
  0
LINE
  5
D8
330
18
100
AcDbEntity
  8
0
100
AcDbLine
 10
154.923
 20
87.12560000000001
 30
0.0
 11
154.923
 21
88.31039999999999
 31
0.0
  0
LINE
  5
D9
330
18
100
AcDbEntity
  8
0
100
AcDbLine
 10
157.674
 20
87.72539999999999
 30
0.0
 11
141.674
 21
87.72539999999999
 31
0.0
  0
LINE
  5
DA
330
18
100
AcDbEntity
  8
0
100
AcDbLine
 10
152.712
 20
87.1405
 30
0.0
 11
152.7129999999999
 21
132.2539999999999
 31
0.0
  0
LINE
  5
DB
330
18
100
AcDbEntity
  8
0
100
AcDbLine
 10
146.212
 20
87.35129999999999
 30
0.0
 11
146.212
 21
96.012
 31
0.0
  0
LINE
  5
DC
330
18
100
AcDbEntity
  8
0
100
AcDbLine
 10
134.298
 20
161.0979999999999
 30
0.0
 11
133.705
 21
163.3089999999999
 31
0.0
  0
LINE
  5
DD
330
18
100
AcDbEntity
  8
0
100
AcDbLine
 10
133.705
 20
163.3089999999999
 30
0.0
 11
133.1129999999999
 21
161.0979999999999
 31
0.0
  0
LINE
  5
DE
330
18
100
AcDbEntity
  8
0
100
AcDbLine
 10
133.1129999999999
 20
161.0979999999999
 30
0.0
 11
134.298
 21
161.0979999999999
 31
0.0
  0
LINE
  5
DF
330
18
100
AcDbEntity
  8
0
100
AcDbLine
 10
133.1279999999999
 20
137.514
 30
0.0
 11
133.7189999999999
 21
135.304
 31
0.0
  0
LINE
  5
E0
330
18
100
AcDbEntity
  8
0
100
AcDbLine
 10
133.7189999999999
 20
135.304
 30
0.0
 11
134.312
 21
137.514
 31
0.0
  0
LINE
  5
E1
330
18
100
AcDbEntity
  8
0
100
AcDbLine
 10
134.312
 20
137.514
 30
0.0
 11
133.1279999999999
 21
137.514
 31
0.0
  0
LINE
  5
E2
330
18
100
AcDbEntity
  8
0
100
AcDbLine
 10
133.7129999999999
 20
163.3089999999999
 30
0.0
 11
133.7129999999999
 21
135.304
 31
0.0
  0
LINE
  5
E3
330
18
100
AcDbEntity
  8
0
100
AcDbLine
 10
149.8319999999999
 20
163.3089999999999
 30
0.0
 11
133.122
 21
163.3089999999999
 31
0.0
  0
LINE
  5
E4
330
18
100
AcDbEntity
  8
0
100
AcDbLine
 10
149.8319999999999
 20
135.304
 30
0.0
 11
133.122
 21
135.304
 31
0.0
  0
LINE
  5
E5
330
18
100
AcDbEntity
  8
0
100
AcDbLine
 10
163.002
 20
208.718
 30
0.0
 11
165.2129999999999
 21
209.3109999999999
 31
0.0
  0
LINE
  5
E6
330
18
100
AcDbEntity
  8
0
100
AcDbLine
 10
165.2129999999999
 20
209.3109999999999
 30
0.0
 11
163.002
 21
209.9029999999999
 31
0.0
  0
LINE
  5
E7
330
18
100
AcDbEntity
  8
0
100
AcDbLine
 10
163.002
 20
209.9029999999999
 30
0.0
 11
163.002
 21
208.718
 31
0.0
  0
LINE
  5
E8
330
18
100
AcDbEntity
  8
0
100
AcDbLine
 10
148.36
 20
208.718
 30
0.0
 11
146.1489999999999
 21
209.3109999999999
 31
0.0
  0
LINE
  5
E9
330
18
100
AcDbEntity
  8
0
100
AcDbLine
 10
146.1489999999999
 20
209.3109999999999
 30
0.0
 11
148.36
 21
209.9029999999999
 31
0.0
  0
LINE
  5
EA
330
18
100
AcDbEntity
  8
0
100
AcDbLine
 10
148.36
 20
209.9029999999999
 30
0.0
 11
148.36
 21
208.718
 31
0.0
  0
LINE
  5
EB
330
18
100
AcDbEntity
  8
0
100
AcDbLine
 10
140.533
 20
208.726
 30
0.0
 11
142.743
 21
209.3179999999999
 31
0.0
  0
LINE
  5
EC
330
18
100
AcDbEntity
  8
0
100
AcDbLine
 10
142.743
 20
209.3179999999999
 30
0.0
 11
140.533
 21
209.9099999999999
 31
0.0
  0
LINE
  5
ED
330
18
100
AcDbEntity
  8
0
100
AcDbLine
 10
140.533
 20
209.9099999999999
 30
0.0
 11
140.533
 21
208.726
 31
0.0
  0
LINE
  5
EE
330
18
100
AcDbEntity
  8
0
100
AcDbLine
 10
146.1489999999999
 20
209.3109999999999
 30
0.0
 11
135.786
 21
209.3109999999999
 31
0.0
  0
LINE
  5
EF
330
18
100
AcDbEntity
  8
0
100
AcDbLine
 10
165.2129999999999
 20
209.3109999999999
 30
0.0
 11
146.1489999999999
 21
209.3109999999999
 31
0.0
  0
LINE
  5
F0
330
18
100
AcDbEntity
  8
0
100
AcDbLine
 10
149.4229999999999
 20
261.874
 30
0.0
 11
147.2129999999999
 21
261.2819999999999
 31
0.0
  0
LINE
  5
F1
330
18
100
AcDbEntity
  8
0
100
AcDbLine
 10
147.2129999999999
 20
261.2819999999999
 30
0.0
 11
149.4229999999999
 21
260.6899999999999
 31
0.0
  0
LINE
  5
F2
330
18
100
AcDbEntity
  8
0
100
AcDbLine
 10
149.4229999999999
 20
260.6899999999999
 30
0.0
 11
149.4229999999999
 21
261.874
 31
0.0
  0
LINE
  5
F3
330
18
100
AcDbEntity
  8
0
100
AcDbLine
 10
144.001
 20
260.6999999999999
 30
0.0
 11
146.212
 21
261.2929999999999
 31
0.0
  0
LINE
  5
F4
330
18
100
AcDbEntity
  8
0
100
AcDbLine
 10
146.212
 20
261.2929999999999
 30
0.0
 11
144.001
 21
261.885
 31
0.0
  0
LINE
  5
F5
330
18
100
AcDbEntity
  8
0
100
AcDbLine
 10
144.001
 20
261.885
 30
0.0
 11
144.001
 21
260.6999999999999
 31
0.0
  0
LINE
  5
F6
330
18
100
AcDbEntity
  8
0
100
AcDbLine
 10
174.363
 20
271.054
 30
0.0
 11
173.7709999999999
 21
273.2639999999999
 31
0.0
  0
LINE
  5
F7
330
18
100
AcDbEntity
  8
0
100
AcDbLine
 10
173.7709999999999
 20
273.2639999999999
 30
0.0
 11
173.178
 21
271.054
 31
0.0
  0
LINE
  5
F8
330
18
100
AcDbEntity
  8
0
100
AcDbLine
 10
173.178
 20
271.054
 30
0.0
 11
174.363
 21
271.054
 31
0.0
  0
LINE
  5
F9
330
18
100
AcDbEntity
  8
0
100
AcDbLine
 10
173.193
 20
254.476
 30
0.0
 11
173.7849999999999
 21
252.265
 31
0.0
  0
LINE
  5
FA
330
18
100
AcDbEntity
  8
0
100
AcDbLine
 10
173.7849999999999
 20
252.265
 30
0.0
 11
174.377
 21
254.476
 31
0.0
  0
LINE
  5
FB
330
18
100
AcDbEntity
  8
0
100
AcDbLine
 10
174.377
 20
254.476
 30
0.0
 11
173.193
 21
254.476
 31
0.0
  0
LINE
  5
FC
330
18
100
AcDbEntity
  8
0
100
AcDbLine
 10
173.7779999999999
 20
273.2639999999999
 30
0.0
 11
173.7779999999999
 21
252.265
 31
0.0
  0
LINE
  5
FD
330
18
100
AcDbEntity
  8
0
100
AcDbLine
 10
174.529
 20
273.2639999999999
 30
0.0
 11
163.087
 21
273.2639999999999
 31
0.0
  0
LINE
  5
FE
330
18
100
AcDbEntity
  8
0
100
AcDbLine
 10
174.529
 20
252.265
 30
0.0
 11
168.4579999999999
 21
252.265
 31
0.0
  0
LINE
  5
FF
330
18
100
AcDbEntity
  8
0
100
AcDbLine
 10
148.4229999999999
 20
219.555
 30
0.0
 11
146.211
 21
218.962
 31
0.0
  0
LINE
  5
100
330
18
100
AcDbEntity
  8
0
100
AcDbLine
 10
146.211
 20
218.962
 30
0.0
 11
148.4229999999999
 21
218.3699999999999
 31
0.0
  0
LINE
  5
101
330
18
100
AcDbEntity
  8
0
100
AcDbLine
 10
148.4229999999999
 20
218.3699999999999
 30
0.0
 11
148.4229999999999
 21
219.555
 31
0.0
  0
LINE
  5
102
330
18
100
AcDbEntity
  8
0
100
AcDbLine
 10
163.002
 20
218.385
 30
0.0
 11
165.2129999999999
 21
218.977
 31
0.0
  0
LINE
  5
103
330
18
100
AcDbEntity
  8
0
100
AcDbLine
 10
165.2129999999999
 20
218.977
 30
0.0
 11
163.002
 21
219.569
 31
0.0
  0
LINE
  5
104
330
18
100
AcDbEntity
  8
0
100
AcDbLine
 10
163.002
 20
219.569
 30
0.0
 11
163.002
 21
218.385
 31
0.0
  0
LINE
  5
105
330
18
100
AcDbEntity
  8
0
100
AcDbLine
 10
146.211
 20
218.97
 30
0.0
 11
165.212
 21
218.97
 31
0.0
  0
LINE
  5
106
330
18
100
AcDbEntity
  8
0
100
AcDbLine
 10
165.2129999999999
 20
218.3699999999999
 30
0.0
 11
165.2129999999999
 21
247.8639999999999
 31
0.0
  0
LINE
  5
107
330
18
100
AcDbEntity
  8
0
100
AcDbLine
 10
146.212
 20
218.581
 30
0.0
 11
146.212
 21
223.974
 31
0.0
  0
LINE
  5
108
330
18
100
AcDbEntity
  8
0
100
AcDbLine
 10
165.2129999999999
 20
209.836
 30
0.0
 11
165.2129999999999
 21
153.859
 31
0.0
  0
LINE
  5
109
330
18
100
AcDbEntity
  8
0
100
AcDbLine
 10
142.743
 20
209.836
 30
0.0
 11
142.743
 21
202.557
 31
0.0
  0
LINE
  5
10A
330
18
100
AcDbEntity
  8
0
100
AcDbLine
 10
146.1489999999999
 20
209.836
 30
0.0
 11
146.1489999999999
 21
202.557
 31
0.0
  0
LINE
  5
10B
330
18
100
AcDbEntity
  8
0
  6
AIGENLINE002
100
AcDbLine
 10
155.712
 20
265.764
 30
0.0
 11
140.712
 21
265.764
 31
0.0
  0
ARC
  5
10C
330
18
100
AcDbEntity
  8
0
  6
AIGENLINE001
100
AcDbCircle
 10
150.164344
 20
149.2594709999999
 30
0.0
 40
1.299768999999999
100
AcDbArc
 50
2.144568
 51
87.871208
  0
ARC
  5
10D
330
18
100
AcDbEntity
  8
0
  6
AIGENLINE001
100
AcDbCircle
 10
150.165616
 20
149.355654
 30
0.0
 40
1.298456999999999
100
AcDbArc
 50
272.0747699999999
 51
357.9015589999999
  0
ARC
  5
10E
330
18
100
AcDbEntity
  8
0
  6
AIGENLINE001
100
AcDbCircle
 10
150.2601569999999
 20
149.355463
 30
0.0
 40
1.298285
100
AcDbArc
 50
182.090277
 51
267.901857
  0
ARC
  5
10F
330
18
100
AcDbEntity
  8
0
  6
AIGENLINE001
100
AcDbCircle
 10
150.261259
 20
149.259834
 30
0.0
 40
1.299419
100
AcDbArc
 50
92.14491
 51
177.8708509999999
  0
LINE
  5
110
330
18
100
AcDbEntity
  8
0
100
AcDbLine
 10
139.441
 20
261.2929999999999
 30
0.0
 11
151.412
 21
261.2929999999999
 31
0.0
  0
ARC
  5
111
330
18
100
AcDbEntity
  8
0
100
AcDbCircle
 10
161.6308309999999
 20
257.127804
 30
0.0
 40
3.081456
100
AcDbArc
 50
1.074396999999999
 51
70.410705
  0
LINE
  5
112
330
18
100
AcDbEntity
  8
0
100
AcDbLine
 10
161.3179999999999
 20
241.507
 30
0.0
 11
150.213
 21
227.071
 31
0.0
  0
LINE
  5
113
330
18
100
AcDbEntity
  8
0
100
AcDbLine
 10
162.251
 20
244.1349999999999
 30
0.0
 11
162.712
 21
262.0
 31
0.0
  0
ARC
  5
114
330
18
100
AcDbEntity
  8
0
100
AcDbCircle
 10
157.718088
 20
244.263322
 30
0.0
 40
4.534277999999999
100
AcDbArc
 50
322.5609129999999
 51
358.3799839999999
  0
LINE
  5
115
330
18
100
AcDbEntity
  8
0
  6
AIGENLINE001
100
AcDbLine
 10
146.712
 20
270.2649999999999
 30
0.0
 11
143.712
 21
270.2649999999999
 31
0.0
  0
LINE
  5
116
330
18
100
AcDbEntity
  8
0
  6
AIGENLINE001
100
AcDbLine
 10
147.2129999999999
 20
260.264
 30
0.0
 11
147.2129999999999
 21
269.7649999999999
 31
0.0
  0
ARC
  5
117
330
18
100
AcDbEntity
  8
0
  6
AIGENLINE001
100
AcDbCircle
 10
148.2517179999999
 20
260.302924
 30
0.0
 40
1.039818
100
AcDbArc
 50
182.1280949999999
 51
267.8324609999999
  0
ARC
  5
118
330
18
100
AcDbEntity
  8
0
100
AcDbCircle
 10
143.7124629999999
 20
267.764763
 30
0.0
 40
2.500379999999999
100
AcDbArc
 50
0.001984
 51
90.001954
  0
LINE
  5
119
330
18
100
AcDbEntity
  8
0
  6
AIGENLINE002
100
AcDbLine
 10
152.712
 20
269.776
 30
0.0
 11
152.712
 21
275.2619999999999
 31
0.0
  0
LINE
  5
11A
330
18
100
AcDbEntity
  8
0
100
AcDbLine
 10
164.712
 20
256.014
 30
0.0
 11
164.712
 21
257.186
 31
0.0
  0
LINE
  5
11B
330
18
100
AcDbEntity
  8
0
100
AcDbLine
 10
165.2129999999999
 20
256.014
 30
0.0
 11
164.712
 21
256.014
 31
0.0
  0
LINE
  5
11C
330
18
100
AcDbEntity
  8
0
100
AcDbLine
 10
165.2129999999999
 20
248.514
 30
0.0
 11
165.2129999999999
 21
256.014
 31
0.0
  0
LINE
  5
11D
330
18
100
AcDbEntity
  8
0
100
AcDbLine
 10
162.3639999999999
 20
248.514
 30
0.0
 11
165.2129999999999
 21
248.514
 31
0.0
  0
LINE
  5
11E
330
18
100
AcDbEntity
  8
0
  6
AIGENLINE002
100
AcDbLine
 10
143.2129999999999
 20
252.265
 30
0.0
 11
167.808
 21
252.265
 31
0.0
  0
LINE
  5
11F
330
18
100
AcDbEntity
  8
0
100
AcDbLine
 10
143.2129999999999
 20
273.2639999999999
 30
0.0
 11
162.212
 21
273.2639999999999
 31
0.0
  0
LINE
  5
120
330
18
100
AcDbEntity
  8
0
100
AcDbLine
 10
162.712
 20
262.0
 30
0.0
 11
162.712
 21
272.765
 31
0.0
  0
ARC
  5
121
330
18
100
AcDbEntity
  8
0
100
AcDbCircle
 10
162.1939639999999
 20
272.746016
 30
0.0
 40
0.518586
100
AcDbArc
 50
2.108070999999999
 51
88.010421
  0
LINE
  5
122
330
18
100
AcDbEntity
  8
0
100
AcDbLine
 10
150.213
 20
225.2639999999999
 30
0.0
 11
150.213
 21
273.2639999999999
 31
0.0
  0
LINE
  5
123
330
18
100
AcDbEntity
  8
0
100
AcDbLine
 10
146.712
 20
224.7649999999999
 30
0.0
 11
149.713
 21
224.7649999999999
 31
0.0
  0
ARC
  5
124
330
18
100
AcDbEntity
  8
0
100
AcDbCircle
 10
149.694452
 20
225.282804
 30
0.0
 40
0.518521
100
AcDbArc
 50
272.059167
 51
357.901315
  0
LINE
  5
125
330
18
100
AcDbEntity
  8
0
100
AcDbLine
 10
146.212
 20
225.2639999999999
 30
0.0
 11
146.212
 21
267.7649999999999
 31
0.0
  0
ARC
  5
126
330
18
100
AcDbEntity
  8
0
100
AcDbCircle
 10
146.7310329999999
 20
225.2827939999999
 30
0.0
 40
0.5185360000000001
100
AcDbArc
 50
182.097495
 51
267.862979
  0
LINE
  5
127
330
18
100
AcDbEntity
  8
0
100
AcDbLine
 10
143.2129999999999
 20
270.2649999999999
 30
0.0
 11
143.712
 21
270.2649999999999
 31
0.0
  0
ARC
  5
128
330
18
100
AcDbEntity
  8
0
100
AcDbCircle
 10
143.7124629999999
 20
267.764763
 30
0.0
 40
2.500379999999999
100
AcDbArc
 50
0.001984
 51
90.001954
  0
LINE
  5
129
330
18
100
AcDbEntity
  8
0
100
AcDbLine
 10
142.713
 20
270.764
 30
0.0
 11
142.713
 21
272.765
 31
0.0
  0
ARC
  5
12A
330
18
100
AcDbEntity
  8
0
100
AcDbCircle
 10
143.2306649999999
 20
270.7832479999999
 30
0.0
 40
0.518411
100
AcDbArc
 50
182.1091759999999
 51
268.0291299999999
  0
ARC
  5
12B
330
18
100
AcDbEntity
  8
0
100
AcDbCircle
 10
143.232172
 20
272.744682
 30
0.0
 40
0.519968
100
AcDbArc
 50
92.13113599999999
 51
177.750333
  0
LINE
  5
12C
330
18
100
AcDbEntity
  8
0
  6
AIGENLINE002
100
AcDbLine
 10
152.712
 20
165.708
 30
0.0
 11
152.712
 21
160.96
 31
0.0
  0
LINE
  5
12D
330
18
100
AcDbEntity
  8
0
  6
AIGENLINE001
100
AcDbLine
 10
153.712
 20
163.809
 30
0.0
 11
153.712
 21
162.809
 31
0.0
  0
LINE
  5
12E
330
18
100
AcDbEntity
  8
0
  6
AIGENLINE001
100
AcDbLine
 10
151.7129999999999
 20
163.809
 30
0.0
 11
151.7129999999999
 21
162.809
 31
0.0
  0
ARC
  5
12F
330
18
100
AcDbEntity
  8
0
  6
AIGENLINE001
100
AcDbCircle
 10
152.6734229999999
 20
163.769987
 30
0.0
 40
1.03947
100
AcDbArc
 50
2.129281
 51
87.85096899999999
  0
ARC
  5
130
330
18
100
AcDbEntity
  8
0
  6
AIGENLINE001
100
AcDbCircle
 10
152.751056
 20
163.770312
 30
0.0
 40
1.039133
100
AcDbArc
 50
92.13177899999999
 51
177.887932
  0
ARC
  5
131
330
18
100
AcDbEntity
  8
0
  6
AIGENLINE001
100
AcDbCircle
 10
152.75137
 20
162.8474449999999
 30
0.0
 40
1.039458999999999
100
AcDbArc
 50
182.128754
 51
267.851535
  0
ARC
  5
132
330
18
100
AcDbEntity
  8
0
  6
AIGENLINE001
100
AcDbCircle
 10
152.673758
 20
162.8471209999999
 30
0.0
 40
1.039121999999999
100
AcDbArc
 50
272.1312689999999
 51
357.888481
  0
LINE
  5
133
330
18
100
AcDbEntity
  8
0
  6
AIGENLINE002
100
AcDbLine
 10
154.484
 20
163.3089999999999
 30
0.0
 11
151.031
 21
163.3089999999999
 31
0.0
  0
LINE
  5
134
330
18
100
AcDbEntity
  8
0
100
AcDbLine
 10
162.212
 20
170.869
 30
0.0
 11
162.212
 21
149.3079999999999
 31
0.0
  0
LINE
  5
135
330
18
100
AcDbEntity
  8
0
100
AcDbLine
 10
152.5999999999999
 20
175.3109999999999
 30
0.0
 11
159.8249999999999
 21
173.8059999999999
 31
0.0
  0
ARC
  5
136
330
18
100
AcDbEntity
  8
0
100
AcDbCircle
 10
159.1178079999999
 20
170.792806
 30
0.0
 40
3.095108
100
AcDbArc
 50
1.417589999999999
 51
76.788336
  0
LINE
  5
137
330
18
100
AcDbEntity
  8
0
100
AcDbLine
 10
165.2129999999999
 20
152.559
 30
0.0
 11
165.2129999999999
 21
149.3079999999999
 31
0.0
  0
LINE
  5
138
330
18
100
AcDbEntity
  8
0
100
AcDbLine
 10
164.712
 20
153.059
 30
0.0
 11
162.213
 21
153.059
 31
0.0
  0
ARC
  5
139
330
18
100
AcDbEntity
  8
0
100
AcDbCircle
 10
164.693357
 20
152.539474
 30
0.0
 40
0.51966
100
AcDbArc
 50
2.106756999999999
 51
87.972098
  0
ARC
  5
13A
330
18
100
AcDbEntity
  8
0
100
AcDbCircle
 10
153.307059
 20
178.324732
 30
0.0
 40
3.095381999999999
100
AcDbArc
 50
181.4181169999999
 51
256.7974589999999
  0
LINE
  5
13B
330
18
100
AcDbEntity
  8
0
  6
AIGENLINE002
100
AcDbLine
 10
152.712
 20
132.9039999999999
 30
0.0
 11
152.712
 21
137.652
 31
0.0
  0
LINE
  5
13C
330
18
100
AcDbEntity
  8
0
  6
AIGENLINE001
100
AcDbLine
 10
153.712
 20
134.804
 30
0.0
 11
153.712
 21
135.803
 31
0.0
  0
LINE
  5
13D
330
18
100
AcDbEntity
  8
0
  6
AIGENLINE001
100
AcDbLine
 10
151.7129999999999
 20
134.804
 30
0.0
 11
151.7129999999999
 21
135.803
 31
0.0
  0
ARC
  5
13E
330
18
100
AcDbEntity
  8
0
  6
AIGENLINE001
100
AcDbCircle
 10
152.751709
 20
134.84224
 30
0.0
 40
1.039796999999999
100
AcDbArc
 50
182.1270029999999
 51
267.833553
  0
ARC
  5
13F
330
18
100
AcDbEntity
  8
0
  6
AIGENLINE001
100
AcDbCircle
 10
152.6737339999999
 20
134.8416019999999
 30
0.0
 40
1.039135
100
AcDbArc
 50
272.132588
 51
357.906895
  0
ARC
  5
140
330
18
100
AcDbEntity
  8
0
  6
AIGENLINE001
100
AcDbCircle
 10
152.6730739999999
 20
135.764465
 30
0.0
 40
1.039818
100
AcDbArc
 50
2.128074999999999
 51
87.832441
  0
ARC
  5
141
330
18
100
AcDbEntity
  8
0
  6
AIGENLINE001
100
AcDbCircle
 10
152.7510799999999
 20
135.7651149999999
 30
0.0
 40
1.039144999999999
100
AcDbArc
 50
92.13309700000001
 51
177.906347
  0
LINE
  5
142
330
18
100
AcDbEntity
  8
0
  6
AIGENLINE002
100
AcDbLine
 10
154.484
 20
135.304
 30
0.0
 11
151.031
 21
135.304
 31
0.0
  0
LINE
  5
143
330
18
100
AcDbEntity
  8
0
100
AcDbLine
 10
150.213
 20
97.3029
 30
0.0
 11
150.213
 21
201.309
 31
0.0
  0
LINE
  5
144
330
18
100
AcDbEntity
  8
0
100
AcDbLine
 10
162.212
 20
127.743
 30
0.0
 11
162.212
 21
149.3079999999999
 31
0.0
  0
LINE
  5
145
330
18
100
AcDbEntity
  8
0
100
AcDbLine
 10
152.5999999999999
 20
123.3
 30
0.0
 11
159.8249999999999
 21
124.8059999999999
 31
0.0
  0
ARC
  5
146
330
18
100
AcDbEntity
  8
0
100
AcDbCircle
 10
159.1188559999999
 20
127.818255
 30
0.0
 40
3.094038999999999
100
AcDbArc
 50
283.19637
 51
358.5977029999999
  0
LINE
  5
147
330
18
100
AcDbEntity
  8
0
100
AcDbLine
 10
165.2129999999999
 20
146.056
 30
0.0
 11
165.2129999999999
 21
149.3079999999999
 31
0.0
  0
LINE
  5
148
330
18
100
AcDbEntity
  8
0
100
AcDbLine
 10
164.712
 20
145.554
 30
0.0
 11
162.213
 21
145.554
 31
0.0
  0
ARC
  5
149
330
18
100
AcDbEntity
  8
0
100
AcDbCircle
 10
164.692952
 20
146.0734689999999
 30
0.0
 40
0.5200160000000001
100
AcDbArc
 50
272.071135
 51
358.04697
  0
ARC
  5
14A
330
18
100
AcDbEntity
  8
0
100
AcDbCircle
 10
153.3054429999999
 20
120.288131
 30
0.0
 40
3.093750999999999
100
AcDbArc
 50
103.1788879999999
 51
178.592376
  0
LINE
  5
14B
330
18
100
AcDbEntity
  8
0
  6
AIGENLINE002
100
AcDbLine
 10
168.2129999999999
 20
149.3079999999999
 30
0.0
 11
139.7129999999999
 21
149.3079999999999
 31
0.0
  0
LINE
  5
14C
330
18
100
AcDbEntity
  8
0
100
AcDbLine
 10
149.713
 20
201.809
 30
0.0
 11
143.2129999999999
 21
201.809
 31
0.0
  0
ARC
  5
14D
330
18
100
AcDbEntity
  8
0
100
AcDbCircle
 10
149.693341
 20
201.290028
 30
0.0
 40
0.519632
100
AcDbArc
 50
2.098338999999999
 51
87.822677
  0
LINE
  5
14E
330
18
100
AcDbEntity
  8
0
100
AcDbLine
 10
142.713
 20
97.3029
 30
0.0
 11
142.713
 21
201.309
 31
0.0
  0
ARC
  5
14F
330
18
100
AcDbEntity
  8
0
100
AcDbCircle
 10
143.232245
 20
201.2896449999999
 30
0.0
 40
0.5200020000000001
100
AcDbArc
 50
92.13903400000001
 51
177.860936
  0
LINE
  5
150
330
18
100
AcDbEntity
  8
0
100
AcDbLine
 10
149.713
 20
96.803
 30
0.0
 11
143.2129999999999
 21
96.803
 31
0.0
  0
ARC
  5
151
330
18
100
AcDbEntity
  8
0
100
AcDbCircle
 10
149.6941889999999
 20
97.321395
 30
0.0
 40
0.518767
100
AcDbArc
 50
272.087224
 51
357.952287
  0
ARC
  5
152
330
18
100
AcDbEntity
  8
0
100
AcDbCircle
 10
143.23154
 20
97.32191999999999
 30
0.0
 40
0.519285
100
AcDbArc
 50
182.103676
 51
267.9358279999999
  0
LINE
  5
153
330
18
100
AcDbEntity
  8
0
100
AcDbLine
 10
146.212
 20
96.803
 30
0.0
 11
146.212
 21
201.809
 31
0.0
  0
TEXT
  5
154
330
18
100
AcDbEntity
  8
_________2
100
AcDbText
 10
26.4582
 20
69.6413
 30
0.0
 40
3.9357
  1
・壁取付部には厚さ30mm以上の補強木を入れてください。
 41
0.5
100
AcDbText
  0
LINE
  5
155
330
18
100
AcDbEntity
  8
_________2
100
AcDbLine
 10
210.24
 20
148.931
 30
0.0
 11
188.49
 21
148.931
 31
0.0
  0
LINE
  5
156
330
18
100
AcDbEntity
  8
_________2
100
AcDbLine
 10
105.2389999999999
 20
17.42849999999999
 30
0.0
 11
105.2389999999999
 21
0.4482100000000001
 31
0.0
  0
LINE
  5
157
330
18
100
AcDbEntity
  8
_________2
100
AcDbLine
 10
105.2389999999999
 20
297.4499999999999
 30
0.0
 11
105.2389999999999
 21
280.4299999999999
 31
0.0
  0
LINE
  5
158
330
18
100
AcDbEntity
  8
_________2
100
AcDbLine
 10
21.98849999999999
 20
148.931
 30
0.0
 11
0.238058
 21
148.931
 31
0.0
  0
LINE
  5
159
330
18
100
AcDbEntity
  8
_________2
100
AcDbLine
 10
81.67990000000001
 20
51.3243
 30
0.0
 11
79.4937
 21
51.3243
 31
0.0
  0
LINE
  5
15A
330
18
100
AcDbEntity
  8
_________2
100
AcDbLine
 10
82.17260000000001
 20
51.3243
 30
0.0
 11
81.9204
 21
51.3243
 31
0.0
  0
LINE
  5
15B
330
18
100
AcDbEntity
  8
_________2
100
AcDbLine
 10
82.66519999999999
 20
51.3243
 30
0.0
 11
85.5901
 21
51.3243
 31
0.0
  0
LINE
  5
15C
330
18
100
AcDbEntity
  8
_________2
100
AcDbLine
 10
82.17260000000001
 20
51.3243
 30
0.0
 11
82.4248
 21
51.3243
 31
0.0
  0
LINE
  5
15D
330
18
100
AcDbEntity
  8
_________2
100
AcDbLine
 10
75.77639999999999
 20
51.3243
 30
0.0
 11
73.5894
 21
51.3243
 31
0.0
  0
LINE
  5
15E
330
18
100
AcDbEntity
  8
_________2
100
AcDbLine
 10
76.2684
 20
51.3243
 30
0.0
 11
76.01690000000001
 21
51.3243
 31
0.0
  0
LINE
  5
15F
330
18
100
AcDbEntity
  8
_________2
100
AcDbLine
 10
76.2684
 20
51.817
 30
0.0
 11
76.2684
 21
54.0039
 31
0.0
  0
LINE
  5
160
330
18
100
AcDbEntity
  8
_________2
100
AcDbLine
 10
76.2684
 20
51.3243
 30
0.0
 11
76.2684
 21
51.5765
 31
0.0
  0
LINE
  5
161
330
18
100
AcDbEntity
  8
_________2
100
AcDbLine
 10
76.76100000000001
 20
51.3243
 30
0.0
 11
78.948
 21
51.3243
 31
0.0
  0
LINE
  5
162
330
18
100
AcDbEntity
  8
_________2
100
AcDbLine
 10
76.2684
 20
51.3243
 30
0.0
 11
76.5205
 21
51.3243
 31
0.0
  0
LINE
  5
163
330
18
100
AcDbEntity
  8
_________2
100
AcDbLine
 10
76.2684
 20
50.83239999999999
 30
0.0
 11
76.2684
 21
48.6454
 31
0.0
  0
LINE
  5
164
330
18
100
AcDbEntity
  8
_________2
100
AcDbLine
 10
76.2684
 20
51.3243
 30
0.0
 11
76.2684
 21
51.0728
 31
0.0
  0
LINE
  5
165
330
18
100
AcDbEntity
  8
_________2
100
AcDbLine
 10
79.97939999999999
 20
50.1048
 30
0.0
 11
85.15739999999999
 21
49.24
 31
0.0
  0
LINE
  5
166
330
18
100
AcDbEntity
  8
_________2
100
AcDbLine
 10
79.97939999999999
 20
52.5439
 30
0.0
 11
85.15739999999999
 21
53.4093
 31
0.0
  0
LINE
  5
167
330
18
100
AcDbEntity
  8
_________2
100
AcDbLine
 10
85.15739999999999
 20
49.24
 30
0.0
 11
85.15739999999999
 21
53.4093
 31
0.0
  0
LINE
  5
168
330
18
100
AcDbEntity
  8
_________2
100
AcDbLine
 10
79.97939999999999
 20
50.1048
 30
0.0
 11
79.97939999999999
 21
52.5439
 31
0.0
  0
ARC
  5
169
330
18
100
AcDbEntity
  8
_________2
100
AcDbCircle
 10
76.22211
 20
51.27736699999999
 30
0.0
 40
1.267370999999999
100
AcDbArc
 50
2.123295
 51
87.909056
  0
ARC
  5
16A
330
18
100
AcDbEntity
  8
_________2
100
AcDbCircle
 10
76.31527300000001
 20
51.277401
 30
0.0
 40
1.267363
100
AcDbArc
 50
92.12178599999999
 51
177.878185
  0
ARC
  5
16B
330
18
100
AcDbEntity
  8
_________2
100
AcDbCircle
 10
76.31527300000001
 20
51.37124599999999
 30
0.0
 40
1.267363
100
AcDbArc
 50
182.1218149999999
 51
267.878214
  0
ARC
  5
16C
330
18
100
AcDbEntity
  8
_________2
100
AcDbCircle
 10
76.22146100000001
 20
51.37192899999999
 30
0.0
 40
1.268043999999999
100
AcDbArc
 50
272.119164
 51
357.8484849999999
  0
ARC
  5
16D
330
18
100
AcDbEntity
  8
_________2
100
AcDbCircle
 10
76.26834999999999
 20
51.324323
 30
0.0
 40
2.084984999999999
100
AcDbArc
 50
0.00001
 51
89.99998000000001
  0
ARC
  5
16E
330
18
100
AcDbEntity
  8
_________2
100
AcDbCircle
 10
76.348388
 20
51.24500199999999
 30
0.0
 40
2.165786
100
AcDbArc
 50
92.11785500000003
 51
177.9010529999999
  0
ARC
  5
16F
330
18
100
AcDbEntity
  8
_________2
100
AcDbCircle
 10
76.348354
 20
51.404327
 30
0.0
 40
2.165777999999999
100
AcDbArc
 50
182.117004
 51
267.8830249999999
  0
ARC
  5
170
330
18
100
AcDbEntity
  8
_________2
100
AcDbCircle
 10
76.18837899999999
 20
51.40501
 30
0.0
 40
2.166459
100
AcDbArc
 50
272.115468
 51
357.865604
  0
TEXT
  5
171
330
18
100
AcDbEntity
  8
_________2
100
AcDbText
 10
109.5439999999999
 20
23.1991
 30
0.0
 40
3.09234
  1
図番
 41
0.5
100
AcDbText
  0
LINE
  5
172
330
18
100
AcDbEntity
  8
_________2
100
AcDbLine
 10
108.4889999999999
 20
27.4283
 30
0.0
 11
188.49
 21
27.4283
 31
0.0
  0
TEXT
  5
173
330
18
100
AcDbEntity
  8
_________2
100
AcDbText
 10
109.5439999999999
 20
33.1989
 30
0.0
 40
3.09234
  1
品番
 41
0.5
100
AcDbText
  0
TEXT
  5
174
330
18
100
AcDbEntity
  8
_________2
100
AcDbText
 10
109.5439999999999
 20
53.3377
 30
0.0
 40
3.09234
  1
名称
 41
0.5
100
AcDbText
  0
TEXT
  5
175
330
18
100
AcDbEntity
  8
_________2
100
AcDbText
 10
96.78405833333334
 20
48.34150000000001
 30
0.0
 40
3.65458
  1
mm
 41
0.5
 72
     1
 11
98.3068
 21
48.34150000000001
 31
0.0
100
AcDbText
  0
TEXT
  5
176
330
18
100
AcDbEntity
  8
_________2
100
AcDbText
 10
90.5821
 20
53.3377
 30
0.0
 40
3.09234
  1
単位
 41
0.5
100
AcDbText
  0
TEXT
  5
177
330
18
100
AcDbEntity
  8
_________2
100
AcDbText
 10
90.5821
 20
40.9304
 30
0.0
 40
3.09234
  1
尺度
 41
0.5
100
AcDbText
  0
TEXT
  5
178
330
18
100
AcDbEntity
  8
_________2
100
AcDbText
 10
95.03083616666668
 20
34.73749999999999
 30
0.0
 40
3.65458
  1
1 ： 10
 41
0.5
 72
     1
 11
98.8986
 21
34.73749999999999
 31
0.0
100
AcDbText
  0
TEXT
  5
179
330
18
100
AcDbEntity
  8
_________2
100
AcDbText
 10
137.8298125
 20
30.6274
 30
0.0
 40
3.9357
  1
DV030410R-00
 41
0.5
 72
     1
 11
148.489
 21
30.6274
 31
0.0
100
AcDbText
  0
TEXT
  5
17A
330
18
100
AcDbEntity
  8
_________2
100
AcDbText
 10
140.4536124999999
 20
20.62699999999999
 30
0.0
 40
3.9357
  1
DV030410R
 41
0.5
 72
     1
 11
148.489
 21
20.62699999999999
 31
0.0
100
AcDbText
  0
TEXT
  5
17B
330
18
100
AcDbEntity
  8
_________2
100
AcDbText
 10
29.5257
 20
22.2269
 30
0.0
 40
3.9357
  1
実容量：9L　重量：約26kg、オーバーフロー付
 41
0.5
100
AcDbText
  0
TEXT
  5
17C
330
18
100
AcDbEntity
  8
_________2
100
AcDbText
 10
114.118
 20
45.7453
 30
0.0
 40
3.9357
  1
スタルク3　壁掛式洗面器
 41
0.5
100
AcDbText
  0
TEXT
  5
17D
330
18
100
AcDbEntity
  8
_________2
100
AcDbText
 10
44.30329066666667
 20
35.12259999999999
 30
0.0
 40
3.65458
  1
高橋
 41
0.5
 72
     1
 11
46.2524
 21
35.12259999999999
 31
0.0
100
AcDbText
  0
TEXT
  5
17E
330
18
100
AcDbEntity
  8
_________2
100
AcDbText
 10
25.72929066666667
 20
35.12259999999999
 30
0.0
 40
3.65458
  1
石原
 41
0.5
 72
     1
 11
27.6784
 21
35.12259999999999
 31
0.0
100
AcDbText
  0
TEXT
  5
17F
330
18
100
AcDbEntity
  8
_________2
100
AcDbText
 10
72.7247
 20
34.73749999999999
 30
0.0
 40
3.65458
  1
08.06.12
 41
0.5
100
AcDbText
  0
TEXT
  5
180
330
18
100
AcDbEntity
  8
_________2
100
AcDbText
 10
71.532
 20
40.9304
 30
0.0
 40
3.09234
  1
日付
 41
0.5
100
AcDbText
  0
TEXT
  5
181
330
18
100
AcDbEntity
  8
_________2
100
AcDbText
 10
34.57829999999999
 20
40.9304
 30
0.0
 40
3.09234
  1
検図
 41
0.5
100
AcDbText
  0
TEXT
  5
182
330
18
100
AcDbEntity
  8
_________2
100
AcDbText
 10
22.96
 20
26.73099999999999
 30
0.0
 40
3.09234
  1
備考
 41
0.5
100
AcDbText
  0
TEXT
  5
183
330
18
100
AcDbEntity
  8
_________2
100
AcDbText
 10
22.96
 20
40.9304
 30
0.0
 40
3.09234
  1
製図
 41
0.5
100
AcDbText
  0
TEXT
  5
184
330
18
100
AcDbEntity
  8
_________2
100
AcDbText
 10
28.80233099999999
 20
49.4564
 30
0.0
 40
4.497939999999999
  1
セラトレーディング株式会社
 41
0.5
 72
     1
 11
46.11939999999999
 21
49.4564
 31
0.0
100
AcDbText
  0
LINE
  5
185
330
18
100
AcDbEntity
  8
_________2
100
AcDbLine
 10
188.49
 20
17.42849999999999
 30
0.0
 11
21.98849999999999
 21
17.42849999999999
 31
0.0
  0
LINE
  5
186
330
18
100
AcDbEntity
  8
_________2
100
AcDbLine
 10
21.98849999999999
 20
17.42849999999999
 30
0.0
 11
21.98849999999999
 21
280.4299999999999
 31
0.0
  0
LINE
  5
187
330
18
100
AcDbEntity
  8
_________2
100
AcDbLine
 10
21.98849999999999
 20
280.4299999999999
 30
0.0
 11
188.49
 21
280.4299999999999
 31
0.0
  0
LINE
  5
188
330
18
100
AcDbEntity
  8
_________2
100
AcDbLine
 10
188.49
 20
280.4299999999999
 30
0.0
 11
188.49
 21
17.42849999999999
 31
0.0
  0
LINE
  5
189
330
18
100
AcDbEntity
  8
_________2
100
AcDbLine
 10
70.4888
 20
30.9285
 30
0.0
 11
70.4888
 21
57.42840000000001
 31
0.0
  0
LINE
  5
18A
330
18
100
AcDbEntity
  8
_________2
100
AcDbLine
 10
89.48860000000001
 20
30.9285
 30
0.0
 11
89.48860000000001
 21
57.42840000000001
 31
0.0
  0
LINE
  5
18B
330
18
100
AcDbEntity
  8
_________2
100
AcDbLine
 10
108.4889999999999
 20
17.42849999999999
 30
0.0
 11
108.4889999999999
 21
57.42840000000001
 31
0.0
  0
LINE
  5
18C
330
18
100
AcDbEntity
  8
_________2
100
AcDbLine
 10
33.4883
 20
30.9285
 30
0.0
 11
33.4883
 21
44.9288
 31
0.0
  0
LINE
  5
18D
330
18
100
AcDbEntity
  8
_________2
100
AcDbLine
 10
21.98849999999999
 20
30.9285
 30
0.0
 11
108.4889999999999
 21
30.9285
 31
0.0
  0
LINE
  5
18E
330
18
100
AcDbEntity
  8
_________2
100
AcDbLine
 10
21.98849999999999
 20
44.9288
 30
0.0
 11
108.4889999999999
 21
44.9288
 31
0.0
  0
LINE
  5
18F
330
18
100
AcDbEntity
  8
_________2
100
AcDbLine
 10
108.4889999999999
 20
37.4281
 30
0.0
 11
188.49
 21
37.4281
 31
0.0
  0
LINE
  5
190
330
18
100
AcDbEntity
  8
_________2
100
AcDbLine
 10
21.98849999999999
 20
57.42840000000001
 30
0.0
 11
188.49
 21
57.42840000000001
 31
0.0
  0
ENDSEC
  0
SECTION
  2
OBJECTS
  0
DICTIONARY
  5
C
330
0
100
AcDbDictionary
281
     1
  3
ACAD_GROUP
350
D
  3
ACAD_LAYOUT
350
196
  3
ACAD_MLINESTYLE
350
1B
  3
ACAD_PLOTSETTINGS
350
197
  3
ACAD_PLOTSTYLENAME
350
194
  0
DICTIONARY
  5
D
102
{ACAD_REACTORS
330
C
102
}
330
C
100
AcDbDictionary
281
     1
  0
DICTIONARY
  5
196
102
{ACAD_REACTORS
330
C
102
}
330
C
100
AcDbDictionary
281
     1
  3
Model
350
198
  3
ﾚｲｱｳﾄ1
350
199
  0
DICTIONARY
  5
1B
102
{ACAD_REACTORS
330
C
102
}
330
C
100
AcDbDictionary
281
     1
  3
STANDARD
350
1C
  0
DICTIONARY
  5
197
102
{ACAD_REACTORS
330
C
102
}
330
C
100
AcDbDictionary
281
     1
  0
ACDBDICTIONARYWDFLT
  5
194
102
{ACAD_REACTORS
330
C
102
}
330
C
100
AcDbDictionary
281
     1
  3
Normal
350
195
100
AcDbDictionaryWithDefault
340
195
  0
LAYOUT
  5
198
102
{ACAD_REACTORS
330
196
102
}
330
196
100
AcDbPlotSettings
  1

  2
FX DocuPrint 181 XPL2
  4

  6

 40
0.0
 41
0.0
 42
0.0
 43
0.0
 44
0.0
 45
0.0
 46
0.0
 47
0.0
 48
0.0
 49
0.0
140
0.0
141
0.0
142
1.0
143
1.0
 70
  1712
 72
     0
 73
     0
 74
     0
  7

 75
     0
147
1.0
148
0.0
149
0.0
100
AcDbLayout
  1
Model
 70
     1
 71
     0
 10
0.0
 20
0.0
 11
12.0
 21
9.0
 12
0.0
 22
0.0
 32
0.0
 14
0.0
 24
0.0
 34
0.0
 15
0.0
 25
0.0
 35
0.0
146
0.0
 13
0.0
 23
0.0
 33
0.0
 16
1.0
 26
0.0
 36
0.0
 17
0.0
 27
1.0
 37
0.0
 76
     0
330
18
  0
LAYOUT
  5
199
102
{ACAD_REACTORS
330
196
102
}
330
196
100
AcDbPlotSettings
  1

  2
FX DocuPrint 181 XPL2
  4

  6

 40
0.0
 41
0.0
 42
0.0
 43
0.0
 44
0.0
 45
0.0
 46
0.0
 47
0.0
 48
0.0
 49
0.0
140
0.0
141
0.0
142
1.0
143
1.0
 70
   688
 72
     0
 73
     0
 74
     5
  7

 75
    16
147
1.0
148
0.0
149
0.0
100
AcDbLayout
  1
ﾚｲｱｳﾄ1
 70
     1
 71
     1
 10
0.0
 20
0.0
 11
12.0
 21
9.0
 12
0.0
 22
0.0
 32
0.0
 14
1.000000000000000E+20
 24
1.000000000000000E+20
 34
1.000000000000000E+20
 15
-1.000000000000000E+20
 25
-1.000000000000000E+20
 35
-1.000000000000000E+20
146
0.0
 13
0.0
 23
0.0
 33
0.0
 16
1.0
 26
0.0
 36
0.0
 17
0.0
 27
1.0
 37
0.0
 76
     0
330
15
  0
MLINESTYLE
  5
1C
102
{ACAD_REACTORS
330
1B
102
}
330
1B
100
AcDbMlineStyle
  2
STANDARD
 70
     0
  3

 62
   256
 51
90.0
 52
90.0
 71
     2
 49
0.5
 62
   256
  6
BYLAYER
 49
-0.5
 62
   256
  6
BYLAYER
  0
ACDBPLACEHOLDER
  5
195
102
{ACAD_REACTORS
330
194
102
}
330
194
  0
ENDSEC
  0
EOF
