  0
SECTION
  2
HEADER
  9
$ACADVER
  1
AC1015
  9
$ACADMAINTVER
 70
     6
  9
$DWGCODEPAGE
  3
ANSI_932
  9
$INSBASE
 10
0.0
 20
0.0
 30
0.0
  9
$EXTMIN
 10
-4.70052
 20
-21.0714
 30
0.0
  9
$EXTMAX
 10
205.301
 20
275.9309999999999
 30
0.0
  9
$LIMMIN
 10
0.0
 20
0.0
  9
$LIMMAX
 10
12.0
 20
9.0
  9
$ORTHOMODE
 70
     0
  9
$REGENMODE
 70
     1
  9
$FILLMODE
 70
     1
  9
$QTEXTMODE
 70
     0
  9
$MIRRTEXT
 70
     1
  9
$LTSCALE
 40
1.0
  9
$ATTMODE
 70
     1
  9
$TEXTSIZE
 40
0.0
  9
$TRACEWID
 40
0.05
  9
$TEXTSTYLE
  7
STANDARD
  9
$CLAYER
  8
0
  9
$CELTYPE
  6
CONTINUOUS
  9
$CECOLOR
 62
   256
  9
$CELTSCALE
 40
1.0
  9
$DISPSILH
 70
     0
  9
$DIMSCALE
 40
1.0
  9
$DIMASZ
 40
0.18
  9
$DIMEXO
 40
0.0625
  9
$DIMDLI
 40
0.38
  9
$DIMRND
 40
0.0
  9
$DIMDLE
 40
0.0
  9
$DIMEXE
 40
0.18
  9
$DIMTP
 40
0.0
  9
$DIMTM
 40
0.0
  9
$DIMTXT
 40
0.18
  9
$DIMCEN
 40
0.09
  9
$DIMTSZ
 40
0.0
  9
$DIMTOL
 70
     0
  9
$DIMLIM
 70
     0
  9
$DIMTIH
 70
     1
  9
$DIMTOH
 70
     1
  9
$DIMSE1
 70
     0
  9
$DIMSE2
 70
     0
  9
$DIMTAD
 70
     0
  9
$DIMZIN
 70
     0
  9
$DIMBLK
  1

  9
$DIMASO
 70
     1
  9
$DIMSHO
 70
     1
  9
$DIMPOST
  1

  9
$DIMAPOST
  1

  9
$DIMALT
 70
     0
  9
$DIMALTD
 70
     2
  9
$DIMALTF
 40
25.4
  9
$DIMLFAC
 40
1.0
  9
$DIMTOFL
 70
     0
  9
$DIMTVP
 40
0.0
  9
$DIMTIX
 70
     0
  9
$DIMSOXD
 70
     0
  9
$DIMSAH
 70
     0
  9
$DIMBLK1
  1

  9
$DIMBLK2
  1

  9
$DIMSTYLE
  2
STANDARD
  9
$DIMCLRD
 70
     0
  9
$DIMCLRE
 70
     0
  9
$DIMCLRT
 70
     0
  9
$DIMTFAC
 40
1.0
  9
$DIMGAP
 40
0.09
  9
$DIMJUST
 70
     0
  9
$DIMSD1
 70
     0
  9
$DIMSD2
 70
     0
  9
$DIMTOLJ
 70
     1
  9
$DIMTZIN
 70
     0
  9
$DIMALTZ
 70
     0
  9
$DIMALTTZ
 70
     0
  9
$DIMUPT
 70
     0
  9
$DIMDEC
 70
     4
  9
$DIMTDEC
 70
     4
  9
$DIMALTU
 70
     2
  9
$DIMALTTD
 70
     2
  9
$DIMTXSTY
  7
STANDARD
  9
$DIMAUNIT
 70
     0
  9
$DIMADEC
 70
     0
  9
$DIMALTRND
 40
0.0
  9
$DIMAZIN
 70
     0
  9
$DIMDSEP
 70
    46
  9
$DIMATFIT
 70
     3
  9
$DIMFRAC
 70
     0
  9
$DIMLDRBLK
  1

  9
$DIMLUNIT
 70
     2
  9
$DIMLWD
 70
    -2
  9
$DIMLWE
 70
    -2
  9
$DIMTMOVE
 70
     1
  9
$LUNITS
 70
     2
  9
$LUPREC
 70
     4
  9
$SKETCHINC
 40
0.1
  9
$FILLETRAD
 40
0.0
  9
$AUNITS
 70
     0
  9
$AUPREC
 70
     0
  9
$MENU
  1
.
  9
$ELEVATION
 40
0.0
  9
$PELEVATION
 40
0.0
  9
$THICKNESS
 40
0.0
  9
$LIMCHECK
 70
     0
  9
$CHAMFERA
 40
0.0
  9
$CHAMFERB
 40
0.0
  9
$CHAMFERC
 40
0.0
  9
$CHAMFERD
 40
0.0
  9
$SKPOLY
 70
     0
  9
$TDCREATE
 40
2444972.375000000
  9
$TDUCREATE
 40
2444972.000000000
  9
$TDUPDATE
 40
2455216.790087523
  9
$TDUUPDATE
 40
2455216.415087523
  9
$TDINDWG
 40
0.0257144676
  9
$TDUSRTIMER
 40
0.0257144676
  9
$USRTIMER
 70
     1
  9
$ANGBASE
 50
0.0
  9
$ANGDIR
 70
     0
  9
$PDMODE
 70
     0
  9
$PDSIZE
 40
0.0
  9
$PLINEWID
 40
0.0
  9
$SPLFRAME
 70
     0
  9
$SPLINETYPE
 70
     6
  9
$SPLINESEGS
 70
     8
  9
$HANDSEED
  5
250
  9
$SURFTAB1
 70
     6
  9
$SURFTAB2
 70
     6
  9
$SURFTYPE
 70
     6
  9
$SURFU
 70
     6
  9
$SURFV
 70
     6
  9
$UCSBASE
  2

  9
$UCSNAME
  2

  9
$UCSORG
 10
0.0
 20
0.0
 30
0.0
  9
$UCSXDIR
 10
1.0
 20
0.0
 30
0.0
  9
$UCSYDIR
 10
0.0
 20
1.0
 30
0.0
  9
$UCSORTHOREF
  2

  9
$UCSORTHOVIEW
 70
     0
  9
$UCSORGTOP
 10
0.0
 20
0.0
 30
0.0
  9
$UCSORGBOTTOM
 10
0.0
 20
0.0
 30
0.0
  9
$UCSORGLEFT
 10
0.0
 20
0.0
 30
0.0
  9
$UCSORGRIGHT
 10
0.0
 20
0.0
 30
0.0
  9
$UCSORGFRONT
 10
0.0
 20
0.0
 30
0.0
  9
$UCSORGBACK
 10
0.0
 20
0.0
 30
0.0
  9
$PUCSBASE
  2

  9
$PUCSNAME
  2

  9
$PUCSORG
 10
0.0
 20
0.0
 30
0.0
  9
$PUCSXDIR
 10
1.0
 20
0.0
 30
0.0
  9
$PUCSYDIR
 10
0.0
 20
1.0
 30
0.0
  9
$PUCSORTHOREF
  2

  9
$PUCSORTHOVIEW
 70
     0
  9
$PUCSORGTOP
 10
0.0
 20
0.0
 30
0.0
  9
$PUCSORGBOTTOM
 10
0.0
 20
0.0
 30
0.0
  9
$PUCSORGLEFT
 10
0.0
 20
0.0
 30
0.0
  9
$PUCSORGRIGHT
 10
0.0
 20
0.0
 30
0.0
  9
$PUCSORGFRONT
 10
0.0
 20
0.0
 30
0.0
  9
$PUCSORGBACK
 10
0.0
 20
0.0
 30
0.0
  9
$USERI1
 70
     0
  9
$USERI2
 70
     0
  9
$USERI3
 70
     0
  9
$USERI4
 70
     0
  9
$USERI5
 70
     0
  9
$USERR1
 40
0.0
  9
$USERR2
 40
0.0
  9
$USERR3
 40
0.0
  9
$USERR4
 40
0.0
  9
$USERR5
 40
0.0
  9
$WORLDVIEW
 70
     1
  9
$SHADEDGE
 70
     3
  9
$SHADEDIF
 70
    70
  9
$TILEMODE
 70
     1
  9
$MAXACTVP
 70
    48
  9
$PINSBASE
 10
0.0
 20
0.0
 30
0.0
  9
$PLIMCHECK
 70
     0
  9
$PEXTMIN
 10
1.000000000000000E+20
 20
1.000000000000000E+20
 30
1.000000000000000E+20
  9
$PEXTMAX
 10
-1.000000000000000E+20
 20
-1.000000000000000E+20
 30
-1.000000000000000E+20
  9
$PLIMMIN
 10
0.0
 20
0.0
  9
$PLIMMAX
 10
12.0
 20
9.0
  9
$UNITMODE
 70
     0
  9
$VISRETAIN
 70
     1
  9
$PLINEGEN
 70
     0
  9
$PSLTSCALE
 70
     1
  9
$TREEDEPTH
 70
  3020
  9
$CMLSTYLE
  2
STANDARD
  9
$CMLJUST
 70
     0
  9
$CMLSCALE
 40
1.0
  9
$PROXYGRAPHICS
 70
     1
  9
$MEASUREMENT
 70
     0
  9
$CELWEIGHT
370
    -1
  9
$ENDCAPS
280
     0
  9
$JOINSTYLE
280
     0
  9
$LWDISPLAY
290
     0
  9
$INSUNITS
 70
     0
  9
$HYPERLINKBASE
  1

  9
$STYLESHEET
  1

  9
$XEDIT
290
     1
  9
$CEPSNTYPE
380
     0
  9
$PSTYLEMODE
290
     1
  9
$FINGERPRINTGUID
  2
{EF5F0F55-E9F3-44E7-A93A-CA6AF9550DD3}
  9
$VERSIONGUID
  2
{DA3A257D-CABF-4E02-B40E-B16BDE1423BB}
  9
$EXTNAMES
290
     1
  9
$PSVPSCALE
 40
0.0
  9
$OLESTARTUP
290
     0
  0
ENDSEC
  0
SECTION
  2
CLASSES
  0
CLASS
  1
ACDBDICTIONARYWDFLT
  2
AcDbDictionaryWithDefault
  3
AutoCAD 2000
 90
        0
280
     0
281
     0
  0
CLASS
  1
ACDBPLACEHOLDER
  2
AcDbPlaceHolder
  3
AutoCAD 2000
 90
        0
280
     0
281
     0
  0
CLASS
  1
LAYOUT
  2
AcDbLayout
  3
AutoCAD 2000
 90
        0
280
     0
281
     0
  0
ENDSEC
  0
SECTION
  2
TABLES
  0
TABLE
  2
VPORT
  5
8
330
0
100
AcDbSymbolTable
 70
     2
  0
VPORT
  5
24F
330
8
100
AcDbSymbolTableRecord
100
AcDbViewportTableRecord
  2
*Active
 70
     0
 10
0.0
 20
0.0
 11
1.0
 21
1.0
 12
142.5441797989527
 22
128.7107057533326
 13
0.0
 23
0.0
 14
1.0
 24
1.0
 15
0.0
 25
0.0
 16
0.0
 26
0.0
 36
1.0
 17
0.0
 27
0.0
 37
0.0
 40
293.1711292656763
 41
1.912109375
 42
50.0
 43
0.0
 44
0.0
 50
0.0
 51
0.0
 71
     0
 72
   100
 73
     1
 74
     1
 75
     0
 76
     0
 77
     0
 78
     0
281
     0
 65
     1
110
0.0
120
0.0
130
0.0
111
1.0
121
0.0
131
0.0
112
0.0
122
1.0
132
0.0
 79
     0
146
0.0
  0
ENDTAB
  0
TABLE
  2
LTYPE
  5
5
330
0
100
AcDbSymbolTable
 70
     4
  0
LTYPE
  5
12
330
5
100
AcDbSymbolTableRecord
100
AcDbLinetypeTableRecord
  2
BYBLOCK
 70
     0
  3

 72
    65
 73
     0
 40
0.0
  0
LTYPE
  5
13
330
5
100
AcDbSymbolTableRecord
100
AcDbLinetypeTableRecord
  2
BYLAYER
 70
     0
  3

 72
    65
 73
     0
 40
0.0
  0
LTYPE
  5
14
330
5
100
AcDbSymbolTableRecord
100
AcDbLinetypeTableRecord
  2
CONTINUOUS
 70
     0
  3
Solid line
 72
    65
 73
     0
 40
0.0
  0
LTYPE
  5
1F
330
5
100
AcDbSymbolTableRecord
100
AcDbLinetypeTableRecord
  2
AIGENLINE001
 70
     0
  3
generate AI->DXF Converter
 72
    65
 73
     4
 40
5.856144999999999
 49
3.5278
 74
     0
 49
-0.776115
 74
     0
 49
0.776115
 74
     0
 49
-0.776115
 74
     0
  0
LTYPE
  5
20
330
5
100
AcDbSymbolTableRecord
100
AcDbLinetypeTableRecord
  2
AIGENLINE002
 70
     0
  3
generate AI->DXF Converter
 72
    65
 73
     2
 40
1.552229999999999
 49
0.776115
 74
     0
 49
-0.776115
 74
     0
  0
LTYPE
  5
21
330
5
100
AcDbSymbolTableRecord
100
AcDbLinetypeTableRecord
  2
AIGENLINE003
 70
     0
  3
generate AI->DXF Converter
 72
    65
 73
     6
 40
7.408375
 49
3.5278
 74
     0
 49
-0.776115
 74
     0
 49
0.776115
 74
     0
 49
-0.776115
 74
     0
 49
0.776115
 74
     0
 49
-0.776115
 74
     0
  0
ENDTAB
  0
TABLE
  2
LAYER
  5
2
330
0
100
AcDbSymbolTable
 70
     2
  0
LAYER
  5
E
330
2
100
AcDbSymbolTableRecord
100
AcDbLayerTableRecord
  2
0
 70
     0
 62
     7
  6
CONTINUOUS
370
    -3
390
1BA
  0
LAYER
  5
22
330
2
100
AcDbSymbolTableRecord
100
AcDbLayerTableRecord
  2
_________2
 70
     0
 62
     7
  6
CONTINUOUS
370
    -3
390
1BA
  0
ENDTAB
  0
TABLE
  2
STYLE
  5
3
330
0
100
AcDbSymbolTable
 70
     1
  0
STYLE
  5
F
330
3
100
AcDbSymbolTableRecord
100
AcDbTextStyleTableRecord
  2
STANDARD
 70
     0
 40
0.0
 41
0.0
 50
0.0
 71
     0
 42
0.0
  3
TXT
  4
BIGFONT
  0
ENDTAB
  0
TABLE
  2
VIEW
  5
6
330
0
100
AcDbSymbolTable
 70
     0
  0
ENDTAB
  0
TABLE
  2
UCS
  5
7
330
0
100
AcDbSymbolTable
 70
     0
  0
ENDTAB
  0
TABLE
  2
APPID
  5
9
330
0
100
AcDbSymbolTable
 70
     1
  0
APPID
  5
10
330
9
100
AcDbSymbolTableRecord
100
AcDbRegAppTableRecord
  2
ACAD
 70
     0
  0
ENDTAB
  0
TABLE
  2
DIMSTYLE
  5
A
330
0
100
AcDbSymbolTable
 70
     1
100
AcDbDimStyleTable
 71
     1
340
1B6
  0
DIMSTYLE
105
1B6
330
A
100
AcDbSymbolTableRecord
100
AcDbDimStyleTableRecord
  2
STANDARD
 70
     0
340
F
  0
ENDTAB
  0
TABLE
  2
BLOCK_RECORD
  5
1
330
0
100
AcDbSymbolTable
 70
     0
  0
BLOCK_RECORD
  5
18
330
1
100
AcDbSymbolTableRecord
100
AcDbBlockTableRecord
  2
*MODEL_SPACE
340
1BD
  0
BLOCK_RECORD
  5
15
330
1
100
AcDbSymbolTableRecord
100
AcDbBlockTableRecord
  2
*PAPER_SPACE
340
1BE
  0
ENDTAB
  0
ENDSEC
  0
SECTION
  2
BLOCKS
  0
BLOCK
  5
19
330
18
100
AcDbEntity
  8
0
100
AcDbBlockBegin
  2
*MODEL_SPACE
 70
     0
 10
0.0
 20
0.0
 30
0.0
  3
*MODEL_SPACE
  1

  0
ENDBLK
  5
1A
330
18
100
AcDbEntity
  8
0
100
AcDbBlockEnd
  0
BLOCK
  5
16
330
15
100
AcDbEntity
 67
     1
  8
0
100
AcDbBlockBegin
  2
*PAPER_SPACE
 70
     0
 10
0.0
 20
0.0
 30
0.0
  3
*PAPER_SPACE
  1

  0
ENDBLK
  5
17
330
15
100
AcDbEntity
 67
     1
  8
0
100
AcDbBlockEnd
  0
ENDSEC
  0
SECTION
  2
ENTITIES
  0
TEXT
  5
24
330
18
100
AcDbEntity
  8
0
100
AcDbText
 10
154.8101779999999
 20
167.574
 30
0.0
 40
3.09234
  1
排水口
 41
0.5
 72
     2
 11
159.8609999999999
 21
167.574
 31
0.0
100
AcDbText
  0
TEXT
  5
25
330
18
100
AcDbEntity
  8
0
100
AcDbText
 10
161.4409649999999
 20
190.235
 30
0.0
 40
3.09234
  1
R10
 41
0.5
 72
     2
 11
164.7909999999999
 21
190.235
 31
0.0
100
AcDbText
  0
TEXT
  5
26
330
18
100
AcDbEntity
  8
0
100
AcDbText
 10
137.2272989999999
 20
147.201
 30
0.0
 40
3.09234
  1
カウンター切込寸法
 41
0.5
 72
     1
 11
145.422
 21
147.201
 31
0.0
100
AcDbText
  0
TEXT
  5
27
330
18
100
AcDbEntity
  8
0
100
AcDbText
 10
70.51398750000001
 20
136.59
 30
0.0
 40
3.09234
  1
550
 41
0.5
 72
     1
 11
72.44670000000001
 21
136.59
 31
0.0
100
AcDbText
  0
TEXT
  5
28
330
18
100
AcDbEntity
  8
0
100
AcDbText
 10
70.51398750000001
 20
144.512
 30
0.0
 40
3.09234
  1
480
 41
0.5
 72
     1
 11
72.44670000000001
 21
144.512
 31
0.0
100
AcDbText
  0
TEXT
  5
29
330
18
100
AcDbEntity
  8
0
100
AcDbText
 10
153.0211349999999
 20
75.7471
 30
0.0
 40
3.09234
  1
195
 41
0.5
 72
     1
 11
154.8249999999999
 21
75.7471
 31
0.0
100
AcDbText
  0
TEXT
  5
2A
330
18
100
AcDbEntity
  8
0
100
AcDbText
 10
84.85018
 20
184.5469999999999
 30
0.0
 40
3.09234
  1
%%c35
 41
0.5
 72
     2
 11
88.9733
 21
184.5469999999999
 31
0.0
100
AcDbText
  0
TEXT
  5
2B
330
18
100
AcDbEntity
  8
0
100
AcDbText
 10
80.24748
 20
175.65
 30
0.0
 40
3.09234
  1
%%c46
 41
0.5
 72
     2
 11
84.3706
 21
175.65
 31
0.0
100
AcDbText
  0
TEXT
  5
2C
330
18
100
AcDbEntity
  8
0
100
AcDbText
 10
75.59343
 20
209.979
 30
0.0
 40
3.09234
  1
100
 41
0.5
 72
     1
 11
77.1396
 21
209.979
 31
0.0
100
AcDbText
  0
TEXT
  5
2D
330
18
100
AcDbEntity
  8
0
100
AcDbText
 10
65.63012999999999
 20
209.979
 30
0.0
 40
3.09234
  1
100
 41
0.5
 72
     1
 11
67.17629999999999
 21
209.979
 31
0.0
100
AcDbText
  0
TEXT
  5
2E
330
18
100
AcDbEntity
  8
0
100
AcDbText
 10
143.7469824999999
 20
210.082
 30
0.0
 40
3.09234
  1
510
 41
0.5
 72
     1
 11
145.422
 21
210.082
 31
0.0
100
AcDbText
  0
TEXT
  5
30
330
18
100
AcDbEntity
  8
0
100
AcDbText
 10
142.389
 20
90.11808249999999
 30
0.0
 40
3.09234
  1
130
 50
90.0
 41
0.5
 72
     1
 11
142.389
 21
91.79309999999999
 31
0.0
100
AcDbText
  0
TEXT
  5
32
330
18
100
AcDbEntity
  8
0
100
AcDbText
 10
31.8701
 20
89.65638250000001
 30
0.0
 40
3.09234
  1
180
 50
90.0
 41
0.5
 72
     1
 11
31.8701
 21
91.3314
 31
0.0
100
AcDbText
  0
TEXT
  5
33
330
18
100
AcDbEntity
  8
0
100
AcDbText
 10
37.9102
 20
96.31997250000001
 30
0.0
 40
3.09234
  1
60
 50
90.0
 41
0.5
 72
     1
 11
37.9102
 21
97.4796
 31
0.0
100
AcDbText
  0
TEXT
  5
34
330
18
100
AcDbEntity
  8
0
100
AcDbText
 10
25.5345
 20
175.2044399999999
 30
0.0
 40
3.09234
  1
465
 50
90.0
 41
0.5
 72
     1
 11
25.5345
 21
177.2659999999999
 31
0.0
100
AcDbText
  0
TEXT
  5
35
330
18
100
AcDbEntity
  8
0
100
AcDbText
 10
32.1002
 20
148.028
 30
0.0
 40
3.09234
  1
35
 50
90.0
 41
0.5
100
AcDbText
  0
TEXT
  5
36
330
18
100
AcDbEntity
  8
0
100
AcDbText
 10
32.1002
 20
192.3969825
 30
0.0
 40
3.09234
  1
120
 50
90.0
 41
0.5
 72
     1
 11
32.1002
 21
194.0719999999999
 31
0.0
100
AcDbText
  0
TEXT
  5
37
330
18
100
AcDbEntity
  8
0
100
AcDbText
 10
32.1002
 20
171.7629824999999
 30
0.0
 40
3.09234
  1
310
 50
90.0
 41
0.5
 72
     1
 11
32.1002
 21
173.4379999999999
 31
0.0
100
AcDbText
  0
TEXT
  5
38
330
18
100
AcDbEntity
  8
0
100
AcDbText
 10
38.7128
 20
189.981135
 30
0.0
 40
3.09234
  1
195
 50
90.0
 41
0.5
 72
     1
 11
38.7128
 21
191.7849999999999
 31
0.0
100
AcDbText
  0
TEXT
  5
39
330
18
100
AcDbEntity
  8
0
100
AcDbText
 10
92.1803
 20
196.2423725
 30
0.0
 40
3.09234
  1
60
 50
90.0
 41
0.5
 72
     1
 11
92.1803
 21
197.402
 31
0.0
100
AcDbText
  0
TEXT
  5
3A
330
18
100
AcDbEntity
  8
0
100
AcDbText
 10
92.1803
 20
190.0783725
 30
0.0
 40
3.09234
  1
60
 50
90.0
 41
0.5
 72
     1
 11
92.1803
 21
191.2379999999999
 31
0.0
100
AcDbText
  0
TEXT
  5
3B
330
18
100
AcDbEntity
  8
0
100
AcDbText
 10
110.552
 20
174.5369825
 30
0.0
 40
3.09234
  1
410
 50
90.0
 41
0.5
 72
     1
 11
110.552
 21
176.212
 31
0.0
100
AcDbText
  0
LINE
  5
3C
330
18
100
AcDbEntity
  8
0
  6
AIGENLINE001
100
AcDbLine
 10
151.3829999999999
 20
97.6133
 30
0.0
 11
154.675
 21
97.10680000000001
 31
0.0
  0
LINE
  5
3D
330
18
100
AcDbEntity
  8
0
  6
AIGENLINE002
100
AcDbLine
 10
152.309
 20
96.4591
 30
0.0
 11
153.2969999999999
 21
96.30690000000001
 31
0.0
  0
LINE
  5
3E
330
18
100
AcDbEntity
  8
0
  6
AIGENLINE002
100
AcDbLine
 10
152.613
 20
98.43600000000002
 30
0.0
 11
153.601
 21
98.28369999999999
 31
0.0
  0
LINE
  5
3F
330
18
100
AcDbEntity
  8
0
  6
AIGENLINE002
100
AcDbLine
 10
163.9229999999999
 20
94.4472
 30
0.0
 11
163.9229999999999
 21
99.1477
 31
0.0
  0
LINE
  5
40
330
18
100
AcDbEntity
  8
0
  6
AIGENLINE002
100
AcDbLine
 10
163.622
 20
99.44740000000001
 30
0.0
 11
154.0379999999999
 21
99.44740000000001
 31
0.0
  0
ARC
  5
41
330
18
100
AcDbEntity
  8
0
  6
AIGENLINE002
100
AcDbCircle
 10
163.611703
 20
99.13630799999999
 30
0.0
 40
0.31132
100
AcDbArc
 50
2.100543
 51
88.03100999999999
  0
LINE
  5
42
330
18
100
AcDbEntity
  8
0
  6
AIGENLINE002
100
AcDbLine
 10
153.741
 20
99.1932
 30
0.0
 11
152.6829999999999
 21
92.3099
 31
0.0
  0
ARC
  5
43
330
18
100
AcDbEntity
  8
0
  6
AIGENLINE002
100
AcDbCircle
 10
154.0466209999999
 20
99.13774000000001
 30
0.0
 40
0.309821
100
AcDbArc
 50
91.57914100000001
 51
169.689226
  0
LINE
  5
44
330
18
100
AcDbEntity
  8
0
  6
AIGENLINE002
100
AcDbLine
 10
151.0529999999999
 20
88.29559999999998
 30
0.0
 11
152.7919999999999
 21
99.5997
 31
0.0
  0
LINE
  5
45
330
18
100
AcDbEntity
  8
0
  6
AIGENLINE002
100
AcDbLine
 10
149.422
 20
87.4474
 30
0.0
 11
150.0639999999999
 21
87.4474
 31
0.0
  0
ARC
  5
46
330
18
100
AcDbEntity
  8
0
  6
AIGENLINE002
100
AcDbCircle
 10
150.036082
 20
88.48091600000001
 30
0.0
 40
1.033895
100
AcDbArc
 50
271.5742009999999
 51
349.6744169999999
  0
LINE
  5
47
330
18
100
AcDbEntity
  8
0
100
AcDbLine
 10
164.322
 20
100.4469999999999
 30
0.0
 11
119.0229999999999
 21
100.4469999999999
 31
0.0
  0
ARC
  5
48
330
18
100
AcDbEntity
  8
0
  6
AIGENLINE002
100
AcDbCircle
 10
153.808771
 20
99.414411
 30
0.0
 40
1.033196
100
AcDbArc
 50
91.57415699999999
 51
169.667877
  0
LINE
  5
49
330
18
100
AcDbEntity
  8
0
  6
AIGENLINE002
100
AcDbLine
 10
148.7179999999999
 20
84.44740000000001
 30
0.0
 11
147.722
 21
84.44740000000001
 31
0.0
  0
LINE
  5
4A
330
18
100
AcDbEntity
  8
0
  6
AIGENLINE002
100
AcDbLine
 10
148.7179999999999
 20
83.44759999999999
 30
0.0
 11
147.722
 21
83.44759999999999
 31
0.0
  0
LINE
  5
5D
330
18
100
AcDbEntity
  8
0
100
AcDbLine
 10
162.712
 20
74.3711
 30
0.0
 11
164.923
 21
74.9637
 31
0.0
  0
LINE
  5
5E
330
18
100
AcDbEntity
  8
0
100
AcDbLine
 10
164.923
 20
74.9637
 30
0.0
 11
162.712
 21
75.55620000000001
 31
0.0
  0
LINE
  5
5F
330
18
100
AcDbEntity
  8
0
100
AcDbLine
 10
162.712
 20
75.55620000000001
 30
0.0
 11
162.712
 21
74.3711
 31
0.0
  0
LINE
  5
60
330
18
100
AcDbEntity
  8
0
100
AcDbLine
 10
147.6339999999999
 20
75.54179999999999
 30
0.0
 11
145.423
 21
74.9492
 31
0.0
  0
LINE
  5
61
330
18
100
AcDbEntity
  8
0
100
AcDbLine
 10
145.423
 20
74.9492
 30
0.0
 11
147.6339999999999
 21
74.3567
 31
0.0
  0
LINE
  5
62
330
18
100
AcDbEntity
  8
0
100
AcDbLine
 10
147.6339999999999
 20
74.3567
 30
0.0
 11
147.6339999999999
 21
75.54179999999999
 31
0.0
  0
LINE
  5
63
330
18
100
AcDbEntity
  8
0
100
AcDbLine
 10
164.923
 20
74.9492
 30
0.0
 11
145.423
 21
74.9492
 31
0.0
  0
LINE
  5
64
330
18
100
AcDbEntity
  8
0
100
AcDbLine
 10
164.923
 20
74.2492
 30
0.0
 11
164.923
 21
93.74720000000001
 31
0.0
  0
LINE
  5
65
330
18
100
AcDbEntity
  8
0
100
AcDbLine
 10
145.423
 20
74.2492
 30
0.0
 11
145.423
 21
79.8413
 31
0.0
  0
LINE
  5
66
330
18
100
AcDbEntity
  8
0
100
AcDbLine
 10
143.586
 20
98.2361
 30
0.0
 11
142.9929999999999
 21
100.4469999999999
 31
0.0
  0
LINE
  5
67
330
18
100
AcDbEntity
  8
0
100
AcDbLine
 10
142.9929999999999
 20
100.4469999999999
 30
0.0
 11
142.4
 21
98.2361
 31
0.0
  0
LINE
  5
68
330
18
100
AcDbEntity
  8
0
100
AcDbLine
 10
142.4
 20
98.2361
 30
0.0
 11
143.586
 21
98.2361
 31
0.0
  0
LINE
  5
69
330
18
100
AcDbEntity
  8
0
100
AcDbLine
 10
142.415
 20
89.65850000000001
 30
0.0
 11
143.0079999999999
 21
87.4474
 31
0.0
  0
LINE
  5
6A
330
18
100
AcDbEntity
  8
0
100
AcDbLine
 10
143.0079999999999
 20
87.4474
 30
0.0
 11
143.5999999999999
 21
89.65850000000001
 31
0.0
  0
LINE
  5
6B
330
18
100
AcDbEntity
  8
0
100
AcDbLine
 10
143.5999999999999
 20
89.65850000000001
 30
0.0
 11
142.415
 21
89.65850000000001
 31
0.0
  0
LINE
  5
6C
330
18
100
AcDbEntity
  8
0
100
AcDbLine
 10
142.9929999999999
 20
100.4469999999999
 30
0.0
 11
142.9929999999999
 21
87.4474
 31
0.0
  0
LINE
  5
6D
330
18
100
AcDbEntity
  8
0
  6
AIGENLINE002
100
AcDbLine
 10
149.422
 20
87.4474
 30
0.0
 11
141.423
 21
87.4474
 31
0.0
  0
LINE
  5
6E
330
18
100
AcDbEntity
  8
0
  6
AIGENLINE001
100
AcDbLine
 10
158.923
 20
98.69570000000001
 30
0.0
 11
158.923
 21
102.4029999999999
 31
0.0
  0
LINE
  5
6F
330
18
100
AcDbEntity
  8
0
100
AcDbLine
 10
152.3199999999999
 20
88.1047
 30
0.0
 11
153.4229999999999
 21
94.4472
 31
0.0
  0
LINE
  5
70
330
18
100
AcDbEntity
  8
0
100
AcDbLine
 10
150.349
 20
86.44759999999999
 30
0.0
 11
146.676
 21
86.44759999999999
 31
0.0
  0
ARC
  5
71
330
18
100
AcDbEntity
  8
0
100
AcDbCircle
 10
150.2941979999999
 20
88.51313299999999
 30
0.0
 40
2.066222999999999
100
AcDbArc
 50
271.521271
 51
348.600309
  0
LINE
  5
72
330
18
100
AcDbEntity
  8
0
100
AcDbLine
 10
150.9
 20
82.9474
 30
0.0
 11
149.8229999999999
 21
82.9474
 31
0.0
  0
LINE
  5
73
330
18
100
AcDbEntity
  8
0
100
AcDbLine
 10
149.4229999999999
 20
82.54710000000001
 30
0.0
 11
149.4229999999999
 21
82.44719999999999
 31
0.0
  0
ARC
  5
74
330
18
100
AcDbEntity
  8
0
100
AcDbCircle
 10
149.837995
 20
82.53243499999999
 30
0.0
 40
0.4152490000000001
100
AcDbArc
 50
92.11943000000001
 51
177.9792409999999
  0
LINE
  5
75
330
18
100
AcDbEntity
  8
0
100
AcDbLine
 10
153.8549999999999
 20
85.4334
 30
0.0
 11
155.4219999999999
 21
94.4472
 31
0.0
  0
ARC
  5
76
330
18
100
AcDbEntity
  8
0
100
AcDbCircle
 10
150.817257
 20
86.04476700000001
 30
0.0
 40
3.098460999999999
100
AcDbArc
 50
271.5225109999999
 51
348.620052
  0
LINE
  5
77
330
18
100
AcDbEntity
  8
0
  6
AIGENLINE002
100
AcDbLine
 10
124.5689999999999
 20
90.8181
 30
0.0
 11
141.423
 21
87.4474
 31
0.0
  0
LINE
  5
78
330
18
100
AcDbEntity
  8
0
  6
AIGENLINE002
100
AcDbLine
 10
123.787
 20
91.59260000000001
 30
0.0
 11
122.089
 21
99.6535
 31
0.0
  0
ARC
  5
79
330
18
100
AcDbEntity
  8
0
  6
AIGENLINE002
100
AcDbCircle
 10
124.786317
 20
91.82028499999999
 30
0.0
 40
1.025411
100
AcDbArc
 50
192.830376
 51
257.7780989999999
  0
ARC
  5
7A
330
18
100
AcDbEntity
  8
0
  6
AIGENLINE002
100
AcDbCircle
 10
121.0862749999999
 20
99.41681
 30
0.0
 40
1.030704999999999
100
AcDbArc
 50
13.27366199999999
 51
88.623726
  0
LINE
  5
7B
330
18
100
AcDbEntity
  8
0
100
AcDbLine
 10
141.423
 20
85.6146
 30
0.0
 11
141.423
 21
82.44719999999999
 31
0.0
  0
LINE
  5
7C
330
18
100
AcDbEntity
  8
0
100
AcDbLine
 10
140.6039999999999
 20
86.59780000000001
 30
0.0
 11
123.7249999999999
 21
89.70740000000001
 31
0.0
  0
ARC
  5
7D
330
18
100
AcDbEntity
  8
0
100
AcDbCircle
 10
140.390594
 20
85.587671
 30
0.0
 40
1.03251
100
AcDbArc
 50
1.494995999999999
 51
78.06082499999999
  0
LINE
  5
7E
330
18
100
AcDbEntity
  8
0
100
AcDbLine
 10
122.135
 20
91.2405
 30
0.0
 11
121.422
 21
94.4472
 31
0.0
  0
ARC
  5
7F
330
18
100
AcDbEntity
  8
0
100
AcDbCircle
 10
124.128061
 20
91.71664599999999
 30
0.0
 40
2.04923
100
AcDbArc
 50
193.4361039999999
 51
258.6618819999999
  0
LINE
  5
80
330
18
100
AcDbEntity
  8
0
  6
AIGENLINE002
100
AcDbLine
 10
143.123
 20
85.94739999999999
 30
0.0
 11
141.423
 21
87.4474
 31
0.0
  0
LINE
  5
81
330
18
100
AcDbEntity
  8
0
  6
AIGENLINE002
100
AcDbLine
 10
143.123
 20
85.94739999999999
 30
0.0
 11
143.123
 21
82.44719999999999
 31
0.0
  0
LINE
  5
82
330
18
100
AcDbEntity
  8
0
  6
AIGENLINE001
100
AcDbLine
 10
145.423
 20
102.58
 30
0.0
 11
145.423
 21
80.5413
 31
0.0
  0
LINE
  5
83
330
18
100
AcDbEntity
  8
0
  6
AIGENLINE002
100
AcDbLine
 10
147.722
 20
85.94739999999999
 30
0.0
 11
149.422
 21
87.4474
 31
0.0
  0
LINE
  5
84
330
18
100
AcDbEntity
  8
0
  6
AIGENLINE002
100
AcDbLine
 10
147.722
 20
83.44759999999999
 30
0.0
 11
147.722
 21
82.44719999999999
 31
0.0
  0
LINE
  5
85
330
18
100
AcDbEntity
  8
0
  6
AIGENLINE002
100
AcDbLine
 10
147.722
 20
85.94739999999999
 30
0.0
 11
147.722
 21
84.44740000000001
 31
0.0
  0
LINE
  5
86
330
18
100
AcDbEntity
  8
0
100
AcDbLine
 10
149.4229999999999
 20
82.44719999999999
 30
0.0
 11
141.423
 21
82.44719999999999
 31
0.0
  0
LINE
  5
87
330
18
100
AcDbEntity
  8
0
100
AcDbLine
 10
164.923
 20
94.4472
 30
0.0
 11
164.923
 21
99.8478
 31
0.0
  0
ARC
  5
88
330
18
100
AcDbEntity
  8
0
100
AcDbCircle
 10
164.300273
 20
99.82487800000001
 30
0.0
 40
0.622734
100
AcDbArc
 50
2.106413
 51
87.959396
  0
LINE
  5
89
330
18
100
AcDbEntity
  8
0
100
AcDbLine
 10
118.422
 20
99.8478
 30
0.0
 11
118.422
 21
94.4472
 31
0.0
  0
ARC
  5
8A
330
18
100
AcDbEntity
  8
0
100
AcDbCircle
 10
119.0453959999999
 20
99.82425500000001
 30
0.0
 40
0.623379
100
AcDbArc
 50
92.095678
 51
177.838472
  0
LINE
  5
8B
330
18
100
AcDbEntity
  8
0
100
AcDbLine
 10
164.923
 20
94.4472
 30
0.0
 11
118.422
 21
94.4472
 31
0.0
  0
LINE
  5
8C
330
18
100
AcDbEntity
  8
0
100
AcDbLine
 10
169.485
 20
195.2529999999999
 30
0.0
 11
170.629
 21
197.2359999999999
 31
0.0
  0
LINE
  5
8D
330
18
100
AcDbEntity
  8
0
100
AcDbLine
 10
170.629
 20
197.2359999999999
 30
0.0
 11
168.6459999999999
 21
196.0909999999999
 31
0.0
  0
LINE
  5
8E
330
18
100
AcDbEntity
  8
0
100
AcDbLine
 10
168.6459999999999
 20
196.0909999999999
 30
0.0
 11
169.485
 21
195.2529999999999
 31
0.0
  0
LINE
  5
8F
330
18
100
AcDbEntity
  8
0
100
AcDbLine
 10
165.4109999999999
 20
192.018
 30
0.0
 11
170.629
 21
197.2359999999999
 31
0.0
  0
LINE
  5
90
330
18
100
AcDbEntity
  8
0
100
AcDbLine
 10
159.8609999999999
 20
166.524
 30
0.0
 11
151.0389999999999
 21
166.524
 31
0.0
  0
LINE
  5
91
330
18
100
AcDbEntity
  8
0
100
AcDbLine
 10
148.2259999999999
 20
175.209
 30
0.0
 11
146.859
 21
177.0459999999999
 31
0.0
  0
LINE
  5
92
330
18
100
AcDbEntity
  8
0
100
AcDbLine
 10
146.859
 20
177.0459999999999
 30
0.0
 11
147.1239999999999
 21
174.772
 31
0.0
  0
LINE
  5
93
330
18
100
AcDbEntity
  8
0
100
AcDbLine
 10
147.1239999999999
 20
174.772
 30
0.0
 11
148.2259999999999
 21
175.209
 31
0.0
  0
LINE
  5
94
330
18
100
AcDbEntity
  8
0
100
AcDbLine
 10
146.859
 20
177.0459999999999
 30
0.0
 11
151.0389999999999
 21
166.524
 31
0.0
  0
LINE
  5
95
330
18
100
AcDbEntity
  8
0
100
AcDbLine
 10
112.0479999999999
 20
195.317
 30
0.0
 11
111.4549999999999
 21
197.529
 31
0.0
  0
LINE
  5
96
330
18
100
AcDbEntity
  8
0
100
AcDbLine
 10
111.4549999999999
 20
197.529
 30
0.0
 11
110.862
 21
195.317
 31
0.0
  0
LINE
  5
97
330
18
100
AcDbEntity
  8
0
100
AcDbLine
 10
110.862
 20
195.317
 30
0.0
 11
112.0479999999999
 21
195.317
 31
0.0
  0
LINE
  5
98
330
18
100
AcDbEntity
  8
0
100
AcDbLine
 10
110.877
 20
158.74
 30
0.0
 11
111.47
 21
156.528
 31
0.0
  0
LINE
  5
99
330
18
100
AcDbEntity
  8
0
100
AcDbLine
 10
111.47
 20
156.528
 30
0.0
 11
112.062
 21
158.74
 31
0.0
  0
LINE
  5
9A
330
18
100
AcDbEntity
  8
0
100
AcDbLine
 10
112.062
 20
158.74
 30
0.0
 11
110.877
 21
158.74
 31
0.0
  0
LINE
  5
9B
330
18
100
AcDbEntity
  8
0
100
AcDbLine
 10
111.4549999999999
 20
197.529
 30
0.0
 11
111.4549999999999
 21
156.528
 31
0.0
  0
LINE
  5
9C
330
18
100
AcDbEntity
  8
0
100
AcDbLine
 10
119.122
 20
156.528
 30
0.0
 11
110.755
 21
156.528
 31
0.0
  0
LINE
  5
9D
330
18
100
AcDbEntity
  8
0
100
AcDbLine
 10
119.122
 20
197.529
 30
0.0
 11
110.755
 21
197.529
 31
0.0
  0
LINE
  5
9E
330
18
100
AcDbEntity
  8
0
100
AcDbLine
 10
122.134
 20
209.5909999999999
 30
0.0
 11
119.922
 21
208.9979999999999
 31
0.0
  0
LINE
  5
9F
330
18
100
AcDbEntity
  8
0
100
AcDbLine
 10
119.922
 20
208.9979999999999
 30
0.0
 11
122.134
 21
208.406
 31
0.0
  0
LINE
  5
A0
330
18
100
AcDbEntity
  8
0
100
AcDbLine
 10
122.134
 20
208.406
 30
0.0
 11
122.134
 21
209.5909999999999
 31
0.0
  0
LINE
  5
A1
330
18
100
AcDbEntity
  8
0
100
AcDbLine
 10
168.7109999999999
 20
208.42
 30
0.0
 11
170.922
 21
209.013
 31
0.0
  0
LINE
  5
A2
330
18
100
AcDbEntity
  8
0
100
AcDbLine
 10
170.922
 20
209.013
 30
0.0
 11
168.7109999999999
 21
209.6049999999999
 31
0.0
  0
LINE
  5
A3
330
18
100
AcDbEntity
  8
0
100
AcDbLine
 10
168.7109999999999
 20
209.6049999999999
 30
0.0
 11
168.7109999999999
 21
208.42
 31
0.0
  0
LINE
  5
A4
330
18
100
AcDbEntity
  8
0
100
AcDbLine
 10
119.922
 20
208.9979999999999
 30
0.0
 11
170.922
 21
208.9979999999999
 31
0.0
  0
LINE
  5
A5
330
18
100
AcDbEntity
  8
0
100
AcDbLine
 10
170.922
 20
198.029
 30
0.0
 11
170.922
 21
209.6979999999999
 31
0.0
  0
LINE
  5
A6
330
18
100
AcDbEntity
  8
0
100
AcDbLine
 10
119.922
 20
198.029
 30
0.0
 11
119.922
 21
209.6979999999999
 31
0.0
  0
LINE
  5
A7
330
18
100
AcDbEntity
  8
0
  6
AIGENLINE001
100
AcDbLine
 10
153.305
 20
180.779
 30
0.0
 11
137.446
 21
180.779
 31
0.0
  0
ARC
  5
A8
330
18
100
AcDbEntity
  8
0
  6
AIGENLINE003
100
AcDbCircle
 10
145.422189
 20
180.778566
 30
0.0
 40
4.000125999999999
100
AcDbArc
 50
0.004945
 51
90.004915
  0
ARC
  5
A9
330
18
100
AcDbEntity
  8
0
  6
AIGENLINE003
100
AcDbCircle
 10
145.4218459999999
 20
180.7789099999999
 30
0.0
 40
3.999782
100
AcDbArc
 50
90.0
 51
179.9999699999999
  0
ARC
  5
AA
330
18
100
AcDbEntity
  8
0
  6
AIGENLINE003
100
AcDbCircle
 10
145.422016
 20
180.7787379999999
 30
0.0
 40
3.999953
100
AcDbArc
 50
179.9975029999999
 51
269.9975519999999
  0
ARC
  5
AB
330
18
100
AcDbEntity
  8
0
  6
AIGENLINE003
100
AcDbCircle
 10
145.422016
 20
180.779084
 30
0.0
 40
4.000299
100
AcDbArc
 50
269.9975529999999
 51
359.997523
  0
LINE
  5
AC
330
18
100
AcDbEntity
  8
0
  6
AIGENLINE001
100
AcDbLine
 10
145.422
 20
202.218
 30
0.0
 11
145.422
 21
152.756
 31
0.0
  0
LINE
  5
AD
330
18
100
AcDbEntity
  8
0
100
AcDbLine
 10
120.922
 20
156.528
 30
0.0
 11
169.9219999999999
 21
156.528
 31
0.0
  0
LINE
  5
AE
330
18
100
AcDbEntity
  8
0
100
AcDbLine
 10
119.922
 20
196.529
 30
0.0
 11
119.922
 21
157.529
 31
0.0
  0
ARC
  5
AF
330
18
100
AcDbEntity
  8
0
100
AcDbCircle
 10
120.9220659999999
 20
157.528676
 30
0.0
 40
1.000289999999999
100
AcDbArc
 50
180.0098769999999
 51
270.009887
  0
LINE
  5
B0
330
18
100
AcDbEntity
  8
0
100
AcDbLine
 10
170.922
 20
196.529
 30
0.0
 11
170.922
 21
157.529
 31
0.0
  0
ARC
  5
B1
330
18
100
AcDbEntity
  8
0
100
AcDbCircle
 10
169.883497
 20
157.56679
 30
0.0
 40
1.039121999999999
100
AcDbArc
 50
272.1312689999999
 51
357.888481
  0
LINE
  5
B2
330
18
100
AcDbEntity
  8
0
100
AcDbLine
 10
120.922
 20
197.529
 30
0.0
 11
169.9219999999999
 21
197.529
 31
0.0
  0
ARC
  5
B3
330
18
100
AcDbEntity
  8
0
100
AcDbCircle
 10
169.883511
 20
196.4903239999999
 30
0.0
 40
1.039120999999999
100
AcDbArc
 50
2.130487
 51
87.869503
  0
ARC
  5
B4
330
18
100
AcDbEntity
  8
0
100
AcDbCircle
 10
120.96084
 20
196.489636
 30
0.0
 40
1.039806999999999
100
AcDbArc
 50
92.127519
 51
177.8329779999999
  0
LINE
  5
B5
330
18
100
AcDbEntity
  8
0
  6
AIGENLINE002
100
AcDbLine
 10
48.61399999999999
 20
99.6535
 30
0.0
 11
50.3104
 21
91.5967
 31
0.0
  0
ARC
  5
B6
330
18
100
AcDbEntity
  8
0
  6
AIGENLINE002
100
AcDbCircle
 10
47.60949899999999
 20
99.41508499999999
 30
0.0
 40
1.032445999999999
100
AcDbArc
 50
13.349242
 51
88.587611
  0
LINE
  5
B7
330
18
100
AcDbEntity
  8
0
  6
AIGENLINE002
100
AcDbLine
 10
68.44689999999999
 20
87.4474
 30
0.0
 11
51.09799999999999
 21
90.82089999999999
 31
0.0
  0
ARC
  5
B8
330
18
100
AcDbEntity
  8
0
  6
AIGENLINE002
100
AcDbCircle
 10
51.311002
 20
91.825641
 30
0.0
 40
1.027104
100
AcDbArc
 50
192.8787889999999
 51
258.029877
  0
LINE
  5
B9
330
18
100
AcDbEntity
  8
0
  6
AIGENLINE002
100
AcDbLine
 10
72.4474
 20
87.4474
 30
0.0
 11
68.44689999999999
 21
87.4474
 31
0.0
  0
LINE
  5
BA
330
18
100
AcDbEntity
  8
0
  6
AIGENLINE002
100
AcDbLine
 10
70.14669999999999
 20
85.94739999999999
 30
0.0
 11
68.44689999999999
 21
87.4474
 31
0.0
  0
LINE
  5
BB
330
18
100
AcDbEntity
  8
0
  6
AIGENLINE002
100
AcDbLine
 10
70.14669999999999
 20
85.94739999999999
 30
0.0
 11
70.14669999999999
 21
82.44719999999999
 31
0.0
  0
LINE
  5
BC
330
18
100
AcDbEntity
  8
0
100
AcDbLine
 10
50.2567
 20
89.7122
 30
0.0
 11
67.62350000000001
 21
86.5951
 31
0.0
  0
LINE
  5
BD
330
18
100
AcDbEntity
  8
0
100
AcDbLine
 10
68.44689999999999
 20
85.6112
 30
0.0
 11
68.44689999999999
 21
82.44719999999999
 31
0.0
  0
ARC
  5
BE
330
18
100
AcDbEntity
  8
0
100
AcDbCircle
 10
67.414835
 20
85.58397600000001
 30
0.0
 40
1.032422999999999
100
AcDbArc
 50
1.508993999999999
 51
78.33852399999999
  0
LINE
  5
BF
330
18
100
AcDbEntity
  8
0
100
AcDbLine
 10
48.65809999999999
 20
91.2467
 30
0.0
 11
47.9464
 21
94.4472
 31
0.0
  0
ARC
  5
C0
330
18
100
AcDbEntity
  8
0
100
AcDbCircle
 10
50.65145
 20
91.72335799999999
 30
0.0
 40
2.049504999999999
100
AcDbArc
 50
193.44896
 51
258.894489
  0
LINE
  5
C1
330
18
100
AcDbEntity
  8
0
100
AcDbLine
 10
99.34750000000001
 20
100.4469999999999
 30
0.0
 11
45.5465
 21
100.4469999999999
 31
0.0
  0
LINE
  5
C2
330
18
100
AcDbEntity
  8
0
  6
AIGENLINE002
100
AcDbLine
 10
96.28
 20
99.6535
 30
0.0
 11
94.5836
 21
91.5967
 31
0.0
  0
ARC
  5
C3
330
18
100
AcDbEntity
  8
0
  6
AIGENLINE002
100
AcDbCircle
 10
97.28417100000001
 20
99.41557900000001
 30
0.0
 40
1.031959999999999
100
AcDbArc
 50
91.43004000000001
 51
166.672532
  0
LINE
  5
C4
330
18
100
AcDbEntity
  8
0
  6
AIGENLINE002
100
AcDbLine
 10
76.44719999999999
 20
87.4474
 30
0.0
 11
93.79609999999999
 21
90.82089999999999
 31
0.0
  0
ARC
  5
C5
330
18
100
AcDbEntity
  8
0
  6
AIGENLINE002
100
AcDbCircle
 10
93.58595300000001
 20
91.821806
 30
0.0
 40
1.022753
100
AcDbArc
 50
281.8556529999999
 51
347.285821
  0
LINE
  5
C6
330
18
100
AcDbEntity
  8
0
  6
AIGENLINE002
100
AcDbLine
 10
72.44670000000001
 20
87.4474
 30
0.0
 11
76.44719999999999
 21
87.4474
 31
0.0
  0
LINE
  5
C7
330
18
100
AcDbEntity
  8
0
  6
AIGENLINE001
100
AcDbLine
 10
72.44670000000001
 20
102.58
 30
0.0
 11
72.44670000000001
 21
80.5413
 31
0.0
  0
LINE
  5
C8
330
18
100
AcDbEntity
  8
0
  6
AIGENLINE002
100
AcDbLine
 10
74.7473
 20
85.94739999999999
 30
0.0
 11
76.44719999999999
 21
87.4474
 31
0.0
  0
LINE
  5
C9
330
18
100
AcDbEntity
  8
0
  6
AIGENLINE002
100
AcDbLine
 10
74.7473
 20
85.94739999999999
 30
0.0
 11
74.7473
 21
82.44719999999999
 31
0.0
  0
LINE
  5
CA
330
18
100
AcDbEntity
  8
0
100
AcDbLine
 10
94.63739999999999
 20
89.7122
 30
0.0
 11
77.2705
 21
86.5951
 31
0.0
  0
LINE
  5
CB
330
18
100
AcDbEntity
  8
0
100
AcDbLine
 10
76.44719999999999
 20
85.6112
 30
0.0
 11
76.44719999999999
 21
82.44719999999999
 31
0.0
  0
ARC
  5
CC
330
18
100
AcDbEntity
  8
0
100
AcDbCircle
 10
77.47907600000001
 20
85.58409499999999
 30
0.0
 40
1.032279
100
AcDbArc
 50
101.6550969999999
 51
178.497345
  0
LINE
  5
CD
330
18
100
AcDbEntity
  8
0
100
AcDbLine
 10
96.2359
 20
91.2467
 30
0.0
 11
96.947
 21
94.4472
 31
0.0
  0
ARC
  5
CE
330
18
100
AcDbEntity
  8
0
100
AcDbCircle
 10
94.241538
 20
91.724645
 30
0.0
 40
2.050841
100
AcDbArc
 50
281.108912
 51
346.5230079999999
  0
LINE
  5
CF
330
18
100
AcDbEntity
  8
0
100
AcDbLine
 10
31.8959
 20
100.4469999999999
 30
0.0
 11
44.21739999999999
 21
100.4469999999999
 31
0.0
  0
LINE
  5
D0
330
18
100
AcDbEntity
  8
0
100
AcDbLine
 10
67.74689999999999
 20
82.44719999999999
 30
0.0
 11
31.9104
 21
82.44719999999999
 31
0.0
  0
LINE
  5
D1
330
18
100
AcDbEntity
  8
0
100
AcDbLine
 10
32.01789999999999
 20
84.65889999999999
 30
0.0
 11
32.61039999999999
 21
82.44719999999999
 31
0.0
  0
LINE
  5
D2
330
18
100
AcDbEntity
  8
0
100
AcDbLine
 10
32.61039999999999
 20
82.44719999999999
 30
0.0
 11
33.203
 21
84.65889999999999
 31
0.0
  0
LINE
  5
D3
330
18
100
AcDbEntity
  8
0
100
AcDbLine
 10
33.203
 20
84.65889999999999
 30
0.0
 11
32.01789999999999
 21
84.65889999999999
 31
0.0
  0
LINE
  5
D4
330
18
100
AcDbEntity
  8
0
100
AcDbLine
 10
33.18849999999999
 20
98.2361
 30
0.0
 11
32.59599999999999
 21
100.4469999999999
 31
0.0
  0
LINE
  5
D5
330
18
100
AcDbEntity
  8
0
100
AcDbLine
 10
32.59599999999999
 20
100.4469999999999
 30
0.0
 11
32.0034
 21
98.2361
 31
0.0
  0
LINE
  5
D6
330
18
100
AcDbEntity
  8
0
100
AcDbLine
 10
32.0034
 20
98.2361
 30
0.0
 11
33.18849999999999
 21
98.2361
 31
0.0
  0
LINE
  5
D7
330
18
100
AcDbEntity
  8
0
100
AcDbLine
 10
32.59599999999999
 20
82.44719999999999
 30
0.0
 11
32.59599999999999
 21
100.4469999999999
 31
0.0
  0
LINE
  5
D8
330
18
100
AcDbEntity
  8
0
100
AcDbLine
 10
38.4215
 20
96.659
 30
0.0
 11
39.0141
 21
94.4472
 31
0.0
  0
LINE
  5
D9
330
18
100
AcDbEntity
  8
0
100
AcDbLine
 10
39.0141
 20
94.4472
 30
0.0
 11
39.6066
 21
96.659
 31
0.0
  0
LINE
  5
DA
330
18
100
AcDbEntity
  8
0
100
AcDbLine
 10
39.6066
 20
96.659
 30
0.0
 11
38.4215
 21
96.659
 31
0.0
  0
LINE
  5
DB
330
18
100
AcDbEntity
  8
0
100
AcDbLine
 10
39.5921
 20
98.2361
 30
0.0
 11
38.9996
 21
100.4469999999999
 31
0.0
  0
LINE
  5
DC
330
18
100
AcDbEntity
  8
0
100
AcDbLine
 10
38.9996
 20
100.4469999999999
 30
0.0
 11
38.407
 21
98.2361
 31
0.0
  0
LINE
  5
DD
330
18
100
AcDbEntity
  8
0
100
AcDbLine
 10
38.407
 20
98.2361
 30
0.0
 11
39.5921
 21
98.2361
 31
0.0
  0
LINE
  5
DE
330
18
100
AcDbEntity
  8
0
100
AcDbLine
 10
38.9996
 20
94.4472
 30
0.0
 11
38.9996
 21
100.4469999999999
 31
0.0
  0
LINE
  5
DF
330
18
100
AcDbEntity
  8
0
100
AcDbLine
 10
38.314
 20
94.4472
 30
0.0
 11
44.24629999999999
 21
94.4472
 31
0.0
  0
LINE
  5
E4
330
18
100
AcDbEntity
  8
0
  6
AIGENLINE001
100
AcDbLine
 10
75.4143
 20
97.4472
 30
0.0
 11
69.38469999999999
 21
97.4472
 31
0.0
  0
LINE
  5
E5
330
18
100
AcDbEntity
  8
0
100
AcDbLine
 10
76.44719999999999
 20
82.44719999999999
 30
0.0
 11
68.44689999999999
 21
82.44719999999999
 31
0.0
  0
LINE
  5
E6
330
18
100
AcDbEntity
  8
0
100
AcDbLine
 10
99.94700000000001
 20
94.4472
 30
0.0
 11
99.94700000000001
 21
99.8478
 31
0.0
  0
ARC
  5
E7
330
18
100
AcDbEntity
  8
0
100
AcDbCircle
 10
99.32469499999999
 20
99.824926
 30
0.0
 40
0.62271
100
AcDbArc
 50
2.102008999999999
 51
87.897981
  0
LINE
  5
E8
330
18
100
AcDbEntity
  8
0
100
AcDbLine
 10
44.94639999999999
 20
99.8478
 30
0.0
 11
44.94639999999999
 21
94.4472
 31
0.0
  0
ARC
  5
E9
330
18
100
AcDbEntity
  8
0
100
AcDbCircle
 10
45.569318
 20
99.82425
 30
0.0
 40
0.6233840000000001
100
AcDbArc
 50
92.09612299999998
 51
177.838028
  0
LINE
  5
EA
330
18
100
AcDbEntity
  8
0
100
AcDbLine
 10
99.94700000000001
 20
94.4472
 30
0.0
 11
44.94639999999999
 21
94.4472
 31
0.0
  0
LINE
  5
EB
330
18
100
AcDbEntity
  8
0
100
AcDbLine
 10
25.7295
 20
155.99
 30
0.0
 11
26.3221
 21
153.7779999999999
 31
0.0
  0
LINE
  5
EC
330
18
100
AcDbEntity
  8
0
100
AcDbLine
 10
26.3221
 20
153.7779999999999
 30
0.0
 11
26.9146
 21
155.99
 31
0.0
  0
LINE
  5
ED
330
18
100
AcDbEntity
  8
0
100
AcDbLine
 10
26.9146
 20
155.99
 30
0.0
 11
25.7295
 21
155.99
 31
0.0
  0
LINE
  5
EE
330
18
100
AcDbEntity
  8
0
100
AcDbLine
 10
26.9002
 20
198.067
 30
0.0
 11
26.3076
 21
200.279
 31
0.0
  0
LINE
  5
EF
330
18
100
AcDbEntity
  8
0
100
AcDbLine
 10
26.3076
 20
200.279
 30
0.0
 11
25.715
 21
198.067
 31
0.0
  0
LINE
  5
F0
330
18
100
AcDbEntity
  8
0
100
AcDbLine
 10
25.715
 20
198.067
 30
0.0
 11
26.9002
 21
198.067
 31
0.0
  0
LINE
  5
F1
330
18
100
AcDbEntity
  8
0
100
AcDbLine
 10
26.3076
 20
153.7779999999999
 30
0.0
 11
26.3076
 21
200.279
 31
0.0
  0
LINE
  5
F2
330
18
100
AcDbEntity
  8
0
100
AcDbLine
 10
25.6076
 20
200.279
 30
0.0
 11
44.68589999999999
 21
200.279
 31
0.0
  0
LINE
  5
F3
330
18
100
AcDbEntity
  8
0
100
AcDbLine
 10
25.6076
 20
153.7779999999999
 30
0.0
 11
44.247
 21
153.7779999999999
 31
0.0
  0
LINE
  5
F4
330
18
100
AcDbEntity
  8
0
100
AcDbLine
 10
32.2952
 20
190.4899999999999
 30
0.0
 11
32.8878
 21
188.279
 31
0.0
  0
LINE
  5
F5
330
18
100
AcDbEntity
  8
0
100
AcDbLine
 10
32.8878
 20
188.279
 30
0.0
 11
33.4803
 21
190.4899999999999
 31
0.0
  0
LINE
  5
F6
330
18
100
AcDbEntity
  8
0
100
AcDbLine
 10
33.4803
 20
190.4899999999999
 30
0.0
 11
32.2952
 21
190.4899999999999
 31
0.0
  0
LINE
  5
F7
330
18
100
AcDbEntity
  8
0
100
AcDbLine
 10
32.2952
 20
159.49
 30
0.0
 11
32.8878
 21
157.2789999999999
 31
0.0
  0
LINE
  5
F8
330
18
100
AcDbEntity
  8
0
100
AcDbLine
 10
32.8878
 20
157.2789999999999
 30
0.0
 11
33.4803
 21
159.49
 31
0.0
  0
LINE
  5
F9
330
18
100
AcDbEntity
  8
0
100
AcDbLine
 10
33.4803
 20
159.49
 30
0.0
 11
32.2952
 21
159.49
 31
0.0
  0
LINE
  5
FA
330
18
100
AcDbEntity
  8
0
100
AcDbLine
 10
33.46589999999999
 20
151.567
 30
0.0
 11
32.8733
 21
153.7779999999999
 31
0.0
  0
LINE
  5
FB
330
18
100
AcDbEntity
  8
0
100
AcDbLine
 10
32.8733
 20
153.7779999999999
 30
0.0
 11
32.2807
 21
151.567
 31
0.0
  0
LINE
  5
FC
330
18
100
AcDbEntity
  8
0
100
AcDbLine
 10
32.2807
 20
151.567
 30
0.0
 11
33.46589999999999
 21
151.567
 31
0.0
  0
LINE
  5
FD
330
18
100
AcDbEntity
  8
0
100
AcDbLine
 10
33.46589999999999
 20
198.067
 30
0.0
 11
32.8733
 21
200.279
 31
0.0
  0
LINE
  5
FE
330
18
100
AcDbEntity
  8
0
100
AcDbLine
 10
32.8733
 20
200.279
 30
0.0
 11
32.2807
 21
198.067
 31
0.0
  0
LINE
  5
FF
330
18
100
AcDbEntity
  8
0
100
AcDbLine
 10
32.2807
 20
198.067
 30
0.0
 11
33.46589999999999
 21
198.067
 31
0.0
  0
LINE
  5
100
330
18
100
AcDbEntity
  8
0
100
AcDbLine
 10
33.46589999999999
 20
186.067
 30
0.0
 11
32.8733
 21
188.279
 31
0.0
  0
LINE
  5
101
330
18
100
AcDbEntity
  8
0
100
AcDbLine
 10
32.8733
 20
188.279
 30
0.0
 11
32.2807
 21
186.067
 31
0.0
  0
LINE
  5
102
330
18
100
AcDbEntity
  8
0
100
AcDbLine
 10
32.2807
 20
186.067
 30
0.0
 11
33.46589999999999
 21
186.067
 31
0.0
  0
LINE
  5
103
330
18
100
AcDbEntity
  8
0
100
AcDbLine
 10
32.8733
 20
148.028
 30
0.0
 11
32.8733
 21
200.279
 31
0.0
  0
LINE
  5
104
330
18
100
AcDbEntity
  8
0
100
AcDbLine
 10
32.1733
 20
157.2789999999999
 30
0.0
 11
47.6756
 21
157.2789999999999
 31
0.0
  0
LINE
  5
105
330
18
100
AcDbEntity
  8
0
100
AcDbLine
 10
32.1733
 20
188.279
 30
0.0
 11
47.6756
 21
188.279
 31
0.0
  0
LINE
  5
106
330
18
100
AcDbEntity
  8
0
100
AcDbLine
 10
40.0784
 20
198.067
 30
0.0
 11
39.4859
 21
200.279
 31
0.0
  0
LINE
  5
107
330
18
100
AcDbEntity
  8
0
100
AcDbLine
 10
39.4859
 20
200.279
 30
0.0
 11
38.8933
 21
198.067
 31
0.0
  0
LINE
  5
108
330
18
100
AcDbEntity
  8
0
100
AcDbLine
 10
38.8933
 20
198.067
 30
0.0
 11
40.0784
 21
198.067
 31
0.0
  0
LINE
  5
109
330
18
100
AcDbEntity
  8
0
100
AcDbLine
 10
38.9078
 20
182.9909999999999
 30
0.0
 11
39.5003
 21
180.779
 31
0.0
  0
LINE
  5
10A
330
18
100
AcDbEntity
  8
0
100
AcDbLine
 10
39.5003
 20
180.779
 30
0.0
 11
40.0929
 21
182.9909999999999
 31
0.0
  0
LINE
  5
10B
330
18
100
AcDbEntity
  8
0
100
AcDbLine
 10
40.0929
 20
182.9909999999999
 30
0.0
 11
38.9078
 21
182.9909999999999
 31
0.0
  0
LINE
  5
10C
330
18
100
AcDbEntity
  8
0
100
AcDbLine
 10
39.4859
 20
200.279
 30
0.0
 11
39.4859
 21
180.779
 31
0.0
  0
LINE
  5
10D
330
18
100
AcDbEntity
  8
0
100
AcDbLine
 10
38.7858
 20
180.779
 30
0.0
 11
64.96179999999999
 21
180.779
 31
0.0
  0
LINE
  5
10E
330
18
100
AcDbEntity
  8
0
100
AcDbLine
 10
89.09310000000001
 20
183.257
 30
0.0
 11
83.4683
 21
183.257
 31
0.0
  0
LINE
  5
10F
330
18
100
AcDbEntity
  8
0
100
AcDbLine
 10
75.66679999999999
 20
191.896
 30
0.0
 11
73.6842
 21
193.041
 31
0.0
  0
LINE
  5
110
330
18
100
AcDbEntity
  8
0
100
AcDbLine
 10
73.6842
 20
193.041
 30
0.0
 11
74.82859999999999
 21
191.0579999999999
 31
0.0
  0
LINE
  5
111
330
18
100
AcDbEntity
  8
0
100
AcDbLine
 10
74.82859999999999
 20
191.0579999999999
 30
0.0
 11
75.66679999999999
 21
191.896
 31
0.0
  0
LINE
  5
112
330
18
100
AcDbEntity
  8
0
100
AcDbLine
 10
69.226
 20
196.6609999999999
 30
0.0
 11
71.209
 21
195.516
 31
0.0
  0
LINE
  5
113
330
18
100
AcDbEntity
  8
0
100
AcDbLine
 10
71.209
 20
195.516
 30
0.0
 11
70.0639
 21
197.499
 31
0.0
  0
LINE
  5
114
330
18
100
AcDbEntity
  8
0
100
AcDbLine
 10
70.0639
 20
197.499
 30
0.0
 11
69.226
 21
196.6609999999999
 31
0.0
  0
LINE
  5
115
330
18
100
AcDbEntity
  8
0
100
AcDbLine
 10
84.49049999999999
 20
174.36
 30
0.0
 11
78.8656
 21
174.36
 31
0.0
  0
LINE
  5
116
330
18
100
AcDbEntity
  8
0
100
AcDbLine
 10
76.0561
 20
178.0079999999999
 30
0.0
 11
74.0735
 21
179.152
 31
0.0
  0
LINE
  5
117
330
18
100
AcDbEntity
  8
0
100
AcDbLine
 10
74.0735
 20
179.152
 30
0.0
 11
75.2179
 21
177.169
 31
0.0
  0
LINE
  5
118
330
18
100
AcDbEntity
  8
0
100
AcDbLine
 10
75.2179
 20
177.169
 30
0.0
 11
76.0561
 21
178.0079999999999
 31
0.0
  0
LINE
  5
119
330
18
100
AcDbEntity
  8
0
100
AcDbLine
 10
68.83759999999999
 20
183.55
 30
0.0
 11
70.8206
 21
182.4049999999999
 31
0.0
  0
LINE
  5
11A
330
18
100
AcDbEntity
  8
0
100
AcDbLine
 10
70.8206
 20
182.4049999999999
 30
0.0
 11
69.67539999999999
 21
184.388
 31
0.0
  0
LINE
  5
11B
330
18
100
AcDbEntity
  8
0
100
AcDbLine
 10
69.67539999999999
 20
184.388
 30
0.0
 11
68.83759999999999
 21
183.55
 31
0.0
  0
LINE
  5
11C
330
18
100
AcDbEntity
  8
0
100
AcDbLine
 10
68.8681
 20
197.8569999999999
 30
0.0
 11
83.4683
 21
183.257
 31
0.0
  0
LINE
  5
11D
330
18
100
AcDbEntity
  8
0
100
AcDbLine
 10
67.5684
 20
185.6569999999999
 30
0.0
 11
78.8656
 21
174.36
 31
0.0
  0
LINE
  5
11E
330
18
100
AcDbEntity
  8
0
100
AcDbLine
 10
93.81299999999999
 20
192.067
 30
0.0
 11
93.22039999999999
 21
194.279
 31
0.0
  0
LINE
  5
11F
330
18
100
AcDbEntity
  8
0
100
AcDbLine
 10
93.22039999999999
 20
194.279
 30
0.0
 11
92.62779999999999
 21
192.067
 31
0.0
  0
LINE
  5
120
330
18
100
AcDbEntity
  8
0
100
AcDbLine
 10
92.62779999999999
 20
192.067
 30
0.0
 11
93.81299999999999
 21
192.067
 31
0.0
  0
LINE
  5
121
330
18
100
AcDbEntity
  8
0
100
AcDbLine
 10
93.81299999999999
 20
198.067
 30
0.0
 11
93.22039999999999
 21
200.279
 31
0.0
  0
LINE
  5
122
330
18
100
AcDbEntity
  8
0
100
AcDbLine
 10
93.22039999999999
 20
200.279
 30
0.0
 11
92.62779999999999
 21
198.067
 31
0.0
  0
LINE
  5
123
330
18
100
AcDbEntity
  8
0
100
AcDbLine
 10
92.62779999999999
 20
198.067
 30
0.0
 11
93.81299999999999
 21
198.067
 31
0.0
  0
LINE
  5
124
330
18
100
AcDbEntity
  8
0
100
AcDbLine
 10
92.64230000000001
 20
196.4909999999999
 30
0.0
 11
93.23489999999999
 21
194.279
 31
0.0
  0
LINE
  5
125
330
18
100
AcDbEntity
  8
0
100
AcDbLine
 10
93.23489999999999
 20
194.279
 30
0.0
 11
93.8274
 21
196.4909999999999
 31
0.0
  0
LINE
  5
126
330
18
100
AcDbEntity
  8
0
100
AcDbLine
 10
93.8274
 20
196.4909999999999
 30
0.0
 11
92.64230000000001
 21
196.4909999999999
 31
0.0
  0
LINE
  5
127
330
18
100
AcDbEntity
  8
0
100
AcDbLine
 10
92.64230000000001
 20
190.4909999999999
 30
0.0
 11
93.23489999999999
 21
188.279
 31
0.0
  0
LINE
  5
128
330
18
100
AcDbEntity
  8
0
100
AcDbLine
 10
93.23489999999999
 20
188.279
 30
0.0
 11
93.8274
 21
190.4909999999999
 31
0.0
  0
LINE
  5
129
330
18
100
AcDbEntity
  8
0
100
AcDbLine
 10
93.8274
 20
190.4909999999999
 30
0.0
 11
92.64230000000001
 21
190.4909999999999
 31
0.0
  0
LINE
  5
12A
330
18
100
AcDbEntity
  8
0
100
AcDbLine
 10
93.22039999999999
 20
200.279
 30
0.0
 11
93.22039999999999
 21
188.279
 31
0.0
  0
LINE
  5
12B
330
18
100
AcDbEntity
  8
0
100
AcDbLine
 10
93.92039999999999
 20
194.279
 30
0.0
 11
87.36270000000001
 21
194.279
 31
0.0
  0
LINE
  5
12C
330
18
100
AcDbEntity
  8
0
100
AcDbLine
 10
74.6584
 20
209.5909999999999
 30
0.0
 11
72.44670000000001
 21
208.9979999999999
 31
0.0
  0
LINE
  5
12D
330
18
100
AcDbEntity
  8
0
100
AcDbLine
 10
72.44670000000001
 20
208.9979999999999
 30
0.0
 11
74.6584
 21
208.406
 31
0.0
  0
LINE
  5
12E
330
18
100
AcDbEntity
  8
0
100
AcDbLine
 10
74.6584
 20
208.406
 30
0.0
 11
74.6584
 21
209.5909999999999
 31
0.0
  0
LINE
  5
12F
330
18
100
AcDbEntity
  8
0
100
AcDbLine
 10
80.2354
 20
208.42
 30
0.0
 11
82.44719999999999
 21
209.013
 31
0.0
  0
LINE
  5
130
330
18
100
AcDbEntity
  8
0
100
AcDbLine
 10
82.44719999999999
 20
209.013
 30
0.0
 11
80.2354
 21
209.6049999999999
 31
0.0
  0
LINE
  5
131
330
18
100
AcDbEntity
  8
0
100
AcDbLine
 10
80.2354
 20
209.6049999999999
 30
0.0
 11
80.2354
 21
208.42
 31
0.0
  0
LINE
  5
132
330
18
100
AcDbEntity
  8
0
100
AcDbLine
 10
72.44670000000001
 20
208.9979999999999
 30
0.0
 11
82.44719999999999
 21
208.9979999999999
 31
0.0
  0
LINE
  5
133
330
18
100
AcDbEntity
  8
0
100
AcDbLine
 10
64.6583
 20
209.5909999999999
 30
0.0
 11
62.4469
 21
208.9979999999999
 31
0.0
  0
LINE
  5
134
330
18
100
AcDbEntity
  8
0
100
AcDbLine
 10
62.4469
 20
208.9979999999999
 30
0.0
 11
64.6583
 21
208.406
 31
0.0
  0
LINE
  5
135
330
18
100
AcDbEntity
  8
0
100
AcDbLine
 10
64.6583
 20
208.406
 30
0.0
 11
64.6583
 21
209.5909999999999
 31
0.0
  0
LINE
  5
136
330
18
100
AcDbEntity
  8
0
100
AcDbLine
 10
70.2353
 20
208.42
 30
0.0
 11
72.44670000000001
 21
209.013
 31
0.0
  0
LINE
  5
137
330
18
100
AcDbEntity
  8
0
100
AcDbLine
 10
72.44670000000001
 20
209.013
 30
0.0
 11
70.2353
 21
209.6049999999999
 31
0.0
  0
LINE
  5
138
330
18
100
AcDbEntity
  8
0
100
AcDbLine
 10
70.2353
 20
209.6049999999999
 30
0.0
 11
70.2353
 21
208.42
 31
0.0
  0
LINE
  5
139
330
18
100
AcDbEntity
  8
0
100
AcDbLine
 10
62.4469
 20
208.9979999999999
 30
0.0
 11
72.44670000000001
 21
208.9979999999999
 31
0.0
  0
LINE
  5
13A
330
18
100
AcDbEntity
  8
0
100
AcDbLine
 10
72.44670000000001
 20
204.3359999999999
 30
0.0
 11
72.44670000000001
 21
209.6979999999999
 31
0.0
  0
LINE
  5
13B
330
18
100
AcDbEntity
  8
0
100
AcDbLine
 10
82.44719999999999
 20
198.907
 30
0.0
 11
82.44719999999999
 21
209.6979999999999
 31
0.0
  0
LINE
  5
13C
330
18
100
AcDbEntity
  8
0
100
AcDbLine
 10
62.4469
 20
198.907
 30
0.0
 11
62.4469
 21
209.6979999999999
 31
0.0
  0
LINE
  5
13D
330
18
100
AcDbEntity
  8
0
100
AcDbLine
 10
97.73560000000001
 20
134.985
 30
0.0
 11
99.94700000000001
 21
135.5769999999999
 31
0.0
  0
LINE
  5
13E
330
18
100
AcDbEntity
  8
0
100
AcDbLine
 10
99.94700000000001
 20
135.5769999999999
 30
0.0
 11
97.73560000000001
 21
136.1699999999999
 31
0.0
  0
LINE
  5
13F
330
18
100
AcDbEntity
  8
0
100
AcDbLine
 10
97.73560000000001
 20
136.1699999999999
 30
0.0
 11
97.73560000000001
 21
134.985
 31
0.0
  0
LINE
  5
140
330
18
100
AcDbEntity
  8
0
100
AcDbLine
 10
47.1581
 20
136.155
 30
0.0
 11
44.94639999999999
 21
135.5629999999999
 31
0.0
  0
LINE
  5
141
330
18
100
AcDbEntity
  8
0
100
AcDbLine
 10
44.94639999999999
 20
135.5629999999999
 30
0.0
 11
47.1581
 21
134.97
 31
0.0
  0
LINE
  5
142
330
18
100
AcDbEntity
  8
0
100
AcDbLine
 10
47.1581
 20
134.97
 30
0.0
 11
47.1581
 21
136.155
 31
0.0
  0
LINE
  5
143
330
18
100
AcDbEntity
  8
0
100
AcDbLine
 10
99.94700000000001
 20
135.5629999999999
 30
0.0
 11
44.94639999999999
 21
135.5629999999999
 31
0.0
  0
LINE
  5
144
330
18
100
AcDbEntity
  8
0
100
AcDbLine
 10
44.94639999999999
 20
153.405
 30
0.0
 11
44.94639999999999
 21
134.8629999999999
 31
0.0
  0
LINE
  5
145
330
18
100
AcDbEntity
  8
0
100
AcDbLine
 10
99.94700000000001
 20
153.405
 30
0.0
 11
99.94700000000001
 21
134.8629999999999
 31
0.0
  0
LINE
  5
146
330
18
100
AcDbEntity
  8
0
100
AcDbLine
 10
94.23569999999999
 20
142.9529999999999
 30
0.0
 11
96.4474
 21
143.5459999999999
 31
0.0
  0
LINE
  5
147
330
18
100
AcDbEntity
  8
0
100
AcDbLine
 10
96.4474
 20
143.5459999999999
 30
0.0
 11
94.23569999999999
 21
144.138
 31
0.0
  0
LINE
  5
148
330
18
100
AcDbEntity
  8
0
100
AcDbLine
 10
94.23569999999999
 20
144.138
 30
0.0
 11
94.23569999999999
 21
142.9529999999999
 31
0.0
  0
LINE
  5
149
330
18
100
AcDbEntity
  8
0
100
AcDbLine
 10
50.6584
 20
144.124
 30
0.0
 11
48.4466
 21
143.531
 31
0.0
  0
LINE
  5
14A
330
18
100
AcDbEntity
  8
0
100
AcDbLine
 10
48.4466
 20
143.531
 30
0.0
 11
50.6584
 21
142.9389999999999
 31
0.0
  0
LINE
  5
14B
330
18
100
AcDbEntity
  8
0
100
AcDbLine
 10
50.6584
 20
142.9389999999999
 30
0.0
 11
50.6584
 21
144.124
 31
0.0
  0
LINE
  5
14C
330
18
100
AcDbEntity
  8
0
100
AcDbLine
 10
96.4474
 20
143.531
 30
0.0
 11
48.4466
 21
143.531
 31
0.0
  0
LINE
  5
14D
330
18
100
AcDbEntity
  8
0
100
AcDbLine
 10
48.4466
 20
156.8629999999999
 30
0.0
 11
48.4466
 21
142.831
 31
0.0
  0
LINE
  5
14E
330
18
100
AcDbEntity
  8
0
100
AcDbLine
 10
96.44670000000001
 20
156.8629999999999
 30
0.0
 11
96.44670000000001
 21
142.832
 31
0.0
  0
LINE
  5
14F
330
18
100
AcDbEntity
  8
0
  6
AIGENLINE001
100
AcDbLine
 10
86.66259999999999
 20
194.279
 30
0.0
 11
78.51899999999999
 21
194.279
 31
0.0
  0
ARC
  5
150
330
18
100
AcDbEntity
  8
0
  6
AIGENLINE002
100
AcDbCircle
 10
82.446996
 20
194.27912
 30
0.0
 40
1.749602999999999
100
AcDbArc
 50
359.9943689999999
 51
89.99433899999999
  0
ARC
  5
151
330
18
100
AcDbEntity
  8
0
  6
AIGENLINE002
100
AcDbCircle
 10
82.446996
 20
194.2787749999999
 30
0.0
 40
1.749948
100
AcDbArc
 50
89.99436000000001
 51
179.9943299999999
  0
ARC
  5
152
330
18
100
AcDbEntity
  8
0
  6
AIGENLINE002
100
AcDbCircle
 10
82.447168
 20
194.2789469999999
 30
0.0
 40
1.750118999999999
100
AcDbArc
 50
179.9999699999999
 51
270.00002
  0
ARC
  5
153
330
18
100
AcDbEntity
  8
0
  6
AIGENLINE002
100
AcDbCircle
 10
82.446824
 20
194.278603
 30
0.0
 40
1.749775
100
AcDbArc
 50
270.0113009999999
 51
0.011271
  0
LINE
  5
154
330
18
100
AcDbEntity
  8
0
  6
AIGENLINE001
100
AcDbLine
 10
82.44719999999999
 20
198.207
 30
0.0
 11
82.44719999999999
 21
190.2069999999999
 31
0.0
  0
LINE
  5
155
330
18
100
AcDbEntity
  8
0
  6
AIGENLINE001
100
AcDbLine
 10
66.6623
 20
194.279
 30
0.0
 11
58.5195
 21
194.279
 31
0.0
  0
ARC
  5
156
330
18
100
AcDbEntity
  8
0
  6
AIGENLINE002
100
AcDbCircle
 10
62.44705699999999
 20
194.2787749999999
 30
0.0
 40
1.749948
100
AcDbArc
 50
0.00565
 51
90.00562
  0
ARC
  5
157
330
18
100
AcDbEntity
  8
0
  6
AIGENLINE002
100
AcDbCircle
 10
62.446713
 20
194.2787749999999
 30
0.0
 40
1.749948
100
AcDbArc
 50
89.99436000000001
 51
179.9943299999999
  0
ARC
  5
158
330
18
100
AcDbEntity
  8
0
  6
AIGENLINE002
100
AcDbCircle
 10
62.446884
 20
194.2789469999999
 30
0.0
 40
1.750118999999999
100
AcDbArc
 50
179.9999699999999
 51
270.00002
  0
ARC
  5
159
330
18
100
AcDbEntity
  8
0
  6
AIGENLINE002
100
AcDbCircle
 10
62.446884
 20
194.2789479999999
 30
0.0
 40
1.75012
100
AcDbArc
 50
270.00002
 51
359.9999899999999
  0
LINE
  5
15A
330
18
100
AcDbEntity
  8
0
  6
AIGENLINE001
100
AcDbLine
 10
62.4469
 20
198.207
 30
0.0
 11
62.4469
 21
190.2069999999999
 31
0.0
  0
LINE
  5
15B
330
18
100
AcDbEntity
  8
0
  6
AIGENLINE001
100
AcDbLine
 10
76.66209999999999
 20
194.279
 30
0.0
 11
68.51919999999999
 21
194.279
 31
0.0
  0
LINE
  5
160
330
18
100
AcDbEntity
  8
0
  6
AIGENLINE001
100
AcDbLine
 10
79.8055
 20
180.779
 30
0.0
 11
65.6619
 21
180.779
 31
0.0
  0
LINE
  5
169
330
18
100
AcDbEntity
  8
0
  6
AIGENLINE001
100
AcDbLine
 10
72.44670000000001
 20
203.636
 30
0.0
 11
72.44670000000001
 21
150.6339999999999
 31
0.0
  0
LINE
  5
16A
330
18
100
AcDbEntity
  8
0
100
AcDbLine
 10
46.44639999999999
 20
153.7779999999999
 30
0.0
 11
98.44700000000001
 21
153.7779999999999
 31
0.0
  0
LINE
  5
16B
330
18
100
AcDbEntity
  8
0
100
AcDbLine
 10
44.94639999999999
 20
198.779
 30
0.0
 11
44.94639999999999
 21
155.278
 31
0.0
  0
ARC
  5
16C
330
18
100
AcDbEntity
  8
0
100
AcDbCircle
 10
46.503949
 20
155.3360649999999
 30
0.0
 40
1.558634999999999
100
AcDbArc
 50
182.116686
 51
267.883343
  0
LINE
  5
16D
330
18
100
AcDbEntity
  8
0
100
AcDbLine
 10
99.94700000000001
 20
198.779
 30
0.0
 11
99.94700000000001
 21
155.278
 31
0.0
  0
ARC
  5
16E
330
18
100
AcDbEntity
  8
0
100
AcDbCircle
 10
98.38980600000001
 20
155.3356729999999
 30
0.0
 40
1.558229
100
AcDbArc
 50
272.102817
 51
357.897193
  0
LINE
  5
16F
330
18
100
AcDbEntity
  8
0
100
AcDbLine
 10
46.44639999999999
 20
200.279
 30
0.0
 11
98.44700000000001
 21
200.279
 31
0.0
  0
ARC
  5
170
330
18
100
AcDbEntity
  8
0
100
AcDbCircle
 10
98.38980600000001
 20
198.721784
 30
0.0
 40
1.558229
100
AcDbArc
 50
2.102806999999999
 51
87.897183
  0
ARC
  5
171
330
18
100
AcDbEntity
  8
0
100
AcDbCircle
 10
46.50433699999999
 20
198.721005
 30
0.0
 40
1.559037
100
AcDbArc
 50
92.13037000000001
 51
177.869601
  0
LINE
  5
172
330
18
100
AcDbEntity
  8
0
100
AcDbLine
 10
50.4469
 20
157.2789999999999
 30
0.0
 11
94.4472
 21
157.2789999999999
 31
0.0
  0
LINE
  5
173
330
18
100
AcDbEntity
  8
0
100
AcDbLine
 10
48.4466
 20
186.279
 30
0.0
 11
48.4466
 21
159.2789999999999
 31
0.0
  0
ARC
  5
174
330
18
100
AcDbEntity
  8
0
100
AcDbCircle
 10
50.44668
 20
159.2787949999999
 30
0.0
 40
2.000061999999999
100
AcDbArc
 50
180.0049449999999
 51
270.004954
  0
LINE
  5
175
330
18
100
AcDbEntity
  8
0
100
AcDbLine
 10
96.44670000000001
 20
186.279
 30
0.0
 11
96.44670000000001
 21
159.2789999999999
 31
0.0
  0
ARC
  5
176
330
18
100
AcDbEntity
  8
0
100
AcDbCircle
 10
94.370711
 20
159.354755
 30
0.0
 40
2.077431
100
AcDbArc
 50
272.110076
 51
357.8998049999999
  0
LINE
  5
177
330
18
100
AcDbEntity
  8
0
100
AcDbLine
 10
50.4469
 20
188.279
 30
0.0
 11
94.4472
 21
188.279
 31
0.0
  0
ARC
  5
178
330
18
100
AcDbEntity
  8
0
100
AcDbCircle
 10
94.370048
 20
186.202259
 30
0.0
 40
2.078104999999999
100
AcDbArc
 50
2.107934
 51
87.872316
  0
ARC
  5
179
330
18
100
AcDbEntity
  8
0
100
AcDbCircle
 10
50.44685199999999
 20
186.278696
 30
0.0
 40
2.000234999999999
100
AcDbArc
 50
90.0
 51
179.9999699999999
  0
LINE
  5
17A
330
18
100
AcDbEntity
  8
_________2
100
AcDbLine
 10
205.301
 20
127.411
 30
0.0
 11
183.55
 21
127.411
 31
0.0
  0
LINE
  5
17B
330
18
100
AcDbEntity
  8
_________2
100
AcDbLine
 10
100.2999999999999
 20
-4.09108
 30
0.0
 11
100.2999999999999
 21
-21.0714
 31
0.0
  0
LINE
  5
17C
330
18
100
AcDbEntity
  8
_________2
100
AcDbLine
 10
100.2999999999999
 20
275.9309999999999
 30
0.0
 11
100.2999999999999
 21
258.911
 31
0.0
  0
LINE
  5
17D
330
18
100
AcDbEntity
  8
_________2
100
AcDbLine
 10
17.0495
 20
127.411
 30
0.0
 11
-4.70052
 21
127.411
 31
0.0
  0
LINE
  5
17E
330
18
100
AcDbEntity
  8
_________2
100
AcDbLine
 10
76.741
 20
29.8047
 30
0.0
 11
74.5547
 21
29.8047
 31
0.0
  0
LINE
  5
17F
330
18
100
AcDbEntity
  8
_________2
100
AcDbLine
 10
77.2337
 20
29.8047
 30
0.0
 11
76.9815
 21
29.8047
 31
0.0
  0
LINE
  5
180
330
18
100
AcDbEntity
  8
_________2
100
AcDbLine
 10
77.72629999999999
 20
29.8047
 30
0.0
 11
80.6512
 21
29.8047
 31
0.0
  0
LINE
  5
181
330
18
100
AcDbEntity
  8
_________2
100
AcDbLine
 10
77.2337
 20
29.8047
 30
0.0
 11
77.4855
 21
29.8047
 31
0.0
  0
LINE
  5
182
330
18
100
AcDbEntity
  8
_________2
100
AcDbLine
 10
70.8371
 20
29.8047
 30
0.0
 11
68.6505
 21
29.8047
 31
0.0
  0
LINE
  5
183
330
18
100
AcDbEntity
  8
_________2
100
AcDbLine
 10
71.32940000000001
 20
29.8047
 30
0.0
 11
71.0776
 21
29.8047
 31
0.0
  0
LINE
  5
184
330
18
100
AcDbEntity
  8
_________2
100
AcDbLine
 10
71.32940000000001
 20
30.2974
 30
0.0
 11
71.32940000000001
 21
32.4844
 31
0.0
  0
LINE
  5
185
330
18
100
AcDbEntity
  8
_________2
100
AcDbLine
 10
71.32940000000001
 20
29.8047
 30
0.0
 11
71.32940000000001
 21
30.05689999999999
 31
0.0
  0
LINE
  5
186
330
18
100
AcDbEntity
  8
_________2
100
AcDbLine
 10
71.82210000000001
 20
29.8047
 30
0.0
 11
74.009
 21
29.8047
 31
0.0
  0
LINE
  5
187
330
18
100
AcDbEntity
  8
_________2
100
AcDbLine
 10
71.32940000000001
 20
29.8047
 30
0.0
 11
71.58159999999999
 21
29.8047
 31
0.0
  0
LINE
  5
188
330
18
100
AcDbEntity
  8
_________2
100
AcDbLine
 10
71.32940000000001
 20
29.3128
 30
0.0
 11
71.32940000000001
 21
27.1258
 31
0.0
  0
LINE
  5
189
330
18
100
AcDbEntity
  8
_________2
100
AcDbLine
 10
71.32940000000001
 20
29.8047
 30
0.0
 11
71.32940000000001
 21
29.5532
 31
0.0
  0
LINE
  5
18A
330
18
100
AcDbEntity
  8
_________2
100
AcDbLine
 10
75.04049999999999
 20
28.5852
 30
0.0
 11
80.2185
 21
27.7204
 31
0.0
  0
LINE
  5
18B
330
18
100
AcDbEntity
  8
_________2
100
AcDbLine
 10
75.04049999999999
 20
31.0243
 30
0.0
 11
80.2185
 21
31.8897
 31
0.0
  0
LINE
  5
18C
330
18
100
AcDbEntity
  8
_________2
100
AcDbLine
 10
80.2185
 20
27.7204
 30
0.0
 11
80.2185
 21
31.8897
 31
0.0
  0
LINE
  5
18D
330
18
100
AcDbEntity
  8
_________2
100
AcDbLine
 10
75.04049999999999
 20
28.5852
 30
0.0
 11
75.04049999999999
 21
31.0243
 31
0.0
  0
ARC
  5
18E
330
18
100
AcDbEntity
  8
_________2
100
AcDbCircle
 10
71.28285600000001
 20
29.757811
 30
0.0
 40
1.267359
100
AcDbArc
 50
2.122214
 51
87.893959
  0
ARC
  5
18F
330
18
100
AcDbEntity
  8
_________2
100
AcDbCircle
 10
71.37595999999999
 20
29.758213
 30
0.0
 40
1.266955999999999
100
AcDbArc
 50
92.104701
 51
177.8952689999999
  0
ARC
  5
190
330
18
100
AcDbEntity
  8
_________2
100
AcDbCircle
 10
71.37635799999999
 20
29.851671
 30
0.0
 40
1.267368
100
AcDbArc
 50
182.122036
 51
267.877993
  0
ARC
  5
191
330
18
100
AcDbEntity
  8
_________2
100
AcDbCircle
 10
71.28253199999999
 20
29.85199899999999
 30
0.0
 40
1.267695999999999
100
AcDbArc
 50
272.120153
 51
357.863674
  0
ARC
  5
192
330
18
100
AcDbEntity
  8
_________2
100
AcDbCircle
 10
71.32943
 20
29.804743
 30
0.0
 40
2.084984999999999
100
AcDbArc
 50
0.00001
 51
89.99998000000001
  0
ARC
  5
193
330
18
100
AcDbEntity
  8
_________2
100
AcDbCircle
 10
71.329603
 20
29.804915
 30
0.0
 40
2.084813
100
AcDbArc
 50
90.004734
 51
180.004744
  0
ARC
  5
194
330
18
100
AcDbEntity
  8
_________2
100
AcDbCircle
 10
71.40910600000001
 20
29.884776
 30
0.0
 40
2.165795
100
AcDbArc
 50
182.117766
 51
267.891734
  0
ARC
  5
195
330
18
100
AcDbEntity
  8
_________2
100
AcDbCircle
 10
71.249459
 20
29.88542999999999
 30
0.0
 40
2.166459
100
AcDbArc
 50
272.115468
 51
357.865604
  0
TEXT
  5
196
330
18
100
AcDbEntity
  8
_________2
100
AcDbText
 10
104.605
 20
1.67949
 30
0.0
 40
3.09234
  1
図番
 41
0.5
100
AcDbText
  0
LINE
  5
197
330
18
100
AcDbEntity
  8
_________2
100
AcDbLine
 10
103.55
 20
5.908719999999999
 30
0.0
 11
183.551
 21
5.908719999999999
 31
0.0
  0
TEXT
  5
198
330
18
100
AcDbEntity
  8
_________2
100
AcDbText
 10
104.605
 20
11.67929999999999
 30
0.0
 40
3.09234
  1
品番
 41
0.5
100
AcDbText
  0
TEXT
  5
199
330
18
100
AcDbEntity
  8
_________2
100
AcDbText
 10
104.605
 20
31.8181
 30
0.0
 40
3.09234
  1
名称
 41
0.5
100
AcDbText
  0
TEXT
  5
19A
330
18
100
AcDbEntity
  8
_________2
100
AcDbText
 10
91.84505833333334
 20
26.82199999999999
 30
0.0
 40
3.65458
  1
mm
 41
0.5
 72
     1
 11
93.3678
 21
26.82199999999999
 31
0.0
100
AcDbText
  0
TEXT
  5
19B
330
18
100
AcDbEntity
  8
_________2
100
AcDbText
 10
85.6432
 20
31.8181
 30
0.0
 40
3.09234
  1
単位
 41
0.5
100
AcDbText
  0
TEXT
  5
19C
330
18
100
AcDbEntity
  8
_________2
100
AcDbText
 10
85.6432
 20
19.41079999999999
 30
0.0
 40
3.09234
  1
尺度
 41
0.5
100
AcDbText
  0
TEXT
  5
19D
330
18
100
AcDbEntity
  8
_________2
100
AcDbText
 10
90.09193616666667
 20
13.2179
 30
0.0
 40
3.65458
  1
1 ： 10
 41
0.5
 72
     1
 11
93.9597
 21
13.2179
 31
0.0
100
AcDbText
  0
TEXT
  5
19E
330
18
100
AcDbEntity
  8
_________2
100
AcDbText
 10
133.5467624999999
 20
9.10786
 30
0.0
 40
3.9357
  1
DV031555-00
 41
0.5
 72
     1
 11
143.55
 21
9.10786
 31
0.0
100
AcDbText
  0
TEXT
  5
19F
330
18
100
AcDbEntity
  8
_________2
100
AcDbText
 10
136.1705625
 20
-0.8926299999999999
 30
0.0
 40
3.9357
  1
DV031555
 41
0.5
 72
     1
 11
143.55
 21
-0.8926299999999999
 31
0.0
100
AcDbText
  0
TEXT
  5
1A0
330
18
100
AcDbEntity
  8
_________2
100
AcDbText
 10
24.5868
 20
0.707283
 30
0.0
 40
3.9357
  1
実容量：9L、重量：13kg、オーバーフロー付
 41
0.5
100
AcDbText
  0
TEXT
  5
1A1
330
18
100
AcDbEntity
  8
_________2
100
AcDbText
 10
109.179
 20
24.2257
 30
0.0
 40
3.9357
  1
ヴェーロ　洗面器
 41
0.5
100
AcDbText
  0
TEXT
  5
1A2
330
18
100
AcDbEntity
  8
_________2
100
AcDbText
 10
39.30348099999999
 20
13.603
 30
0.0
 40
3.65458
  1
田尻
 41
0.5
 72
     1
 11
41.3135
 21
13.603
 31
0.0
100
AcDbText
  0
TEXT
  5
1A3
330
18
100
AcDbEntity
  8
_________2
100
AcDbText
 10
20.79009066666666
 20
13.603
 30
0.0
 40
3.65458
  1
石原
 41
0.5
 72
     1
 11
22.73919999999999
 21
13.603
 31
0.0
100
AcDbText
  0
TEXT
  5
1A4
330
18
100
AcDbEntity
  8
_________2
100
AcDbText
 10
67.78539999999999
 20
13.2179
 30
0.0
 40
3.65458
  1
09.09.11
 41
0.5
100
AcDbText
  0
TEXT
  5
1A5
330
18
100
AcDbEntity
  8
_________2
100
AcDbText
 10
66.59310000000001
 20
19.41079999999999
 30
0.0
 40
3.09234
  1
日付
 41
0.5
100
AcDbText
  0
TEXT
  5
1A6
330
18
100
AcDbEntity
  8
_________2
100
AcDbText
 10
29.6394
 20
19.41079999999999
 30
0.0
 40
3.09234
  1
検図
 41
0.5
100
AcDbText
  0
TEXT
  5
1A7
330
18
100
AcDbEntity
  8
_________2
100
AcDbText
 10
18.0211
 20
5.21143
 30
0.0
 40
3.09234
  1
備考
 41
0.5
100
AcDbText
  0
TEXT
  5
1A8
330
18
100
AcDbEntity
  8
_________2
100
AcDbText
 10
18.0211
 20
19.41079999999999
 30
0.0
 40
3.09234
  1
製図
 41
0.5
100
AcDbText
  0
TEXT
  5
1A9
330
18
100
AcDbEntity
  8
_________2
100
AcDbText
 10
23.863431
 20
27.9368
 30
0.0
 40
4.497939999999999
  1
セラトレーディング株式会社
 41
0.5
 72
     1
 11
41.1805
 21
27.9368
 31
0.0
100
AcDbText
  0
LINE
  5
1AA
330
18
100
AcDbEntity
  8
_________2
100
AcDbLine
 10
183.551
 20
-4.09108
 30
0.0
 11
17.0495
 21
-4.09108
 31
0.0
  0
LINE
  5
1AB
330
18
100
AcDbEntity
  8
_________2
100
AcDbLine
 10
17.0495
 20
-4.09108
 30
0.0
 11
17.0495
 21
258.911
 31
0.0
  0
LINE
  5
1AC
330
18
100
AcDbEntity
  8
_________2
100
AcDbLine
 10
17.0495
 20
258.911
 30
0.0
 11
183.551
 21
258.911
 31
0.0
  0
LINE
  5
1AD
330
18
100
AcDbEntity
  8
_________2
100
AcDbLine
 10
183.551
 20
258.911
 30
0.0
 11
183.551
 21
-4.09108
 31
0.0
  0
LINE
  5
1AE
330
18
100
AcDbEntity
  8
_________2
100
AcDbLine
 10
65.5496
 20
9.40896
 30
0.0
 11
65.5496
 21
35.9088
 31
0.0
  0
LINE
  5
1AF
330
18
100
AcDbEntity
  8
_________2
100
AcDbLine
 10
84.54970000000001
 20
9.40896
 30
0.0
 11
84.54970000000001
 21
35.9088
 31
0.0
  0
LINE
  5
1B0
330
18
100
AcDbEntity
  8
_________2
100
AcDbLine
 10
103.55
 20
-4.09108
 30
0.0
 11
103.55
 21
35.9088
 31
0.0
  0
LINE
  5
1B1
330
18
100
AcDbEntity
  8
_________2
100
AcDbLine
 10
28.54929999999999
 20
9.40896
 30
0.0
 11
28.54929999999999
 21
23.4092
 31
0.0
  0
LINE
  5
1B2
330
18
100
AcDbEntity
  8
_________2
100
AcDbLine
 10
17.0495
 20
9.40896
 30
0.0
 11
103.55
 21
9.40896
 31
0.0
  0
LINE
  5
1B3
330
18
100
AcDbEntity
  8
_________2
100
AcDbLine
 10
17.0495
 20
23.4092
 30
0.0
 11
103.55
 21
23.4092
 31
0.0
  0
LINE
  5
1B4
330
18
100
AcDbEntity
  8
_________2
100
AcDbLine
 10
103.55
 20
15.9085
 30
0.0
 11
183.551
 21
15.9085
 31
0.0
  0
LINE
  5
1B5
330
18
100
AcDbEntity
  8
_________2
100
AcDbLine
 10
17.0495
 20
35.9088
 30
0.0
 11
183.551
 21
35.9088
 31
0.0
  0
CIRCLE
  5
1EC
330
18
100
AcDbEntity
  8
0
100
AcDbCircle
 10
72.447026
 20
180.778566
 30
0.0
 40
2.299999999999999
  0
CIRCLE
  5
1FA
330
18
100
AcDbEntity
  8
0
100
AcDbCircle
 10
72.44670000000001
 20
180.7787863629926
 30
0.0
 40
4.0
  0
CIRCLE
  5
22E
330
18
100
AcDbEntity
  8
0
100
AcDbCircle
 10
72.44670000000001
 20
194.2784490212462
 30
0.0
 40
1.75
  0
CIRCLE
  5
22F
330
18
100
AcDbEntity
  8
0
  6
AIGENLINE002
100
AcDbCircle
 10
72.44670000000001
 20
97.4472
 30
0.0
 40
1.25
  0
ENDSEC
  0
SECTION
  2
OBJECTS
  0
DICTIONARY
  5
C
330
0
100
AcDbDictionary
281
     1
  3
ACAD_GROUP
350
D
  3
ACAD_LAYOUT
350
1BB
  3
ACAD_MLINESTYLE
350
1B
  3
ACAD_PLOTSETTINGS
350
1BC
  3
ACAD_PLOTSTYLENAME
350
1B9
  0
DICTIONARY
  5
D
102
{ACAD_REACTORS
330
C
102
}
330
C
100
AcDbDictionary
281
     1
  0
DICTIONARY
  5
1BB
102
{ACAD_REACTORS
330
C
102
}
330
C
100
AcDbDictionary
281
     1
  3
Model
350
1BD
  3
ﾚｲｱｳﾄ1
350
1BE
  0
DICTIONARY
  5
1B
102
{ACAD_REACTORS
330
C
102
}
330
C
100
AcDbDictionary
281
     1
  3
STANDARD
350
1C
  0
DICTIONARY
  5
1BC
102
{ACAD_REACTORS
330
C
102
}
330
C
100
AcDbDictionary
281
     1
  0
ACDBDICTIONARYWDFLT
  5
1B9
102
{ACAD_REACTORS
330
C
102
}
330
C
100
AcDbDictionary
281
     1
  3
Normal
350
1BA
100
AcDbDictionaryWithDefault
340
1BA
  0
LAYOUT
  5
1BD
102
{ACAD_REACTORS
330
1BB
102
}
330
1BB
100
AcDbPlotSettings
  1

  2
DocuPrint2060
  4

  6

 40
0.0
 41
0.0
 42
0.0
 43
0.0
 44
0.0
 45
0.0
 46
0.0
 47
0.0
 48
0.0
 49
0.0
140
0.0
141
0.0
142
1.0
143
1.0
 70
  1712
 72
     0
 73
     0
 74
     0
  7

 75
     0
147
1.0
148
0.0
149
0.0
100
AcDbLayout
  1
Model
 70
     1
 71
     0
 10
0.0
 20
0.0
 11
12.0
 21
9.0
 12
0.0
 22
0.0
 32
0.0
 14
0.0
 24
0.0
 34
0.0
 15
0.0
 25
0.0
 35
0.0
146
0.0
 13
0.0
 23
0.0
 33
0.0
 16
1.0
 26
0.0
 36
0.0
 17
0.0
 27
1.0
 37
0.0
 76
     0
330
18
  0
LAYOUT
  5
1BE
102
{ACAD_REACTORS
330
1BB
102
}
330
1BB
100
AcDbPlotSettings
  1

  2
DocuPrint2060
  4

  6

 40
0.0
 41
0.0
 42
0.0
 43
0.0
 44
0.0
 45
0.0
 46
0.0
 47
0.0
 48
0.0
 49
0.0
140
0.0
141
0.0
142
1.0
143
1.0
 70
   688
 72
     0
 73
     0
 74
     5
  7

 75
    16
147
1.0
148
0.0
149
0.0
100
AcDbLayout
  1
ﾚｲｱｳﾄ1
 70
     1
 71
     1
 10
0.0
 20
0.0
 11
12.0
 21
9.0
 12
0.0
 22
0.0
 32
0.0
 14
1.000000000000000E+20
 24
1.000000000000000E+20
 34
1.000000000000000E+20
 15
-1.000000000000000E+20
 25
-1.000000000000000E+20
 35
-1.000000000000000E+20
146
0.0
 13
0.0
 23
0.0
 33
0.0
 16
1.0
 26
0.0
 36
0.0
 17
0.0
 27
1.0
 37
0.0
 76
     0
330
15
  0
MLINESTYLE
  5
1C
102
{ACAD_REACTORS
330
1B
102
}
330
1B
100
AcDbMlineStyle
  2
STANDARD
 70
     0
  3

 62
   256
 51
90.0
 52
90.0
 71
     2
 49
0.5
 62
   256
  6
BYLAYER
 49
-0.5
 62
   256
  6
BYLAYER
  0
ACDBPLACEHOLDER
  5
1BA
102
{ACAD_REACTORS
330
1B9
102
}
330
1B9
  0
ENDSEC
  0
EOF
