  0
SECTION
  2
HEADER
  9
$ACADVER
  1
AC1009
  9
$INSBASE
 10
0.0
 20
0.0
 30
0.0
  9
$EXTMIN
 10
0.238058
 20
0.4482100000000001
 30
0.0
  9
$EXTMAX
 10
210.24000000000001
 20
297.44999999999987
 30
0.0
  9
$LIMMIN
 10
0.0
 20
0.0
  9
$LIMMAX
 10
12.0
 20
9.0
  9
$ORTHOMODE
 70
     0
  9
$REGENMODE
 70
     1
  9
$FILLMODE
 70
     1
  9
$QTEXTMODE
 70
     0
  9
$MIRRTEXT
 70
     1
  9
$DRAGMODE
 70
     2
  9
$LTSCALE
 40
1.0
  9
$OSMODE
 70
    37
  9
$ATTMODE
 70
     1
  9
$TEXTSIZE
 40
0.0
  9
$TRACEWID
 40
0.05
  9
$TEXTSTYLE
  7
STANDARD
  9
$CLAYER
  8
0
  9
$CELTYPE
  6
CONTINUOUS
  9
$CECOLOR
 62
   256
  9
$DIMSCALE
 40
1.0
  9
$DIMASZ
 40
0.18
  9
$DIMEXO
 40
0.0625
  9
$DIMDLI
 40
0.38
  9
$DIMRND
 40
0.0
  9
$DIMDLE
 40
0.0
  9
$DIMEXE
 40
0.18
  9
$DIMTP
 40
0.0
  9
$DIMTM
 40
0.0
  9
$DIMTXT
 40
0.18
  9
$DIMCEN
 40
0.09
  9
$DIMTSZ
 40
0.0
  9
$DIMTOL
 70
     0
  9
$DIMLIM
 70
     0
  9
$DIMTIH
 70
     1
  9
$DIMTOH
 70
     1
  9
$DIMSE1
 70
     0
  9
$DIMSE2
 70
     0
  9
$DIMTAD
 70
     0
  9
$DIMZIN
 70
     0
  9
$DIMBLK
  1

  9
$DIMASO
 70
     1
  9
$DIMSHO
 70
     1
  9
$DIMPOST
  1

  9
$DIMAPOST
  1

  9
$DIMALT
 70
     0
  9
$DIMALTD
 70
     2
  9
$DIMALTF
 40
25.399999999999999
  9
$DIMLFAC
 40
1.0
  9
$DIMTOFL
 70
     0
  9
$DIMTVP
 40
0.0
  9
$DIMTIX
 70
     0
  9
$DIMSOXD
 70
     0
  9
$DIMSAH
 70
     0
  9
$DIMBLK1
  1

  9
$DIMBLK2
  1

  9
$DIMSTYLE
  2
STANDARD
  9
$DIMCLRD
 70
     0
  9
$DIMCLRE
 70
     0
  9
$DIMCLRT
 70
     0
  9
$DIMTFAC
 40
1.0
  9
$DIMGAP
 40
0.09
  9
$LUNITS
 70
     2
  9
$LUPREC
 70
     4
  9
$SKETCHINC
 40
0.1
  9
$FILLETRAD
 40
0.0
  9
$AUNITS
 70
     0
  9
$AUPREC
 70
     0
  9
$MENU
  1
.
  9
$ELEVATION
 40
0.0
  9
$PELEVATION
 40
0.0
  9
$THICKNESS
 40
0.0
  9
$LIMCHECK
 70
     0
  9
$BLIPMODE
 70
     0
  9
$CHAMFERA
 40
0.0
  9
$CHAMFERB
 40
0.0
  9
$SKPOLY
 70
     0
  9
$TDCREATE
 40
2444972.375
  9
$TDUPDATE
 40
2456644.2477985988
  9
$TDINDWG
 40
0.0000063079
  9
$TDUSRTIMER
 40
0.0000063079
  9
$USRTIMER
 70
     1
  9
$ANGBASE
 50
0.0
  9
$ANGDIR
 70
     0
  9
$PDMODE
 70
     0
  9
$PDSIZE
 40
0.0
  9
$PLINEWID
 40
0.0
  9
$COORDS
 70
     1
  9
$SPLFRAME
 70
     0
  9
$SPLINETYPE
 70
     6
  9
$SPLINESEGS
 70
     8
  9
$ATTDIA
 70
     0
  9
$ATTREQ
 70
     1
  9
$HANDLING
 70
     1
  9
$HANDSEED
  5
234
  9
$SURFTAB1
 70
     6
  9
$SURFTAB2
 70
     6
  9
$SURFTYPE
 70
     6
  9
$SURFU
 70
     6
  9
$SURFV
 70
     6
  9
$UCSNAME
  2

  9
$UCSORG
 10
0.0
 20
0.0
 30
0.0
  9
$UCSXDIR
 10
1.0
 20
0.0
 30
0.0
  9
$UCSYDIR
 10
0.0
 20
1.0
 30
0.0
  9
$PUCSNAME
  2

  9
$PUCSORG
 10
0.0
 20
0.0
 30
0.0
  9
$PUCSXDIR
 10
1.0
 20
0.0
 30
0.0
  9
$PUCSYDIR
 10
0.0
 20
1.0
 30
0.0
  9
$USERI1
 70
     0
  9
$USERI2
 70
     0
  9
$USERI3
 70
     0
  9
$USERI4
 70
     0
  9
$USERI5
 70
     0
  9
$USERR1
 40
0.0
  9
$USERR2
 40
0.0
  9
$USERR3
 40
0.0
  9
$USERR4
 40
0.0
  9
$USERR5
 40
0.0
  9
$WORLDVIEW
 70
     1
  9
$SHADEDGE
 70
     3
  9
$SHADEDIF
 70
    70
  9
$TILEMODE
 70
     1
  9
$MAXACTVP
 70
    48
  9
$PLIMCHECK
 70
     0
  9
$PEXTMIN
 10
1.0000000000000000E+020
 20
1.0000000000000000E+020
 30
1.0000000000000000E+020
  9
$PEXTMAX
 10
-1.0000000000000000E+020
 20
-1.0000000000000000E+020
 30
-1.0000000000000000E+020
  9
$PLIMMIN
 10
0.0
 20
0.0
  9
$PLIMMAX
 10
12.0
 20
9.0
  9
$UNITMODE
 70
     0
  9
$VISRETAIN
 70
     1
  9
$PLINEGEN
 70
     0
  9
$PSLTSCALE
 70
     1
  0
ENDSEC
  0
SECTION
  2
TABLES
  0
TABLE
  2
VPORT
 70
     2
  0
VPORT
  2
*ACTIVE
 70
     0
 10
0.0
 20
0.0
 11
1.0
 21
1.0
 12
206.97982146115791
 22
148.72499999999991
 13
0.0
 23
0.0
 14
1.0
 24
1.0
 15
0.0
 25
0.0
 16
0.0
 26
0.0
 36
1.0
 17
0.0
 27
0.0
 37
0.0
 40
299.90488308115528
 41
2.2894736842105261
 42
50.0
 43
0.0
 44
0.0
 50
0.0
 51
0.0
 71
     0
 72
   100
 73
     1
 74
     1
 75
     0
 76
     0
 77
     0
 78
     0
  0
ENDTAB
  0
TABLE
  2
LTYPE
 70
     4
  0
LTYPE
  2
CONTINUOUS
 70
     0
  3
Solid line
 72
    65
 73
     0
 40
0.0
  0
LTYPE
  2
AIGENLINE001
 70
     0
  3
generate AI->DXF Converter
 72
    65
 73
     6
 40
7.4083750000000004
 49
3.5278
 49
-0.776115
 49
0.776115
 49
-0.776115
 49
0.776115
 49
-0.776115
  0
LTYPE
  2
AIGENLINE002
 70
     0
  3
generate AI->DXF Converter
 72
    65
 73
     4
 40
5.8561449999999988
 49
3.5278
 49
-0.776115
 49
0.776115
 49
-0.776115
  0
LTYPE
  2
AIGENLINE003
 70
     0
  3
generate AI->DXF Converter
 72
    65
 73
     2
 40
1.5522299999999991
 49
0.776115
 49
-0.776115
  0
ENDTAB
  0
TABLE
  2
LAYER
 70
     2
  0
LAYER
  2
0
 70
     0
 62
     7
  6
CONTINUOUS
  0
LAYER
  2
_________2
 70
     0
 62
     7
  6
CONTINUOUS
  0
ENDTAB
  0
TABLE
  2
STYLE
 70
     1
  0
STYLE
  2
STANDARD
 70
     0
 40
0.0
 41
0.0
 50
0.0
 71
     0
 42
0.0
  3
TXT
  4
EXTFONT.SHX
  0
ENDTAB
  0
TABLE
  2
VIEW
 70
     0
  0
ENDTAB
  0
TABLE
  2
UCS
 70
     0
  0
ENDTAB
  0
TABLE
  2
APPID
 70
     1
  0
APPID
  2
ACAD
 70
     0
  0
ENDTAB
  0
TABLE
  2
DIMSTYLE
 70
     1
  0
DIMSTYLE
  2
STANDARD
 70
     0
  3

  4

  5

  6

  7

 40
1.0
 41
0.18
 42
0.0625
 43
0.38
 44
0.18
 45
0.0
 46
0.0
 47
0.0
 48
0.0
140
0.18
141
0.09
142
0.0
143
25.399999999999999
144
1.0
145
0.0
146
1.0
147
0.09
 71
     0
 72
     0
 73
     1
 74
     1
 75
     0
 76
     0
 77
     0
 78
     0
170
     0
171
     2
172
     0
173
     0
174
     0
175
     0
176
     0
177
     0
178
     0
  0
ENDTAB
  0
ENDSEC
  0
SECTION
  2
BLOCKS
  0
BLOCK
  8
0
  2
$MODEL_SPACE
 70
     0
 10
0.0
 20
0.0
 30
0.0
  3
$MODEL_SPACE
  1

  0
ENDBLK
  5
1A
  8
0
  0
BLOCK
 67
     1
  8
0
  2
$PAPER_SPACE
 70
     0
 10
0.0
 20
0.0
 30
0.0
  3
$PAPER_SPACE
  1

  0
ENDBLK
  5
17
 67
     1
  8
0
  0
ENDSEC
  0
SECTION
  2
ENTITIES
  0
TEXT
  5
24
  8
0
 62
     7
 10
114.2646072044633
 20
261.47060720446331
 30
0.0
 40
3.0923400000000001
  1
80以上
 50
45.0
 41
0.5
 72
     1
 11
116.43299999999989
 21
263.63900000000001
 31
0.0
  0
TEXT
  5
25
  8
0
 62
     7
 10
115.0267122392323
 20
216.64528776076759
 30
0.0
 40
3.0923400000000001
  1
%%c260
 50
315.0
 41
0.5
 72
     1
 11
116.9399999999999
 21
214.732
 31
0.0
  0
TEXT
  5
26
  8
0
 62
     7
 10
128.83612286122229
 20
200.65829009740199
 30
0.0
 40
3.0923400000000001
  1
40
 50
2.06128
 41
0.5
 72
     1
 11
129.995
 21
200.69999999999999
 31
0.0
  0
TEXT
  5
27
  8
0
 62
     7
 10
102.27912286122231
 20
227.215290097402
 30
0.0
 40
3.0923400000000001
  1
40
 50
2.06128
 41
0.5
 72
     1
 11
103.4379999999999
 21
227.25699999999989
 31
0.0
  0
TEXT
  5
28
  8
0
 62
     7
 10
110.0395381020372
 20
209.0674834956701
 30
0.0
 40
3.0923400000000001
  1
340
 50
2.06128
 41
0.5
 72
     1
 11
111.9709999999999
 21
209.13699999999989
 31
0.0
  0
TEXT
  5
29
  8
0
 62
     7
 10
130.18141378856569
 20
264.92270047979662
 30
0.0
 40
3.0923400000000001
  1
50以上
 50
2.06128
 41
0.5
 72
     1
 11
133.24600000000001
 21
265.03300000000002
 31
0.0
  0
TEXT
  5
2A
  8
0
 62
     7
 10
137.8129999999999
 20
76.470600000000005
 30
0.0
 40
3.0923400000000001
  1
〈付属品〉
 41
0.5
  0
TEXT
  5
2B
  8
0
 62
     7
 10
137.8129999999999
 20
72.605199999999996
 30
0.0
 40
3.0923400000000001
  1
洗面器固定金具×4
 41
0.5
  0
TEXT
  5
2C
  8
0
 62
     7
 10
137.8129999999999
 20
68.739699999999985
 30
0.0
 40
3.0923400000000001
  1
%%c5×25SUSねじ付
 41
0.5
  0
TEXT
  5
2D
  8
0
 62
     7
 10
137.8129999999999
 20
64.874300000000005
 30
0.0
 40
3.0923400000000001
  1
（尺度 1：3）
 41
0.5
  0
TEXT
  5
2E
  8
0
 62
     7
 10
159.1325249999999
 20
117.754
 30
0.0
 40
3.0923400000000001
  1
%%c7
 41
0.5
 72
     1
 11
160.42099999999991
 21
117.754
 31
0.0
  0
TEXT
  5
2F
  8
0
 62
     7
 10
143.7275249999999
 20
99.174599999999998
 30
0.0
 40
3.0923400000000001
  1
34
 41
0.5
 72
     1
 11
145.01599999999991
 21
99.174599999999998
 31
0.0
  0
TEXT
  5
30
  8
0
 62
     7
 10
148.66652500000001
 20
93.059899999999985
 30
0.0
 40
3.0923400000000001
  1
64
 41
0.5
 72
     1
 11
149.95500000000001
 21
93.059899999999985
 31
0.0
  0
TEXT
  5
31
  8
0
 62
     7
 10
154.55737250000001
 20
99.174599999999998
 30
0.0
 40
3.0923400000000001
  1
30
 41
0.5
 72
     1
 11
155.71700000000001
 21
99.174599999999998
 31
0.0
  0
TEXT
  5
32
  8
0
 62
     7
 10
169.56200000000001
 20
108.22837249999991
 30
0.0
 40
3.0923400000000001
  1
30
 50
90.0
 41
0.5
 72
     1
 11
169.56200000000001
 21
109.38799999999991
 31
0.0
  0
TEXT
  5
33
  8
0
 62
     7
 10
87.977299999999985
 20
226.64198250000001
 30
0.0
 40
3.0923400000000001
  1
170
 50
90.0
 41
0.5
 72
     1
 11
87.977299999999985
 21
228.31700000000001
 31
0.0
  0
TEXT
  5
34
  8
0
 62
     7
 10
87.977299999999985
 20
246.6159825
 30
0.0
 40
3.0923400000000001
  1
160
 50
90.0
 41
0.5
 72
     1
 11
87.977299999999985
 21
248.29099999999991
 31
0.0
  0
TEXT
  5
35
  8
0
 62
     7
 10
151.56243499999991
 20
194.21299999999991
 30
0.0
 40
3.0923400000000001
  1
補強木（t24～30）
 41
0.5
 72
     2
 11
168.82799999999989
 21
194.21299999999991
 31
0.0
  0
TEXT
  5
36
  8
0
 62
     7
 10
128.02276000000001
 20
186.43899999999999
 30
0.0
 40
3.0923400000000001
  1
カウンター切込寸法
 41
0.5
 72
     1
 11
136.26900000000001
 21
186.43899999999999
 31
0.0
  0
TEXT
  5
37
  8
0
 62
     7
 10
157.31396599999999
 20
199.76400000000001
 30
0.0
 40
3.0923400000000001
  1
洗面器固定用
 41
0.5
 72
     2
 11
167.9309999999999
 21
199.76400000000001
 31
0.0
  0
TEXT
  5
38
  8
0
 62
     7
 10
113.0349999999999
 20
142.7039825
 30
0.0
 40
3.0923400000000001
  1
190
 50
90.0
 41
0.5
 72
     1
 11
113.0349999999999
 21
144.37899999999991
 31
0.0
  0
TEXT
  5
39
  8
0
 62
     7
 10
166.18700000000001
 20
152.7093725
 30
0.0
 40
3.0923400000000001
  1
40
 50
90.0
 41
0.5
 72
     1
 11
166.18700000000001
 21
153.869
 31
0.0
  0
TEXT
  5
3A
  8
0
 62
     7
 10
138.4729999999999
 20
145.58213499999991
 30
0.0
 40
3.0923400000000001
  1
145
 50
90.0
 41
0.5
 72
     1
 11
138.4729999999999
 21
147.38599999999991
 31
0.0
  0
TEXT
  5
3B
  8
0
 62
     7
 10
128.04798249999999
 20
125.601
 30
0.0
 40
3.0923400000000001
  1
170
 41
0.5
 72
     1
 11
129.7229999999999
 21
125.601
 31
0.0
  0
TEXT
  5
3C
  8
0
 62
     7
 10
59.731987500000002
 20
164.90700000000001
 30
0.0
 40
3.0923400000000001
  1
320
 41
0.5
 72
     1
 11
61.664700000000003
 21
164.90700000000001
 31
0.0
  0
TEXT
  5
3D
  8
0
 62
     7
 10
59.8320875
 20
273.51299999999992
 30
0.0
 40
3.0923400000000001
  1
320
 41
0.5
 72
     1
 11
61.764800000000001
 21
273.51299999999992
 31
0.0
  0
TEXT
  5
3E
  8
0
 62
     7
 10
58.930154999999999
 20
266.81699999999989
 30
0.0
 40
3.0923400000000001
  1
%%c275
 41
0.5
 72
     1
 11
61.764800000000001
 21
266.81699999999989
 31
0.0
  0
TEXT
  5
3F
  8
0
 62
     7
 10
49.993639999999992
 20
233.57400000000001
 30
0.0
 40
3.0923400000000001
  1
%%c46
 41
0.5
 72
     1
 11
52.055199999999992
 21
233.57400000000001
 31
0.0
  0
TEXT
  5
40
  8
0
 62
     7
 10
138.2842875
 20
173.3769999999999
 30
0.0
 40
3.0923400000000001
  1
330
 41
0.5
 72
     1
 11
140.21700000000001
 21
173.3769999999999
 31
0.0
  0
TEXT
  5
41
  8
0
 62
     7
 10
138.06335499999989
 20
165.8779999999999
 30
0.0
 40
3.0923400000000001
  1
%%c275
 41
0.5
 72
     1
 11
140.89799999999991
 21
165.8779999999999
 31
0.0
  0
TEXT
  5
42
  8
0
 62
     7
 10
164.060745
 20
165.77799999999991
 30
0.0
 40
3.0923400000000001
  1
22.5
 41
0.5
 72
     1
 11
166.37999999999991
 21
165.77799999999991
 31
0.0
  0
TEXT
  5
43
  8
0
 62
     7
 10
112.719745
 20
165.77799999999991
 30
0.0
 40
3.0923400000000001
  1
32.5
 41
0.5
 72
     1
 11
115.039
 21
165.77799999999991
 31
0.0
  0
LINE
  5
44
  8
0
 62
     7
 10
117.64
 20
255.047
 30
0.0
 11
113.315
 21
259.37
 31
0.0
  0
LINE
  5
45
  8
0
 62
     7
 10
114.554
 20
260.47699999999998
 30
0.0
 11
113.6959999999999
 21
258.99000000000001
 31
0.0
  0
LINE
  5
46
  8
0
 62
     7
 10
113.6959999999999
 20
258.99000000000001
 30
0.0
 11
115.18299999999989
 21
259.84800000000001
 31
0.0
  0
LINE
  5
47
  8
0
 62
     7
 10
115.18299999999989
 20
259.84800000000001
 30
0.0
 11
114.554
 21
260.47699999999998
 31
0.0
  0
LINE
  5
48
  8
0
 62
     7
 10
119.901
 20
264.58299999999991
 30
0.0
 11
120.7589999999999
 21
266.06900000000002
 31
0.0
  0
LINE
  5
49
  8
0
 62
     7
 10
120.7589999999999
 20
266.06900000000002
 30
0.0
 11
119.27200000000001
 21
265.2109999999999
 31
0.0
  0
LINE
  5
4A
  8
0
 62
     7
 10
119.27200000000001
 20
265.2109999999999
 30
0.0
 11
119.901
 21
264.58299999999991
 31
0.0
  0
LINE
  5
4B
  8
0
 62
     7
 10
113.69199999999999
 20
258.99400000000003
 30
0.0
 11
120.76299999999991
 21
266.06499999999988
 31
0.0
  0
LINE
  5
4C
  8
0
 62
     7
 10
124.70999999999989
 20
262.11700000000002
 30
0.0
 11
120.3869999999999
 21
266.44099999999992
 31
0.0
  0
LINE
  5
4D
  8
0
 62
     7
 10
126.142
 20
262.33699999999988
 30
0.0
 11
130.46600000000001
 21
266.66099999999989
 31
0.0
  0
LINE
  5
4E
  8
0
 62
     7
 10
131.572
 20
265.423
 30
0.0
 11
130.08600000000001
 21
266.28099999999989
 31
0.0
  0
LINE
  5
4F
  8
0
 62
     7
 10
130.08600000000001
 20
266.28099999999989
 30
0.0
 11
130.9439999999999
 21
264.79399999999998
 31
0.0
  0
LINE
  5
50
  8
0
 62
     7
 10
130.9439999999999
 20
264.79399999999998
 30
0.0
 11
131.572
 21
265.423
 31
0.0
  0
LINE
  5
51
  8
0
 62
     7
 10
133.02699999999999
 20
262.72699999999998
 30
0.0
 11
134.51300000000001
 21
261.86900000000003
 31
0.0
  0
LINE
  5
52
  8
0
 62
     7
 10
134.51300000000001
 20
261.86900000000003
 30
0.0
 11
133.655
 21
263.35599999999999
 31
0.0
  0
LINE
  5
53
  8
0
 62
     7
 10
133.655
 20
263.35599999999999
 30
0.0
 11
133.02699999999999
 21
262.72699999999998
 31
0.0
  0
LINE
  5
54
  8
0
 62
     7
 10
130.09
 20
266.28399999999999
 30
0.0
 11
134.5089999999999
 21
261.86599999999987
 31
0.0
  0
LINE
  5
55
  8
0
 62
     7
 10
130.56100000000001
 20
257.91699999999997
 30
0.0
 11
134.88599999999991
 21
262.24099999999987
 31
0.0
  0
LINE
  5
56
  8
0
  6
AIGENLINE001
 62
     7
 10
129.73699999999991
 20
219.96899999999999
 30
0.0
 11
125.3179999999999
 21
215.5499999999999
 31
0.0
  0
LINE
  5
57
  8
0
  6
AIGENLINE001
 62
     7
 10
125.3179999999999
 20
215.5499999999999
 30
0.0
 11
118.246
 21
222.61999999999989
 31
0.0
  0
LINE
  5
58
  8
0
  6
AIGENLINE001
 62
     7
 10
118.246
 20
222.61999999999989
 30
0.0
 11
122.66500000000001
 21
227.03999999999991
 31
0.0
  0
LINE
  5
59
  8
0
  6
AIGENLINE001
 62
     7
 10
122.66500000000001
 20
227.03999999999991
 30
0.0
 11
129.73699999999991
 21
219.96899999999999
 31
0.0
  0
LINE
  5
5A
  8
0
  6
AIGENLINE001
 62
     7
 10
164.20799999999991
 20
254.44099999999989
 30
0.0
 11
159.7889999999999
 21
250.02099999999999
 31
0.0
  0
LINE
  5
5B
  8
0
  6
AIGENLINE001
 62
     7
 10
159.7889999999999
 20
250.02099999999999
 30
0.0
 11
152.7179999999999
 21
257.09199999999998
 31
0.0
  0
LINE
  5
5C
  8
0
  6
AIGENLINE001
 62
     7
 10
152.7179999999999
 20
257.09199999999998
 30
0.0
 11
157.13699999999989
 21
261.51099999999991
 31
0.0
  0
LINE
  5
5D
  8
0
  6
AIGENLINE001
 62
     7
 10
157.13699999999989
 20
261.51099999999991
 30
0.0
 11
164.20799999999991
 21
254.44099999999989
 31
0.0
  0
LINE
  5
5E
  8
0
  6
AIGENLINE001
 62
     7
 10
157.13699999999989
 20
215.5499999999999
 30
0.0
 11
152.7179999999999
 21
219.96899999999999
 31
0.0
  0
LINE
  5
5F
  8
0
  6
AIGENLINE001
 62
     7
 10
152.7179999999999
 20
219.96899999999999
 30
0.0
 11
159.7879999999999
 21
227.03999999999991
 31
0.0
  0
LINE
  5
60
  8
0
  6
AIGENLINE001
 62
     7
 10
159.7879999999999
 20
227.03999999999991
 30
0.0
 11
164.20799999999991
 21
222.62100000000001
 31
0.0
  0
LINE
  5
61
  8
0
  6
AIGENLINE001
 62
     7
 10
164.20799999999991
 20
222.62100000000001
 30
0.0
 11
157.13699999999989
 21
215.5499999999999
 31
0.0
  0
LINE
  5
62
  8
0
  6
AIGENLINE001
 62
     7
 10
122.66500000000001
 20
250.02099999999999
 30
0.0
 11
118.246
 21
254.43999999999991
 31
0.0
  0
LINE
  5
63
  8
0
  6
AIGENLINE001
 62
     7
 10
118.246
 20
254.43999999999991
 30
0.0
 11
125.31699999999999
 21
261.51099999999991
 31
0.0
  0
LINE
  5
64
  8
0
  6
AIGENLINE001
 62
     7
 10
125.31699999999999
 20
261.51099999999991
 30
0.0
 11
129.7359999999999
 21
257.09199999999998
 31
0.0
  0
LINE
  5
65
  8
0
  6
AIGENLINE001
 62
     7
 10
129.7359999999999
 20
257.09199999999998
 30
0.0
 11
122.66500000000001
 21
250.02099999999999
 31
0.0
  0
LINE
  5
66
  8
0
 62
     7
 10
152.45699999999991
 20
112.0829999999999
 30
0.0
 11
151.31200000000001
 21
110.09999999999989
 31
0.0
  0
LINE
  5
67
  8
0
 62
     7
 10
151.31200000000001
 20
110.09999999999989
 30
0.0
 11
153.2949999999999
 21
111.245
 31
0.0
  0
LINE
  5
68
  8
0
 62
     7
 10
153.2949999999999
 20
111.245
 30
0.0
 11
152.45699999999991
 21
112.0829999999999
 31
0.0
  0
LINE
  5
69
  8
0
 62
     7
 10
148.52099999999999
 20
106.482
 30
0.0
 11
149.666
 21
108.465
 31
0.0
  0
LINE
  5
6A
  8
0
 62
     7
 10
149.666
 20
108.465
 30
0.0
 11
147.68299999999991
 21
107.31999999999989
 31
0.0
  0
LINE
  5
6B
  8
0
 62
     7
 10
147.68299999999991
 20
107.31999999999989
 30
0.0
 11
148.52099999999999
 21
106.482
 31
0.0
  0
LINE
  5
6C
  8
0
 62
     7
 10
146.69200000000001
 20
105.48099999999999
 30
0.0
 11
157.80000000000001
 21
116.589
 31
0.0
  0
LINE
  5
6D
  8
0
 62
     7
 10
152.702
 20
98.822800000000015
 30
0.0
 11
150.49100000000001
 21
98.230300000000014
 31
0.0
  0
LINE
  5
6E
  8
0
 62
     7
 10
150.49100000000001
 20
98.230300000000014
 30
0.0
 11
152.702
 21
97.637699999999995
 31
0.0
  0
LINE
  5
6F
  8
0
 62
     7
 10
152.702
 20
97.637699999999995
 30
0.0
 11
152.702
 21
98.822800000000015
 31
0.0
  0
LINE
  5
70
  8
0
 62
     7
 10
141.369
 20
98.822800000000015
 30
0.0
 11
139.1579999999999
 21
98.230300000000014
 31
0.0
  0
LINE
  5
71
  8
0
 62
     7
 10
139.1579999999999
 20
98.230300000000014
 30
0.0
 11
141.369
 21
97.637699999999995
 31
0.0
  0
LINE
  5
72
  8
0
 62
     7
 10
141.369
 20
97.637699999999995
 30
0.0
 11
141.369
 21
98.822800000000015
 31
0.0
  0
LINE
  5
73
  8
0
 62
     7
 10
148.28
 20
97.637699999999995
 30
0.0
 11
150.49100000000001
 21
98.230300000000014
 31
0.0
  0
LINE
  5
74
  8
0
 62
     7
 10
150.49100000000001
 20
98.230300000000014
 30
0.0
 11
148.28
 21
98.822800000000015
 31
0.0
  0
LINE
  5
75
  8
0
 62
     7
 10
148.28
 20
98.822800000000015
 30
0.0
 11
148.28
 21
97.637699999999995
 31
0.0
  0
LINE
  5
76
  8
0
 62
     7
 10
158.27999999999989
 20
97.652199999999993
 30
0.0
 11
160.49100000000001
 21
98.244800000000012
 31
0.0
  0
LINE
  5
77
  8
0
 62
     7
 10
160.49100000000001
 20
98.244800000000012
 30
0.0
 11
158.27999999999989
 21
98.837299999999985
 31
0.0
  0
LINE
  5
78
  8
0
 62
     7
 10
158.27999999999989
 20
98.837299999999985
 30
0.0
 11
158.27999999999989
 21
97.652199999999993
 31
0.0
  0
LINE
  5
79
  8
0
 62
     7
 10
139.1579999999999
 20
98.230300000000014
 30
0.0
 11
160.49100000000001
 21
98.230300000000014
 31
0.0
  0
LINE
  5
7A
  8
0
 62
     7
 10
141.369
 20
92.815600000000003
 30
0.0
 11
139.1579999999999
 21
92.222999999999999
 31
0.0
  0
LINE
  5
7B
  8
0
 62
     7
 10
139.1579999999999
 20
92.222999999999999
 30
0.0
 11
141.369
 21
91.630499999999998
 31
0.0
  0
LINE
  5
7C
  8
0
 62
     7
 10
141.369
 20
91.630499999999998
 30
0.0
 11
141.369
 21
92.815600000000003
 31
0.0
  0
LINE
  5
7D
  8
0
 62
     7
 10
158.27999999999989
 20
91.644900000000007
 30
0.0
 11
160.49100000000001
 21
92.237499999999997
 31
0.0
  0
LINE
  5
7E
  8
0
 62
     7
 10
160.49100000000001
 20
92.237499999999997
 30
0.0
 11
158.27999999999989
 21
92.830100000000002
 31
0.0
  0
LINE
  5
7F
  8
0
 62
     7
 10
158.27999999999989
 20
92.830100000000002
 30
0.0
 11
158.27999999999989
 21
91.644900000000007
 31
0.0
  0
LINE
  5
80
  8
0
 62
     7
 10
139.1579999999999
 20
92.222999999999999
 30
0.0
 11
160.49100000000001
 21
92.222999999999999
 31
0.0
  0
LINE
  5
81
  8
0
 62
     7
 10
171.09499999999991
 20
112.0689999999999
 30
0.0
 11
170.5029999999999
 21
114.28
 31
0.0
  0
LINE
  5
82
  8
0
 62
     7
 10
170.5029999999999
 20
114.28
 30
0.0
 11
169.91
 21
112.0689999999999
 31
0.0
  0
LINE
  5
83
  8
0
 62
     7
 10
169.91
 20
112.0689999999999
 30
0.0
 11
171.09499999999991
 21
112.0689999999999
 31
0.0
  0
LINE
  5
84
  8
0
 62
     7
 10
169.92500000000001
 20
106.491
 30
0.0
 11
170.517
 21
104.2799999999999
 31
0.0
  0
LINE
  5
85
  8
0
 62
     7
 10
170.517
 20
104.2799999999999
 30
0.0
 11
171.11000000000001
 21
106.491
 31
0.0
  0
LINE
  5
86
  8
0
 62
     7
 10
171.11000000000001
 20
106.491
 30
0.0
 11
169.92500000000001
 21
106.491
 31
0.0
  0
LINE
  5
87
  8
0
 62
     7
 10
170.5029999999999
 20
114.28
 30
0.0
 11
170.5029999999999
 21
104.2799999999999
 31
0.0
  0
LINE
  5
88
  8
0
 62
     7
 10
144.49100000000001
 20
84.167000000000002
 30
0.0
 11
147.29599999999999
 21
86.433200000000014
 31
0.0
  0
LINE
  5
89
  8
0
 62
     7
 10
143.715
 20
84.102199999999996
 30
0.0
 11
139.40299999999991
 21
86.524799999999999
 31
0.0
  0
ARC
  5
8A
  8
0
 62
     7
 10
144.05346899999989
 20
84.728019999999987
 30
0.0
 40
0.7112560000000001
 50
241.6274279999999
 51
307.92516299999988
  0
LINE
  5
8B
  8
0
 62
     7
 10
144.81700000000001
 20
83.787700000000015
 30
0.0
 11
147.637
 21
86.065899999999999
 31
0.0
  0
LINE
  5
8C
  8
0
 62
     7
 10
143.45799999999991
 20
83.673599999999993
 30
0.0
 11
139.1579999999999
 21
86.089299999999994
 31
0.0
  0
ARC
  5
8D
  8
0
 62
     7
 10
144.0500659999999
 20
84.768415000000005
 30
0.0
 40
1.244729999999999
 50
241.58647899999991
 51
308.00814600000001
  0
LINE
  5
8E
  8
0
 62
     7
 10
148.4789999999999
 20
86.298500000000004
 30
0.0
 11
152.5679999999999
 21
85.718699999999998
 31
0.0
  0
ARC
  5
8F
  8
0
 62
     7
 10
148.32995500000001
 20
85.198495999999977
 30
0.0
 40
1.1099799999999991
 50
82.298918999999998
 51
128.604015
  0
LINE
  5
90
  8
0
 62
     7
 10
148.58299999999991
 20
86.788700000000006
 30
0.0
 11
152.63599999999991
 21
86.214100000000002
 31
0.0
  0
ARC
  5
91
  8
0
 62
     7
 10
148.3547759999999
 20
85.106899999999996
 30
0.0
 40
1.6972769999999999
 50
82.257712999999995
 51
128.61016100000001
  0
LINE
  5
92
  8
0
 62
     7
 10
153.44599999999991
 20
85.817899999999995
 30
0.0
 11
156.292
 21
86.906499999999994
 31
0.0
  0
ARC
  5
93
  8
0
 62
     7
 10
152.81438899999989
 20
87.470634000000004
 30
0.0
 40
1.7691680000000001
 50
262.00744199999991
 51
290.900147
  0
LINE
  5
94
  8
0
 62
     7
 10
153.26900000000001
 20
86.285700000000006
 30
0.0
 11
156.00499999999991
 21
87.331699999999984
 31
0.0
  0
ARC
  5
95
  8
0
 62
     7
 10
152.81349399999991
 20
87.478455000000025
 30
0.0
 40
1.2768040000000001
 50
262.005583
 51
290.90742299999988
  0
LINE
  5
96
  8
0
 62
     7
 10
156.9139999999999
 20
86.7791
 30
0.0
 11
160.14400000000001
 21
83.652999999999992
 31
0.0
  0
ARC
  5
97
  8
0
 62
     7
 10
156.4998249999999
 20
86.339318000000006
 30
0.0
 40
0.6041270000000001
 50
46.710246999999988
 51
110.1334889999999
  0
LINE
  5
98
  8
0
 62
     7
 10
157.345
 20
87.057400000000001
 30
0.0
 11
160.49100000000001
 21
84.012299999999996
 31
0.0
  0
ARC
  5
99
  8
0
 62
     7
 10
156.45267100000001
 20
86.107592000000025
 30
0.0
 40
1.3035099999999991
 50
46.775235999999992
 51
110.10705400000001
  0
LINE
  5
9A
  8
0
  6
AIGENLINE002
 62
     7
 10
150.49100000000001
 20
111.4109999999999
 30
0.0
 11
150.49100000000001
 21
107.3679999999999
 31
0.0
  0
LINE
  5
9B
  8
0
  6
AIGENLINE002
 62
     7
 10
152.40000000000001
 20
109.2799999999999
 30
0.0
 11
148.584
 21
109.2799999999999
 31
0.0
  0
ARC
  5
9C
  8
0
 62
     7
 10
150.43510599999999
 20
109.2357819999999
 30
0.0
 40
1.2121770000000001
 50
2.0814590000000002
 51
87.357562000000001
  0
ARC
  5
9D
  8
0
 62
     7
 10
150.53628699999999
 20
109.24732999999991
 30
0.0
 40
1.2001949999999999
 50
92.162887999999995
 51
178.44932
  0
ARC
  5
9E
  8
0
 62
     7
 10
150.54753299999999
 20
109.32377099999989
 30
0.0
 40
1.2117990000000001
 50
182.0790989999999
 51
267.32561099999998
  0
ARC
  5
9F
  8
0
 62
     7
 10
150.44575599999999
 20
109.3136429999999
 30
0.0
 40
1.201203
 50
272.15813799999989
 51
358.38592299999988
  0
LINE
  5
A0
  8
0
  6
AIGENLINE002
 62
     7
 10
150.16499999999991
 20
84.217999999999989
 30
0.0
 11
150.791
 21
88.635300000000001
 31
0.0
  0
LINE
  5
A1
  8
0
 62
     7
 10
139.40299999999991
 20
114.28
 30
0.0
 11
139.40299999999991
 21
104.2799999999999
 31
0.0
  0
LINE
  5
A2
  8
0
 62
     7
 10
144.161
 20
113.78
 30
0.0
 11
144.161
 21
104.78
 31
0.0
  0
LINE
  5
A3
  8
0
 62
     7
 10
147.97599999999991
 20
113.78
 30
0.0
 11
147.97599999999991
 21
104.78
 31
0.0
  0
LINE
  5
A4
  8
0
 62
     7
 10
152.86099999999999
 20
113.78
 30
0.0
 11
152.86099999999999
 21
104.78
 31
0.0
  0
LINE
  5
A5
  8
0
 62
     7
 10
156.49000000000001
 20
113.78
 30
0.0
 11
156.49000000000001
 21
104.78
 31
0.0
  0
LINE
  5
A6
  8
0
 62
     7
 10
160.49100000000001
 20
84.012299999999996
 30
0.0
 11
160.14400000000001
 21
83.652999999999992
 31
0.0
  0
LINE
  5
A7
  8
0
 62
     7
 10
139.1579999999999
 20
86.089299999999994
 30
0.0
 11
139.40299999999991
 21
86.524799999999999
 31
0.0
  0
LINE
  5
A8
  8
0
 62
     7
 10
171.48400000000001
 20
104.2799999999999
 30
0.0
 11
161.5439999999999
 21
104.2799999999999
 31
0.0
  0
LINE
  5
A9
  8
0
 62
     7
 10
162.358
 20
116.589
 30
0.0
 11
157.80000000000001
 21
116.589
 31
0.0
  0
LINE
  5
AA
  8
0
 62
     7
 10
171.48400000000001
 20
114.28
 30
0.0
 11
161.5439999999999
 21
114.28
 31
0.0
  0
LINE
  5
AB
  8
0
 62
     7
 10
160.49100000000001
 20
104.2799999999999
 30
0.0
 11
139.1579999999999
 21
104.2799999999999
 31
0.0
  0
LINE
  5
AC
  8
0
 62
     7
 10
160.49100000000001
 20
114.28
 30
0.0
 11
139.1579999999999
 21
114.28
 31
0.0
  0
LINE
  5
AD
  8
0
 62
     7
 10
160.49100000000001
 20
103.4909999999999
 30
0.0
 11
160.49100000000001
 21
91.684600000000003
 31
0.0
  0
LINE
  5
AE
  8
0
 62
     7
 10
150.49100000000001
 20
106.633
 30
0.0
 11
150.49100000000001
 21
97.630100000000013
 31
0.0
  0
LINE
  5
AF
  8
0
 62
     7
 10
139.1579999999999
 20
103.4909999999999
 30
0.0
 11
139.1579999999999
 21
91.684600000000003
 31
0.0
  0
LINE
  5
B0
  8
0
 62
     7
 10
160.49100000000001
 20
114.28
 30
0.0
 11
160.49100000000001
 21
104.2799999999999
 31
0.0
  0
LINE
  5
B1
  8
0
 62
     7
 10
139.1579999999999
 20
114.28
 30
0.0
 11
139.1579999999999
 21
104.2799999999999
 31
0.0
  0
ARC
  5
B2
  8
0
 62
     7
 10
61.223849999999999
 20
220.0064669999999
 30
0.0
 40
1.9991289999999999
 50
90.009363000000008
 51
102.457758
  0
ARC
  5
B3
  8
0
 62
     7
 10
60.975768999999993
 20
221.1814589999999
 30
0.0
 40
0.798365
 50
103.263625
 51
118.0591409999999
  0
ARC
  5
B4
  8
0
 62
     7
 10
60.729829000000002
 20
221.66014000000001
 30
0.0
 40
0.260388
 50
119.8484989999999
 51
133.92606499999991
  0
ARC
  5
B5
  8
0
 62
     7
 10
60.623681999999988
 20
221.76755899999989
 30
0.0
 40
0.109401
 50
132.91467599999999
 51
175.04266100000001
  0
ARC
  5
B6
  8
0
 62
     7
 10
60.599280999999998
 20
221.77752499999991
 30
0.0
 40
0.084592
 50
180.3474129999999
 51
220.41090899999989
  0
ARC
  5
B7
  8
0
 62
     7
 10
60.678761000000002
 20
221.8350189999999
 30
0.0
 40
0.182545
 50
217.97851
 51
233.57959500000001
  0
ARC
  5
B8
  8
0
 62
     7
 10
60.783990000000003
 20
221.97483700000001
 30
0.0
 40
0.357533
 50
233.31274300000001
 51
243.83707000000001
  0
ARC
  5
B9
  8
0
 62
     7
 10
60.916718999999993
 20
222.24185899999989
 30
0.0
 40
0.655722
 50
243.71532799999989
 51
251.66069100000001
  0
ARC
  5
BA
  8
0
 62
     7
 10
61.102584999999998
 20
222.81157999999991
 30
0.0
 40
1.2549909999999991
 50
251.79005000000001
 51
264.011751
  0
ARC
  5
BB
  8
0
 62
     7
 10
61.218268000000002
 20
223.60476299999991
 30
0.0
 40
2.0561679999999991
 50
263.11158799999993
 51
270.14646699999992
  0
LINE
  5
BC
  8
0
 62
     7
 10
61.223500000000001
 20
221.54899999999989
 30
0.0
 11
61.764800000000001
 21
221.54899999999989
 31
0.0
  0
LINE
  5
BD
  8
0
 62
     7
 10
61.223500000000001
 20
222.00599999999989
 30
0.0
 11
61.764800000000001
 21
222.00599999999989
 31
0.0
  0
ARC
  5
BE
  8
0
 62
     7
 10
62.305652000000002
 20
220.0064669999999
 30
0.0
 40
1.9991289999999999
 50
77.542222999999993
 51
89.990618000000012
  0
ARC
  5
BF
  8
0
 62
     7
 10
62.553733999999992
 20
221.1814589999999
 30
0.0
 40
0.798365
 50
61.94083899999999
 51
76.736355000000003
  0
ARC
  5
C0
  8
0
 62
     7
 10
62.799674000000003
 20
221.66014000000001
 30
0.0
 40
0.260388
 50
46.073915
 51
60.151481000000011
  0
ARC
  5
C1
  8
0
 62
     7
 10
62.905820999999989
 20
221.76755899999989
 30
0.0
 40
0.109401
 50
4.9573199999999993
 51
47.085303999999987
  0
ARC
  5
C2
  8
0
 62
     7
 10
62.930222000000001
 20
221.77752499999991
 30
0.0
 40
0.084592
 50
319.589111
 51
359.65260599999988
  0
ARC
  5
C3
  8
0
 62
     7
 10
62.850741999999997
 20
221.8350189999999
 30
0.0
 40
0.182545
 50
306.42042500000002
 51
322.02150999999998
  0
ARC
  5
C4
  8
0
 62
     7
 10
62.745513000000003
 20
221.97483700000001
 30
0.0
 40
0.357533
 50
296.16295000000002
 51
306.68727599999988
  0
ARC
  5
C5
  8
0
 62
     7
 10
62.612782999999993
 20
222.24185899999989
 30
0.0
 40
0.655722
 50
288.33932900000002
 51
296.28469200000001
  0
ARC
  5
C6
  8
0
 62
     7
 10
62.426918000000008
 20
222.81157999999991
 30
0.0
 40
1.2549909999999991
 50
275.98826800000001
 51
288.20996999999988
  0
ARC
  5
C7
  8
0
 62
     7
 10
62.311234999999989
 20
223.60476299999991
 30
0.0
 40
2.0561679999999991
 50
269.85355299999998
 51
276.88843199999991
  0
LINE
  5
C8
  8
0
 62
     7
 10
62.305999999999997
 20
221.54899999999989
 30
0.0
 11
61.764800000000001
 21
221.54899999999989
 31
0.0
  0
LINE
  5
C9
  8
0
 62
     7
 10
62.305999999999997
 20
222.00599999999989
 30
0.0
 11
61.764800000000001
 21
222.00599999999989
 31
0.0
  0
ARC
  5
CA
  8
0
 62
     7
 10
56.935041000000012
 20
150.0794709999999
 30
0.0
 40
1.249889
 50
0.007906
 51
90.007875999999996
  0
ARC
  5
CB
  8
0
 62
     7
 10
59.629839000000011
 20
134.06987899999999
 30
0.0
 40
0.8656909999999999
 50
182.12371899999991
 51
267.90000199999997
  0
LINE
  5
CC
  8
0
 62
     7
 10
58.184899999999999
 20
150.08000000000001
 30
0.0
 11
58.764699999999998
 21
134.0379999999999
 31
0.0
  0
LINE
  5
CD
  8
0
 62
     7
 10
61.764800000000001
 20
133.20500000000001
 30
0.0
 11
59.598100000000002
 21
133.20500000000001
 31
0.0
  0
ARC
  5
CE
  8
0
 62
     7
 10
66.594460999999995
 20
150.0794709999999
 30
0.0
 40
1.249889
 50
89.992103999999998
 51
179.992074
  0
ARC
  5
CF
  8
0
 62
     7
 10
63.899663000000011
 20
134.06987899999999
 30
0.0
 40
0.8656909999999999
 50
272.10001799999998
 51
357.8763009999999
  0
LINE
  5
D0
  8
0
 62
     7
 10
88.419600000000003
 20
240.1879999999999
 30
0.0
 11
88.863399999999999
 21
238.53100000000001
 31
0.0
  0
LINE
  5
D1
  8
0
 62
     7
 10
88.863399999999999
 20
238.53100000000001
 30
0.0
 11
89.3078
 21
240.1879999999999
 31
0.0
  0
LINE
  5
D2
  8
0
 62
     7
 10
89.3078
 20
240.1879999999999
 30
0.0
 11
88.419600000000003
 21
240.1879999999999
 31
0.0
  0
LINE
  5
D3
  8
0
 62
     7
 10
88.419600000000003
 20
218.9379999999999
 30
0.0
 11
88.863399999999999
 21
217.28
 31
0.0
  0
LINE
  5
D4
  8
0
 62
     7
 10
88.863399999999999
 20
217.28
 30
0.0
 11
89.3078
 21
218.9379999999999
 31
0.0
  0
LINE
  5
D5
  8
0
 62
     7
 10
89.3078
 20
218.9379999999999
 30
0.0
 11
88.419600000000003
 21
218.9379999999999
 31
0.0
  0
LINE
  5
D6
  8
0
 62
     7
 10
89.3078
 20
236.87200000000001
 30
0.0
 11
88.863399999999999
 21
238.53100000000001
 31
0.0
  0
LINE
  5
D7
  8
0
 62
     7
 10
88.863399999999999
 20
238.53100000000001
 30
0.0
 11
88.419600000000003
 21
236.87200000000001
 31
0.0
  0
LINE
  5
D8
  8
0
 62
     7
 10
88.419600000000003
 20
236.87200000000001
 30
0.0
 11
89.3078
 21
236.87200000000001
 31
0.0
  0
LINE
  5
D9
  8
0
 62
     7
 10
89.3078
 20
256.875
 30
0.0
 11
88.863399999999999
 21
258.53399999999988
 31
0.0
  0
LINE
  5
DA
  8
0
 62
     7
 10
88.863399999999999
 20
258.53399999999988
 30
0.0
 11
88.419600000000003
 21
256.875
 31
0.0
  0
LINE
  5
DB
  8
0
 62
     7
 10
88.419600000000003
 20
256.875
 30
0.0
 11
89.3078
 21
256.875
 31
0.0
  0
LINE
  5
DC
  8
0
 62
     7
 10
88.863399999999999
 20
217.28
 30
0.0
 11
88.863399999999999
 21
258.53399999999988
 31
0.0
  0
LINE
  5
DD
  8
0
 62
     7
 10
84.728200000000001
 20
238.53100000000001
 30
0.0
 11
89.434899999999999
 21
238.53100000000001
 31
0.0
  0
LINE
  5
DE
  8
0
 62
     7
 10
67.396299999999997
 20
258.53399999999988
 30
0.0
 11
89.586100000000002
 21
258.53399999999988
 31
0.0
  0
LINE
  5
DF
  8
0
 62
     7
 10
66.437700000000007
 20
217.28
 30
0.0
 11
89.430400000000006
 21
217.28
 31
0.0
  0
LINE
  5
E0
  8
0
 62
     7
 10
125.7529999999999
 20
193.00499999999991
 30
0.0
 11
152.1279999999999
 21
219.37999999999991
 31
0.0
  0
LINE
  5
E1
  8
0
 62
     7
 10
127.1749999999999
 20
201.49799999999991
 30
0.0
 11
148.619
 21
222.94099999999989
 31
0.0
  0
LINE
  5
E2
  8
0
 62
     7
 10
95.700199999999995
 20
223.05699999999999
 30
0.0
 11
121.941
 21
249.297
 31
0.0
  0
LINE
  5
E3
  8
0
 62
     7
 10
168.26400000000001
 20
198.44799999999989
 30
0.0
 11
144.01699999999991
 21
198.44799999999989
 31
0.0
  0
LINE
  5
E4
  8
0
 62
     7
 10
154.75
 20
215.10400000000001
 30
0.0
 11
155.3839999999999
 21
217.303
 31
0.0
  0
LINE
  5
E5
  8
0
 62
     7
 10
155.3839999999999
 20
217.303
 30
0.0
 11
153.73500000000001
 21
215.71599999999989
 31
0.0
  0
LINE
  5
E6
  8
0
 62
     7
 10
153.73500000000001
 20
215.71599999999989
 30
0.0
 11
154.75
 21
215.10400000000001
 31
0.0
  0
LINE
  5
E7
  8
0
 62
     7
 10
155.3839999999999
 20
217.303
 30
0.0
 11
144.01699999999991
 21
198.44799999999989
 31
0.0
  0
LINE
  5
E8
  8
0
 62
     7
 10
124.3429999999999
 20
194.72
 30
0.0
 11
126.3249999999999
 21
193.57599999999991
 31
0.0
  0
LINE
  5
E9
  8
0
 62
     7
 10
126.3249999999999
 20
193.57599999999991
 30
0.0
 11
125.18000000000001
 21
195.55799999999991
 31
0.0
  0
LINE
  5
EA
  8
0
 62
     7
 10
125.18000000000001
 20
195.55799999999991
 30
0.0
 11
124.3429999999999
 21
194.72
 31
0.0
  0
LINE
  5
EB
  8
0
 62
     7
 10
98.252700000000004
 20
222.4839999999999
 30
0.0
 11
96.271000000000001
 21
223.6279999999999
 31
0.0
  0
LINE
  5
EC
  8
0
 62
     7
 10
96.271000000000001
 20
223.6279999999999
 30
0.0
 11
97.415200000000013
 21
221.64599999999999
 31
0.0
  0
LINE
  5
ED
  8
0
 62
     7
 10
97.415200000000013
 20
221.64599999999999
 30
0.0
 11
98.252700000000004
 21
222.4839999999999
 31
0.0
  0
LINE
  5
EE
  8
0
 62
     7
 10
126.3249999999999
 20
193.57599999999991
 30
0.0
 11
96.271000000000001
 21
223.6279999999999
 31
0.0
  0
LINE
  5
EF
  8
0
 62
     7
 10
125.60299999999989
 20
203.05199999999999
 30
0.0
 11
127.58499999999989
 21
201.90700000000001
 31
0.0
  0
LINE
  5
F0
  8
0
 62
     7
 10
127.58499999999989
 20
201.90700000000001
 30
0.0
 11
126.4399999999999
 21
203.88900000000001
 31
0.0
  0
LINE
  5
F1
  8
0
 62
     7
 10
126.4399999999999
 20
203.88900000000001
 30
0.0
 11
125.60299999999989
 21
203.05199999999999
 31
0.0
  0
LINE
  5
F2
  8
0
 62
     7
 10
99.084999999999994
 20
229.5679999999999
 30
0.0
 11
101.06699999999999
 21
228.42400000000001
 31
0.0
  0
LINE
  5
F3
  8
0
 62
     7
 10
101.06699999999999
 20
228.42400000000001
 30
0.0
 11
99.922499999999999
 21
230.40599999999989
 31
0.0
  0
LINE
  5
F4
  8
0
 62
     7
 10
99.922499999999999
 20
230.40599999999989
 30
0.0
 11
99.084999999999994
 21
229.5679999999999
 31
0.0
  0
LINE
  5
F5
  8
0
 62
     7
 10
133.15700000000001
 20
197.2829999999999
 30
0.0
 11
131.17599999999999
 21
198.42699999999999
 31
0.0
  0
LINE
  5
F6
  8
0
 62
     7
 10
131.17599999999999
 20
198.42699999999999
 30
0.0
 11
132.31999999999991
 21
196.44499999999999
 31
0.0
  0
LINE
  5
F7
  8
0
 62
     7
 10
132.31999999999991
 20
196.44499999999999
 30
0.0
 11
133.15700000000001
 21
197.2829999999999
 31
0.0
  0
LINE
  5
F8
  8
0
 62
     7
 10
106.64
 20
223.79899999999989
 30
0.0
 11
104.6579999999999
 21
224.94399999999999
 31
0.0
  0
LINE
  5
F9
  8
0
 62
     7
 10
104.6579999999999
 20
224.94399999999999
 30
0.0
 11
105.80200000000001
 21
222.96199999999999
 31
0.0
  0
LINE
  5
FA
  8
0
 62
     7
 10
105.80200000000001
 20
222.96199999999999
 30
0.0
 11
106.64
 21
223.79899999999989
 31
0.0
  0
LINE
  5
FB
  8
0
 62
     7
 10
133.583
 20
195.91
 30
0.0
 11
98.355699999999999
 21
231.13499999999999
 31
0.0
  0
LINE
  5
FC
  8
0
 62
     7
 10
104.193
 20
224.47900000000001
 30
0.0
 11
125.63799999999991
 21
245.922
 31
0.0
  0
LINE
  5
FD
  8
0
  6
AIGENLINE002
 62
     7
 10
141.227
 20
215.93799999999999
 30
0.0
 11
141.227
 21
261.173
 31
0.0
  0
LINE
  5
FE
  8
0
  6
AIGENLINE002
 62
     7
 10
118.4579999999999
 20
238.53100000000001
 30
0.0
 11
163.6929999999999
 21
238.53100000000001
 31
0.0
  0
LINE
  5
FF
  8
0
  6
AIGENLINE002
 62
     7
 10
120.5479999999999
 20
259.209
 30
0.0
 11
162.36199999999999
 21
217.39599999999999
 31
0.0
  0
LINE
  5
100
  8
0
  6
AIGENLINE002
 62
     7
 10
120.0949999999999
 20
217.39799999999991
 30
0.0
 11
162.01699999999991
 21
259.31999999999988
 31
0.0
  0
ARC
  5
101
  8
0
 62
     7
 10
141.22720699999999
 20
238.53092699999999
 30
0.0
 40
16.249791999999999
 50
359.99830299999991
 51
90.000472000000002
  0
ARC
  5
102
  8
0
 62
     7
 10
141.2270729999999
 20
238.53044299999999
 30
0.0
 40
16.250275999999999
 50
90.0
 51
179.99996999999991
  0
ARC
  5
103
  8
0
 62
     7
 10
141.227137
 20
238.53068500000001
 30
0.0
 40
16.250340999999992
 50
180.0008629999999
 51
269.999774
  0
ARC
  5
104
  8
0
 62
     7
 10
141.22698099999991
 20
238.530362
 30
0.0
 40
16.250018000000001
 50
270.00032399999998
 51
0.000294
  0
LINE
  5
105
  8
0
  6
AIGENLINE002
 62
     7
 10
84.127700000000004
 20
238.53100000000001
 30
0.0
 11
39.500999999999991
 21
238.53100000000001
 31
0.0
  0
LINE
  5
106
  8
0
 62
     7
 10
52.311700000000002
 20
220.90499999999989
 30
0.0
 11
58.140799999999999
 21
217.779
 31
0.0
  0
ARC
  5
107
  8
0
 62
     7
 10
59.626136000000002
 20
220.5580589999999
 30
0.0
 40
3.1508150000000001
 50
241.87460899999991
 51
263.11522300000001
  0
LINE
  5
108
  8
0
 62
     7
 10
71.218199999999996
 20
220.90499999999989
 30
0.0
 11
65.389399999999995
 21
217.779
 31
0.0
  0
ARC
  5
109
  8
0
 62
     7
 10
63.908250000000002
 20
220.543668
 30
0.0
 40
3.1359849999999989
 50
276.83398499999993
 51
298.17622299999999
  0
LINE
  5
10A
  8
0
  6
AIGENLINE002
 62
     7
 10
61.764800000000001
 20
260.90499999999992
 30
0.0
 11
61.764800000000001
 21
215.04300000000001
 31
0.0
  0
ARC
  5
10B
  8
0
 62
     7
 10
61.764924000000001
 20
238.5833089999999
 30
0.0
 40
21.302464999999991
 50
263.21668199999999
 51
276.78333800000001
  0
ARC
  5
10C
  8
0
 62
     7
 10
61.764920999999987
 20
238.53044199999999
 30
0.0
 40
17.187514999999991
 50
179.9993959999999
 51
269.99944599999992
  0
ARC
  5
10D
  8
0
 62
     7
 10
61.764747999999997
 20
238.53062099999991
 30
0.0
 40
17.187692999999989
 50
270.00002000000001
 51
359.99998999999991
  0
ARC
  5
10E
  8
0
 62
     7
 10
61.764833999999993
 20
238.53052799999989
 30
0.0
 40
17.187606999999989
 50
0.000297
 51
90.000267000000008
  0
ARC
  5
10F
  8
0
 62
     7
 10
61.76484
 20
238.53070099999991
 30
0.0
 40
17.187435000000001
 50
90.000286999999986
 51
180.0002969999999
  0
ARC
  5
110
  8
0
 62
     7
 10
61.765118000000001
 20
238.53038699999999
 30
0.0
 40
19.999839999999988
 50
298.20569799999993
 51
28.206513000000001
  0
ARC
  5
111
  8
0
 62
     7
 10
61.764836000000003
 20
238.53052699999989
 30
0.0
 40
20.000022000000001
 50
28.205776
 51
118.205746
  0
ARC
  5
112
  8
0
 62
     7
 10
62.190978000000001
 20
238.27551199999999
 30
0.0
 40
20.427758999999998
 50
118.92101699999991
 51
179.2844409999999
  0
ARC
  5
113
  8
0
 62
     7
 10
62.192168000000002
 20
238.78626099999991
 30
0.0
 40
20.428955999999999
 50
180.71702500000001
 51
241.07702399999999
  0
ARC
  5
114
  8
0
 62
     7
 10
122.622106
 20
155.0336659999999
 30
0.0
 40
0.294499
 50
16.911351
 51
88.869669000000002
  0
ARC
  5
115
  8
0
 62
     7
 10
121.558027
 20
155.03062800000001
 30
0.0
 40
0.297677
 50
92.087899000000007
 51
177.91207099999991
  0
LINE
  5
116
  8
0
 62
     7
 10
121.261
 20
155.041
 30
0.0
 11
121.261
 21
153.1399999999999
 31
0.0
  0
LINE
  5
117
  8
0
 62
     7
 10
138.351
 20
136.95400000000001
 30
0.0
 11
138.351
 21
135.80699999999999
 31
0.0
  0
LINE
  5
118
  8
0
 62
     7
 10
137.64899999999989
 20
135.9499999999999
 30
0.0
 11
136.05099999999999
 21
137.185
 31
0.0
  0
LINE
  5
119
  8
0
 62
     7
 10
138.351
 20
136.95400000000001
 30
0.0
 11
136.851
 21
138.20500000000001
 31
0.0
  0
LINE
  5
11A
  8
0
 62
     7
 10
145.602
 20
138.20500000000001
 30
0.0
 11
144.10199999999989
 21
136.95400000000001
 31
0.0
  0
LINE
  5
11B
  8
0
 62
     7
 10
136.5389999999999
 20
133.20500000000001
 30
0.0
 11
136.5389999999999
 21
132.58000000000001
 31
0.0
  0
LINE
  5
11C
  8
0
 62
     7
 10
141.227
 20
132.58000000000001
 30
0.0
 11
136.5389999999999
 21
132.58000000000001
 31
0.0
  0
LINE
  5
11D
  8
0
 62
     7
 10
122.6279999999999
 20
155.32799999999989
 30
0.0
 11
121.547
 21
155.32799999999989
 31
0.0
  0
LINE
  5
11E
  8
0
 62
     7
 10
141.227
 20
156.33000000000001
 30
0.0
 11
119.9759999999999
 21
156.33000000000001
 31
0.0
  0
ARC
  5
11F
  8
0
 62
     7
 10
159.27354
 20
150.68813599999999
 30
0.0
 40
0.6413060000000002
 50
90.915591000000006
 51
155.489633
  0
ARC
  5
120
  8
0
 62
     7
 10
160.25969599999991
 20
151.7166939999999
 30
0.0
 40
0.387489
 50
271.619123
 51
351.2913549999999
  0
ARC
  5
121
  8
0
 62
     7
 10
145.5248409999999
 20
132.96913699999999
 30
0.0
 40
0.38958
 50
272.13042300000001
 51
357.86958700000002
  0
LINE
  5
122
  8
0
 62
     7
 10
161.227
 20
156.33000000000001
 30
0.0
 11
160.643
 21
151.6579999999999
 31
0.0
  0
ARC
  5
123
  8
0
 62
     7
 10
152.5600409999999
 20
158.5441439999999
 30
0.0
 40
28.607195000000001
 50
184.439843
 51
198.99787599999991
  0
ARC
  5
124
  8
0
 62
     7
 10
147.452876
 20
156.984962
 30
0.0
 40
23.271409999999999
 50
199.461477
 51
212.36045799999991
  0
ARC
  5
125
  8
0
 62
     7
 10
143.01616899999999
 20
154.358126
 30
0.0
 40
18.118407000000001
 50
212.8532669999999
 51
225.42418699999999
  0
ARC
  5
126
  8
0
 62
     7
 10
139.83098000000001
 20
151.31110699999991
 30
0.0
 40
13.713034
 50
225.96870799999999
 51
239.64685999999989
  0
ARC
  5
127
  8
0
 62
     7
 10
138.064413
 20
148.51896799999989
 30
0.0
 40
10.411543
 50
240.27132
 51
256.87774400000001
  0
ARC
  5
128
  8
0
 62
     7
 10
137.57637700000001
 20
146.87799099999989
 30
0.0
 40
8.7032229999999995
 50
257.55413799999991
 51
265.22192399999989
  0
ARC
  5
129
  8
0
 62
     7
 10
211.98757800000001
 20
167.50265899999991
 30
0.0
 40
89.940280000000001
 50
187.91386299999991
 51
188.4245169999999
  0
ARC
  5
12A
  8
0
 62
     7
 10
150.88841699999989
 20
158.45398700000001
 30
0.0
 40
28.174707999999999
 50
188.42524599999999
 51
190.9031159999999
  0
ARC
  5
12B
  8
0
 62
     7
 10
142.5750129999999
 20
156.95228399999999
 30
0.0
 40
19.72757
 50
191.18737599999989
 51
194.31820400000001
  0
ARC
  5
12C
  8
0
 62
     7
 10
160.44834899999989
 20
161.47229400000001
 30
0.0
 40
38.163561999999992
 50
194.25726900000001
 51
195.997613
  0
ARC
  5
12D
  8
0
 62
     7
 10
153.486963
 20
159.384963
 30
0.0
 40
30.896630999999999
 50
195.83449899999999
 51
203.33307600000001
  0
ARC
  5
12E
  8
0
 62
     7
 10
147.09591399999991
 20
156.76822999999999
 30
0.0
 40
23.992176000000001
 50
203.6402019999999
 51
210.72487599999999
  0
ARC
  5
12F
  8
0
 62
     7
 10
142.919287
 20
154.36587299999991
 30
0.0
 40
19.17454
 50
210.93035599999999
 51
221.19937300000001
  0
ARC
  5
130
  8
0
 62
     7
 10
140.00846799999991
 20
151.94506000000001
 30
0.0
 40
15.390129
 50
221.55613099999991
 51
236.80283700000001
  0
ARC
  5
131
  8
0
 62
     7
 10
139.199196
 20
150.90521599999991
 30
0.0
 40
14.077315999999991
 50
237.24181400000001
 51
257.0749689999999
  0
ARC
  5
132
  8
0
 62
     7
 10
129.89666199999999
 20
158.5425469999999
 30
0.0
 40
28.603141999999991
 50
341.00273199999992
 51
355.56275399999993
  0
ARC
  5
133
  8
0
 62
     7
 10
134.99727200000001
 20
156.98597100000001
 30
0.0
 40
23.274404999999991
 50
327.64129100000002
 51
340.53851200000003
  0
ARC
  5
134
  8
0
 62
     7
 10
139.4294129999999
 20
154.36402699999999
 30
0.0
 40
18.127883999999991
 50
314.57965799999988
 51
327.14389199999999
  0
ARC
  5
135
  8
0
 62
     7
 10
142.61895499999989
 20
151.31527199999991
 30
0.0
 40
13.718225
 50
300.35575999999998
 51
314.02871199999993
  0
ARC
  5
136
  8
0
 62
     7
 10
144.3895729999999
 20
148.51667800000001
 30
0.0
 40
10.409114000000001
 50
283.12042700000001
 51
299.73069800000002
  0
ARC
  5
137
  8
0
 62
     7
 10
144.87673000000001
 20
146.87799099999989
 30
0.0
 40
8.7032229999999995
 50
274.77809600000001
 51
282.44588199999993
  0
LINE
  5
138
  8
0
 62
     7
 10
120.601
 20
151.32900000000001
 30
0.0
 11
119.9759999999999
 21
156.33000000000001
 31
0.0
  0
ARC
  5
139
  8
0
 62
     7
 10
146.559619
 20
136.55827500000001
 30
0.0
 40
0.645661
 50
104.06856500000001
 51
178.59601599999999
  0
LINE
  5
13A
  8
0
 62
     7
 10
138.351
 20
133.74600000000001
 30
0.0
 11
138.351
 21
132.58000000000001
 31
0.0
  0
LINE
  5
13B
  8
0
 62
     7
 10
144.10199999999989
 20
136.95400000000001
 30
0.0
 11
144.10199999999989
 21
132.58000000000001
 31
0.0
  0
LINE
  5
13C
  8
0
 62
     7
 10
145.9139999999999
 20
136.5739999999999
 30
0.0
 11
145.9139999999999
 21
132.95500000000001
 31
0.0
  0
LINE
  5
13D
  8
0
 62
     7
 10
141.227
 20
132.58000000000001
 30
0.0
 11
145.5389999999999
 21
132.58000000000001
 31
0.0
  0
LINE
  5
13E
  8
0
  6
AIGENLINE002
 62
     7
 10
141.227
 20
129.79099999999991
 30
0.0
 11
141.227
 21
159.11299999999989
 31
0.0
  0
LINE
  5
13F
  8
0
 62
     7
 10
159.26299999999989
 20
151.32900000000001
 30
0.0
 11
160.27099999999999
 21
151.32900000000001
 31
0.0
  0
LINE
  5
140
  8
0
 62
     7
 10
136.851
 20
138.20500000000001
 30
0.0
 11
141.227
 21
138.20500000000001
 31
0.0
  0
LINE
  5
141
  8
0
 62
     7
 10
138.351
 20
136.95400000000001
 30
0.0
 11
141.227
 21
136.95400000000001
 31
0.0
  0
LINE
  5
142
  8
0
 62
     7
 10
141.227
 20
136.95400000000001
 30
0.0
 11
144.10199999999989
 21
136.95400000000001
 31
0.0
  0
LINE
  5
143
  8
0
 62
     7
 10
141.227
 20
138.20500000000001
 30
0.0
 11
145.602
 21
138.20500000000001
 31
0.0
  0
LINE
  5
144
  8
0
 62
     7
 10
124.702
 20
151.95400000000001
 30
0.0
 11
123.563
 21
151.68100000000001
 31
0.0
  0
LINE
  5
145
  8
0
 62
     7
 10
124.2439999999999
 20
154.45400000000001
 30
0.0
 11
123.042
 21
154.166
 31
0.0
  0
LINE
  5
146
  8
0
 62
     7
 10
141.227
 20
156.33000000000001
 30
0.0
 11
161.227
 21
156.33000000000001
 31
0.0
  0
ARC
  5
147
  8
0
 62
     7
 10
79.748529000000005
 20
150.688659
 30
0.0
 40
0.640783
 50
90.917083000000005
 51
155.51970900000001
  0
ARC
  5
148
  8
0
 62
     7
 10
80.798062000000002
 20
151.71669899999989
 30
0.0
 40
0.387494
 50
271.61978499999998
 51
351.29069299999998
  0
ARC
  5
149
  8
0
 62
     7
 10
66.062866999999997
 20
132.96913699999999
 30
0.0
 40
0.38958
 50
272.13042300000001
 51
357.86958700000002
  0
LINE
  5
14A
  8
0
 62
     7
 10
81.765000000000001
 20
156.33000000000001
 30
0.0
 11
81.181099999999986
 21
151.6579999999999
 31
0.0
  0
ARC
  5
14B
  8
0
 62
     7
 10
48.179941999999997
 20
159.742954
 30
0.0
 40
32.207636000000001
 50
338.02146399999998
 51
344.16502000000003
  0
ARC
  5
14C
  8
0
 62
     7
 10
54.657837000000001
 20
157.237369
 30
0.0
 40
25.262992000000001
 50
331.092354
 51
337.79257200000001
  0
ARC
  5
14D
  8
0
 62
     7
 10
59.403413
 20
154.697192
 30
0.0
 40
19.880918999999992
 50
320.59261099999998
 51
330.88964700000002
  0
ARC
  5
14E
  8
0
 62
     7
 10
62.700727000000001
 20
152.1292389999999
 30
0.0
 40
15.70340899999999
 50
307.02041600000001
 51
320.19453700000003
  0
ARC
  5
14F
  8
0
 62
     7
 10
63.810006999999992
 20
150.821799
 30
0.0
 40
13.99197
 50
282.92932899999988
 51
306.61721599999998
  0
ARC
  5
150
  8
0
 62
     7
 10
67.097065999999998
 20
136.55873799999989
 30
0.0
 40
0.645071
 50
104.0287009999999
 51
178.63587999999999
  0
LINE
  5
151
  8
0
 62
     7
 10
65.3446
 20
150.08000000000001
 30
0.0
 11
64.764799999999994
 21
134.0379999999999
 31
0.0
  0
LINE
  5
152
  8
0
 62
     7
 10
66.452200000000005
 20
136.5739999999999
 30
0.0
 11
66.452200000000005
 21
132.95500000000001
 31
0.0
  0
LINE
  5
153
  8
0
 62
     7
 10
61.764800000000001
 20
133.20500000000001
 30
0.0
 11
63.931399999999989
 21
133.20500000000001
 31
0.0
  0
LINE
  5
154
  8
0
 62
     7
 10
61.764800000000001
 20
132.58000000000001
 30
0.0
 11
66.077299999999994
 21
132.58000000000001
 31
0.0
  0
LINE
  5
155
  8
0
 62
     7
 10
66.5946
 20
151.32900000000001
 30
0.0
 11
80.808999999999983
 21
151.32900000000001
 31
0.0
  0
LINE
  5
156
  8
0
 62
     7
 10
61.764800000000001
 20
156.33000000000001
 30
0.0
 11
81.765000000000001
 21
156.33000000000001
 31
0.0
  0
ARC
  5
157
  8
0
 62
     7
 10
43.780974000000001
 20
150.688659
 30
0.0
 40
0.640783
 50
24.480271999999999
 51
89.082897000000003
  0
ARC
  5
158
  8
0
 62
     7
 10
42.73144099999999
 20
151.71669899999989
 30
0.0
 40
0.387494
 50
188.709327
 51
268.38023500000003
  0
ARC
  5
159
  8
0
 62
     7
 10
57.466636000000001
 20
132.96913699999999
 30
0.0
 40
0.38958
 50
182.13043300000001
 51
267.869597
  0
LINE
  5
15A
  8
0
 62
     7
 10
41.764499999999991
 20
156.33000000000001
 30
0.0
 11
42.348399999999998
 21
151.6579999999999
 31
0.0
  0
ARC
  5
15B
  8
0
 62
     7
 10
138.0853449999999
 20
133.73794599999991
 30
0.0
 40
0.266197
 50
1.6592439999999991
 51
79.760366000000005
  0
ARC
  5
15C
  8
0
 62
     7
 10
138.03110799999999
 20
136.38853899999989
 30
0.0
 40
0.5820220000000002
 50
228.91639900000001
 51
269.75536799999998
  0
ARC
  5
15D
  8
0
 62
     7
 10
124.639906
 20
153.1436139999999
 30
0.0
 40
3.3793589999999991
 50
180.05353599999989
 51
186.644182
  0
ARC
  5
15E
  8
0
 62
     7
 10
127.9801989999999
 20
153.4645689999999
 30
0.0
 40
6.7346940000000002
 50
186.068366
 51
193.79397299999999
  0
ARC
  5
15F
  8
0
 62
     7
 10
123.7534149999999
 20
152.41474999999991
 30
0.0
 40
2.3795319999999989
 50
193.51115799999999
 51
198.78809000000001
  0
ARC
  5
160
  8
0
 62
     7
 10
153.21269299999989
 20
160.502871
 30
0.0
 40
32.924979
 50
195.600585
 51
209.51825500000001
  0
ARC
  5
161
  8
0
 62
     7
 10
148.322326
 20
157.90185
 30
0.0
 40
27.388252000000001
 50
209.82385400000001
 51
218.66204499999989
  0
ARC
  5
162
  8
0
 62
     7
 10
144.05917999999991
 20
154.62562199999999
 30
0.0
 40
22.012906000000001
 50
218.93552799999989
 51
231.45379600000001
  0
ARC
  5
163
  8
0
 62
     7
 10
141.1672209999999
 20
151.2465029999999
 30
0.0
 40
17.568660000000001
 50
231.96299599999989
 51
249.048698
  0
ARC
  5
164
  8
0
 62
     7
 10
140.51033200000001
 20
149.89897099999999
 30
0.0
 40
16.075872
 50
249.51778999999999
 51
261.49460199999999
  0
ARC
  5
165
  8
0
 62
     7
 10
148.11337399999991
 20
157.69089199999991
 30
0.0
 40
28.238119999999999
 50
193.019463
 51
217.45182
  0
ARC
  5
166
  8
0
 62
     7
 10
144.23230399999991
 20
154.91501099999999
 30
0.0
 40
23.469598000000001
 50
217.8335899999999
 51
231.38447199999999
  0
ARC
  5
167
  8
0
 62
     7
 10
141.21389999999991
 20
151.40154999999999
 30
0.0
 40
18.84132
 50
231.88840099999999
 51
247.26823899999999
  0
ARC
  5
168
  8
0
 62
     7
 10
140.12555599999999
 20
149.170525
 30
0.0
 40
16.36365
 50
247.76439099999999
 51
257.33907699999992
  0
LINE
  5
169
  8
0
 62
     7
 10
138.351
 20
135.80699999999999
 30
0.0
 11
138.029
 21
135.80699999999999
 31
0.0
  0
ARC
  5
16A
  8
0
 62
     7
 10
128.98015000000001
 20
159.3784939999999
 30
0.0
 40
30.881059999999991
 50
336.667553
 51
344.169802
  0
ARC
  5
16B
  8
0
 62
     7
 10
135.34842900000001
 20
156.77205799999999
 30
0.0
 40
24.001591000000001
 50
329.277872
 51
336.35968100000002
  0
ARC
  5
16C
  8
0
 62
     7
 10
139.537181
 20
154.36308299999999
 30
0.0
 40
19.170148000000001
 50
318.80024100000003
 51
329.07152200000002
  0
ARC
  5
16D
  8
0
 62
     7
 10
142.44635500000001
 20
151.94293400000001
 30
0.0
 40
15.387411
 50
303.19617
 51
318.445494
  0
ARC
  5
16E
  8
0
 62
     7
 10
143.25390999999999
 20
150.90521599999991
 30
0.0
 40
14.077315999999991
 50
282.92505099999988
 51
302.75820599999997
  0
ARC
  5
16F
  8
0
 62
     7
 10
75.349560999999994
 20
159.742954
 30
0.0
 40
32.207636000000001
 50
195.83499900000001
 51
201.97855599999991
  0
ARC
  5
170
  8
0
 62
     7
 10
68.871666000000005
 20
157.237369
 30
0.0
 40
25.262992000000001
 50
202.207448
 51
208.90766499999989
  0
ARC
  5
171
  8
0
 62
     7
 10
64.126089000000007
 20
154.697192
 30
0.0
 40
19.880918999999992
 50
209.1103729999999
 51
219.40740899999989
  0
ARC
  5
172
  8
0
 62
     7
 10
60.828775
 20
152.1292389999999
 30
0.0
 40
15.70340899999999
 50
219.80548300000001
 51
232.97960399999999
  0
ARC
  5
173
  8
0
 62
     7
 10
59.719495000000002
 20
150.821799
 30
0.0
 40
13.99197
 50
233.38280399999991
 51
257.07069000000001
  0
LINE
  5
174
  8
0
 62
     7
 10
43.422299999999993
 20
164.51900000000001
 30
0.0
 11
41.764499999999991
 21
164.0749999999999
 31
0.0
  0
LINE
  5
175
  8
0
 62
     7
 10
41.764499999999991
 20
164.0749999999999
 30
0.0
 11
43.422299999999993
 21
163.63
 31
0.0
  0
LINE
  5
176
  8
0
 62
     7
 10
43.422299999999993
 20
163.63
 30
0.0
 11
43.422299999999993
 21
164.51900000000001
 31
0.0
  0
LINE
  5
177
  8
0
 62
     7
 10
80.106899999999996
 20
163.642
 30
0.0
 11
81.764700000000005
 21
164.0859999999999
 31
0.0
  0
LINE
  5
178
  8
0
 62
     7
 10
81.764700000000005
 20
164.0859999999999
 30
0.0
 11
80.106899999999996
 21
164.52999999999989
 31
0.0
  0
LINE
  5
179
  8
0
 62
     7
 10
80.106899999999996
 20
164.52999999999989
 30
0.0
 11
80.106899999999996
 21
163.642
 31
0.0
  0
LINE
  5
17A
  8
0
 62
     7
 10
41.764499999999991
 20
164.08000000000001
 30
0.0
 11
81.764700000000005
 21
164.08000000000001
 31
0.0
  0
LINE
  5
17B
  8
0
 62
     7
 10
81.764700000000005
 20
156.98400000000001
 30
0.0
 11
81.764700000000005
 21
164.613
 31
0.0
  0
LINE
  5
17C
  8
0
 62
     7
 10
41.764499999999991
 20
156.98400000000001
 30
0.0
 11
41.764499999999991
 21
164.613
 31
0.0
  0
LINE
  5
17D
  8
0
 62
     7
 10
166.59
 20
154.672
 30
0.0
 11
167.03399999999999
 21
156.33000000000001
 31
0.0
  0
LINE
  5
17E
  8
0
 62
     7
 10
167.03399999999999
 20
156.33000000000001
 30
0.0
 11
167.47799999999989
 21
154.672
 31
0.0
  0
LINE
  5
17F
  8
0
 62
     7
 10
167.47799999999989
 20
154.672
 30
0.0
 11
166.59
 21
154.672
 31
0.0
  0
LINE
  5
180
  8
0
 62
     7
 10
167.46700000000001
 20
152.988
 30
0.0
 11
167.023
 21
151.32900000000001
 31
0.0
  0
LINE
  5
181
  8
0
 62
     7
 10
167.023
 20
151.32900000000001
 30
0.0
 11
166.57900000000001
 21
152.988
 31
0.0
  0
LINE
  5
182
  8
0
 62
     7
 10
166.57900000000001
 20
152.988
 30
0.0
 11
167.46700000000001
 21
152.988
 31
0.0
  0
LINE
  5
183
  8
0
 62
     7
 10
167.02799999999991
 20
156.33000000000001
 30
0.0
 11
167.02799999999991
 21
151.33000000000001
 31
0.0
  0
LINE
  5
184
  8
0
 62
     7
 10
161.411
 20
151.32900000000001
 30
0.0
 11
167.68599999999989
 21
151.32900000000001
 31
0.0
  0
LINE
  5
185
  8
0
 62
     7
 10
162.30500000000001
 20
156.33000000000001
 30
0.0
 11
167.56099999999989
 21
156.33000000000001
 31
0.0
  0
LINE
  5
186
  8
0
 62
     7
 10
139.5689999999999
 20
125.306
 30
0.0
 11
141.227
 21
124.8609999999999
 31
0.0
  0
LINE
  5
187
  8
0
 62
     7
 10
141.227
 20
124.8609999999999
 30
0.0
 11
139.5689999999999
 21
124.41799999999991
 31
0.0
  0
LINE
  5
188
  8
0
 62
     7
 10
139.5689999999999
 20
124.41799999999991
 30
0.0
 11
139.5689999999999
 21
125.306
 31
0.0
  0
LINE
  5
189
  8
0
 62
     7
 10
121.6339999999999
 20
124.428
 30
0.0
 11
119.9759999999999
 21
124.872
 31
0.0
  0
LINE
  5
18A
  8
0
 62
     7
 10
119.9759999999999
 20
124.872
 30
0.0
 11
121.6339999999999
 21
125.31699999999999
 31
0.0
  0
LINE
  5
18B
  8
0
 62
     7
 10
121.6339999999999
 20
125.31699999999999
 30
0.0
 11
121.6339999999999
 21
124.428
 31
0.0
  0
LINE
  5
18C
  8
0
 62
     7
 10
141.227
 20
124.867
 30
0.0
 11
119.9759999999999
 21
124.867
 31
0.0
  0
LINE
  5
18D
  8
0
 62
     7
 10
119.9759999999999
 20
151.5629999999999
 30
0.0
 11
119.9759999999999
 21
124.334
 31
0.0
  0
LINE
  5
18E
  8
0
 62
     7
 10
141.227
 20
129.12100000000001
 30
0.0
 11
141.227
 21
124.334
 31
0.0
  0
LINE
  5
18F
  8
0
 62
     7
 10
113.37899999999991
 20
154.67099999999999
 30
0.0
 11
113.82299999999989
 21
156.33000000000001
 31
0.0
  0
LINE
  5
190
  8
0
 62
     7
 10
113.82299999999989
 20
156.33000000000001
 30
0.0
 11
114.2679999999999
 21
154.67099999999999
 31
0.0
  0
LINE
  5
191
  8
0
 62
     7
 10
114.2679999999999
 20
154.67099999999999
 30
0.0
 11
113.37899999999991
 21
154.67099999999999
 31
0.0
  0
LINE
  5
192
  8
0
 62
     7
 10
114.25700000000001
 20
134.238
 30
0.0
 11
113.8129999999999
 21
132.58000000000001
 31
0.0
  0
LINE
  5
193
  8
0
 62
     7
 10
113.8129999999999
 20
132.58000000000001
 30
0.0
 11
113.36799999999999
 21
134.238
 31
0.0
  0
LINE
  5
194
  8
0
 62
     7
 10
113.36799999999999
 20
134.238
 30
0.0
 11
114.25700000000001
 21
134.238
 31
0.0
  0
LINE
  5
195
  8
0
 62
     7
 10
113.8179999999999
 20
156.33000000000001
 30
0.0
 11
113.8179999999999
 21
132.58000000000001
 31
0.0
  0
LINE
  5
196
  8
0
 62
     7
 10
113.2849999999999
 20
156.33000000000001
 30
0.0
 11
119.191
 21
156.33000000000001
 31
0.0
  0
LINE
  5
197
  8
0
 62
     7
 10
113.2849999999999
 20
132.58000000000001
 30
0.0
 11
134.81700000000001
 21
132.58000000000001
 31
0.0
  0
LINE
  5
198
  8
0
 62
     7
 10
139.66499999999991
 20
139.863
 30
0.0
 11
139.221
 21
138.20500000000001
 31
0.0
  0
LINE
  5
199
  8
0
 62
     7
 10
139.221
 20
138.20500000000001
 30
0.0
 11
138.77699999999999
 21
139.863
 31
0.0
  0
LINE
  5
19A
  8
0
 62
     7
 10
138.77699999999999
 20
139.863
 30
0.0
 11
139.66499999999991
 21
139.863
 31
0.0
  0
LINE
  5
19B
  8
0
 62
     7
 10
138.7879999999999
 20
154.67099999999999
 30
0.0
 11
139.23199999999991
 21
156.33000000000001
 31
0.0
  0
LINE
  5
19C
  8
0
 62
     7
 10
139.23199999999991
 20
156.33000000000001
 30
0.0
 11
139.67599999999999
 21
154.67099999999999
 31
0.0
  0
LINE
  5
19D
  8
0
 62
     7
 10
139.67599999999999
 20
154.67099999999999
 30
0.0
 11
138.7879999999999
 21
154.67099999999999
 31
0.0
  0
LINE
  5
19E
  8
0
 62
     7
 10
139.226
 20
138.20500000000001
 30
0.0
 11
139.226
 21
156.33000000000001
 31
0.0
  0
LINE
  5
19F
  8
0
 62
     7
 10
124.039
 20
157.74199999999999
 30
0.0
 11
124.039
 21
165.19099999999989
 31
0.0
  0
LINE
  5
1A0
  8
0
 62
     7
 10
158.4139999999999
 20
157.4129999999999
 30
0.0
 11
158.4139999999999
 21
165.2409999999999
 31
0.0
  0
LINE
  5
1A1
  8
0
 62
     7
 10
118.3179999999999
 20
165.09700000000001
 30
0.0
 11
119.9759999999999
 21
164.65299999999999
 31
0.0
  0
LINE
  5
1A2
  8
0
 62
     7
 10
119.9759999999999
 20
164.65299999999999
 30
0.0
 11
118.3179999999999
 21
164.209
 31
0.0
  0
LINE
  5
1A3
  8
0
 62
     7
 10
118.3179999999999
 20
164.209
 30
0.0
 11
118.3179999999999
 21
165.09700000000001
 31
0.0
  0
LINE
  5
1A4
  8
0
 62
     7
 10
157.38099999999989
 20
165.09700000000001
 30
0.0
 11
159.03899999999999
 21
164.65299999999999
 31
0.0
  0
LINE
  5
1A5
  8
0
 62
     7
 10
159.03899999999999
 20
164.65299999999999
 30
0.0
 11
157.38099999999989
 21
164.209
 31
0.0
  0
LINE
  5
1A6
  8
0
 62
     7
 10
157.38099999999989
 20
164.209
 30
0.0
 11
157.38099999999989
 21
165.09700000000001
 31
0.0
  0
LINE
  5
1A7
  8
0
 62
     7
 10
162.88499999999991
 20
164.22
 30
0.0
 11
161.227
 21
164.66399999999999
 31
0.0
  0
LINE
  5
1A8
  8
0
 62
     7
 10
161.227
 20
164.66399999999999
 30
0.0
 11
162.88499999999991
 21
165.108
 31
0.0
  0
LINE
  5
1A9
  8
0
 62
     7
 10
162.88499999999991
 20
165.108
 30
0.0
 11
162.88499999999991
 21
164.22
 31
0.0
  0
LINE
  5
1AA
  8
0
 62
     7
 10
125.072
 20
164.22
 30
0.0
 11
123.414
 21
164.66399999999999
 31
0.0
  0
LINE
  5
1AB
  8
0
 62
     7
 10
123.414
 20
164.66399999999999
 30
0.0
 11
125.072
 21
165.108
 31
0.0
  0
LINE
  5
1AC
  8
0
 62
     7
 10
125.072
 20
165.108
 30
0.0
 11
125.072
 21
164.22
 31
0.0
  0
LINE
  5
1AD
  8
0
 62
     7
 10
169.79699999999991
 20
164.65899999999999
 30
0.0
 11
111.315
 21
164.65899999999999
 31
0.0
  0
LINE
  5
1AE
  8
0
 62
     7
 10
159.5689999999999
 20
173.125
 30
0.0
 11
161.227
 21
172.6809999999999
 31
0.0
  0
LINE
  5
1AF
  8
0
 62
     7
 10
161.227
 20
172.6809999999999
 30
0.0
 11
159.5689999999999
 21
172.2359999999999
 31
0.0
  0
LINE
  5
1B0
  8
0
 62
     7
 10
159.5689999999999
 20
172.2359999999999
 30
0.0
 11
159.5689999999999
 21
173.125
 31
0.0
  0
LINE
  5
1B1
  8
0
 62
     7
 10
121.6339999999999
 20
172.24700000000001
 30
0.0
 11
119.9759999999999
 21
172.69099999999989
 31
0.0
  0
LINE
  5
1B2
  8
0
 62
     7
 10
119.9759999999999
 20
172.69099999999989
 30
0.0
 11
121.6339999999999
 21
173.136
 31
0.0
  0
LINE
  5
1B3
  8
0
 62
     7
 10
121.6339999999999
 20
173.136
 30
0.0
 11
121.6339999999999
 21
172.24700000000001
 31
0.0
  0
LINE
  5
1B4
  8
0
 62
     7
 10
161.227
 20
172.68599999999989
 30
0.0
 11
119.9759999999999
 21
172.68599999999989
 31
0.0
  0
LINE
  5
1B5
  8
0
 62
     7
 10
119.9759999999999
 20
157.1639999999999
 30
0.0
 11
119.9759999999999
 21
173.21899999999999
 31
0.0
  0
LINE
  5
1B6
  8
0
 62
     7
 10
161.227
 20
157.1639999999999
 30
0.0
 11
161.227
 21
173.21899999999999
 31
0.0
  0
ARC
  5
1B7
  8
0
 62
     7
 10
56.432437
 20
136.55873799999989
 30
0.0
 40
0.645071
 50
1.3641179999999991
 51
75.971261000000013
  0
LINE
  5
1B8
  8
0
 62
     7
 10
57.077300000000001
 20
136.5739999999999
 30
0.0
 11
57.077300000000001
 21
132.95500000000001
 31
0.0
  0
ARC
  5
1B9
  8
0
  6
AIGENLINE003
 62
     7
 10
61.716848999999989
 20
153.1562899999999
 30
0.0
 40
1.298675
 50
2.1138789999999998
 51
87.886111
  0
ARC
  5
1BA
  8
0
  6
AIGENLINE003
 62
     7
 10
61.81303599999999
 20
153.15590800000001
 30
0.0
 40
1.299070999999999
 50
92.130084999999994
 51
177.86988500000001
  0
ARC
  5
1BB
  8
0
  6
AIGENLINE003
 62
     7
 10
61.764922999999989
 20
153.2040199999999
 30
0.0
 40
1.2500610000000001
 50
179.992075
 51
269.99212499999999
  0
ARC
  5
1BC
  8
0
  6
AIGENLINE003
 62
     7
 10
61.764578999999998
 20
153.2040199999999
 30
0.0
 40
1.2500610000000001
 50
270.00791499999991
 51
0.007885
  0
LINE
  5
1BD
  8
0
  6
AIGENLINE002
 62
     7
 10
64.456100000000006
 20
153.20500000000001
 30
0.0
 11
59.071399999999997
 21
153.20500000000001
 31
0.0
  0
LINE
  5
1BE
  8
0
 62
     7
 10
61.764800000000001
 20
132.58000000000001
 30
0.0
 11
57.452199999999991
 21
132.58000000000001
 31
0.0
  0
LINE
  5
1BF
  8
0
  6
AIGENLINE002
 62
     7
 10
61.764800000000001
 20
130.19
 30
0.0
 11
61.764800000000001
 21
158.26299999999989
 31
0.0
  0
LINE
  5
1C0
  8
0
 62
     7
 10
56.934899999999999
 20
151.32900000000001
 30
0.0
 11
42.720500000000001
 21
151.32900000000001
 31
0.0
  0
LINE
  5
1C1
  8
0
 62
     7
 10
61.764800000000001
 20
156.33000000000001
 30
0.0
 11
41.764499999999991
 21
156.33000000000001
 31
0.0
  0
LINE
  5
1C2
  8
0
 62
     7
 10
41.827899999999993
 20
243.82900000000001
 30
0.0
 11
41.827899999999993
 21
272.69900000000001
 31
0.0
  0
LINE
  5
1C3
  8
0
 62
     7
 10
43.485599999999991
 20
272.60500000000002
 30
0.0
 11
41.827899999999993
 21
272.161
 31
0.0
  0
LINE
  5
1C4
  8
0
 62
     7
 10
41.827899999999993
 20
272.161
 30
0.0
 11
43.485599999999991
 21
271.71699999999993
 31
0.0
  0
LINE
  5
1C5
  8
0
 62
     7
 10
43.485599999999991
 20
271.71699999999993
 30
0.0
 11
43.485599999999991
 21
272.60500000000002
 31
0.0
  0
LINE
  5
1C6
  8
0
 62
     7
 10
80.170299999999997
 20
271.72800000000001
 30
0.0
 11
81.828100000000006
 21
272.17200000000003
 31
0.0
  0
LINE
  5
1C7
  8
0
 62
     7
 10
81.828100000000006
 20
272.17200000000003
 30
0.0
 11
80.170299999999997
 21
272.61599999999987
 31
0.0
  0
LINE
  5
1C8
  8
0
 62
     7
 10
80.170299999999997
 20
272.61599999999987
 30
0.0
 11
80.170299999999997
 21
271.72800000000001
 31
0.0
  0
LINE
  5
1C9
  8
0
 62
     7
 10
41.827899999999993
 20
272.16699999999997
 30
0.0
 11
81.828100000000006
 21
272.16699999999997
 31
0.0
  0
LINE
  5
1CA
  8
0
 62
     7
 10
81.828100000000006
 20
243.82900000000001
 30
0.0
 11
81.828100000000006
 21
272.69900000000001
 31
0.0
  0
LINE
  5
1CB
  8
0
 62
     7
 10
46.298599999999993
 20
265.89799999999991
 30
0.0
 11
44.640500000000003
 21
265.45400000000001
 31
0.0
  0
LINE
  5
1CC
  8
0
 62
     7
 10
44.640500000000003
 20
265.45400000000001
 30
0.0
 11
46.298599999999993
 21
265.00999999999999
 31
0.0
  0
LINE
  5
1CD
  8
0
 62
     7
 10
46.298599999999993
 20
265.00999999999999
 30
0.0
 11
46.298599999999993
 21
265.89799999999991
 31
0.0
  0
LINE
  5
1CE
  8
0
 62
     7
 10
77.357699999999994
 20
265.0209999999999
 30
0.0
 11
79.015500000000003
 21
265.46499999999992
 31
0.0
  0
LINE
  5
1CF
  8
0
 62
     7
 10
79.015500000000003
 20
265.46499999999992
 30
0.0
 11
77.357699999999994
 21
265.90899999999988
 31
0.0
  0
LINE
  5
1D0
  8
0
 62
     7
 10
77.357699999999994
 20
265.90899999999988
 30
0.0
 11
77.357699999999994
 21
265.0209999999999
 31
0.0
  0
LINE
  5
1D1
  8
0
 62
     7
 10
44.640500000000003
 20
265.45999999999992
 30
0.0
 11
79.015500000000003
 21
265.45999999999992
 31
0.0
  0
LINE
  5
1D2
  8
0
 62
     7
 10
44.640500000000003
 20
243.3829999999999
 30
0.0
 11
44.640500000000003
 21
265.99200000000002
 31
0.0
  0
LINE
  5
1D3
  8
0
 62
     7
 10
79.015500000000003
 20
243.3829999999999
 30
0.0
 11
79.015500000000003
 21
265.99200000000002
 31
0.0
  0
LINE
  5
1D4
  8
0
 62
     7
 10
48.813499999999998
 20
232.4679999999999
 30
0.0
 11
55.701999999999991
 21
232.4679999999999
 31
0.0
  0
LINE
  5
1D5
  8
0
 62
     7
 10
58.87360000000001
 20
235.01099999999991
 30
0.0
 11
59.732100000000003
 21
236.49799999999999
 31
0.0
  0
LINE
  5
1D6
  8
0
 62
     7
 10
59.732100000000003
 20
236.49799999999999
 30
0.0
 11
58.24519999999999
 21
235.63900000000001
 31
0.0
  0
LINE
  5
1D7
  8
0
 62
     7
 10
58.24519999999999
 20
235.63900000000001
 30
0.0
 11
58.87360000000001
 21
235.01099999999991
 31
0.0
  0
LINE
  5
1D8
  8
0
 62
     7
 10
64.655900000000003
 20
242.05000000000001
 30
0.0
 11
63.797699999999999
 21
240.56399999999999
 31
0.0
  0
LINE
  5
1D9
  8
0
 62
     7
 10
63.797699999999999
 20
240.56399999999999
 30
0.0
 11
65.284300000000002
 21
241.42199999999991
 31
0.0
  0
LINE
  5
1DA
  8
0
 62
     7
 10
65.284300000000002
 20
241.42199999999991
 30
0.0
 11
64.655900000000003
 21
242.05000000000001
 31
0.0
  0
LINE
  5
1DB
  8
0
 62
     7
 10
68.302199999999999
 20
245.0679999999999
 30
0.0
 11
55.701999999999991
 21
232.4679999999999
 31
0.0
  0
ARC
  5
1DC
  8
0
 62
     7
 10
61.764578999999998
 20
238.530789
 30
0.0
 40
2.8751220000000002
 50
180.00344299999989
 51
270.00345299999992
  0
ARC
  5
1DD
  8
0
 62
     7
 10
61.764751000000011
 20
238.530618
 30
0.0
 40
2.8749509999999989
 50
270.00002000000001
 51
359.99998999999991
  0
ARC
  5
1DE
  8
0
 62
     7
 10
61.764751000000011
 20
238.53061700000001
 30
0.0
 40
2.8749509999999989
 50
0.00001
 51
89.999980000000008
  0
ARC
  5
1DF
  8
0
 62
     7
 10
61.764580000000002
 20
238.53044499999999
 30
0.0
 40
2.875122999999999
 50
89.996566999999999
 51
179.99653699999999
  0
ARC
  5
1E0
  8
0
 62
     7
 10
61.764751000000011
 20
238.53061700000001
 30
0.0
 40
4.6874260000000003
 50
179.99996999999991
 51
270.00002000000001
  0
ARC
  5
1E1
  8
0
 62
     7
 10
61.764751000000011
 20
238.530618
 30
0.0
 40
4.6874269999999987
 50
270.00002000000001
 51
359.99998999999991
  0
ARC
  5
1E2
  8
0
 62
     7
 10
61.764751000000011
 20
238.53061700000001
 30
0.0
 40
4.6874269999999987
 50
0.00001
 51
89.999980000000008
  0
ARC
  5
1E3
  8
0
 62
     7
 10
61.764752000000001
 20
238.53061700000001
 30
0.0
 40
4.6874269999999987
 50
90.0
 51
179.99996999999991
  0
LINE
  5
1E4
  8
_________2
 62
     7
 10
210.24000000000001
 20
148.93100000000001
 30
0.0
 11
188.49000000000001
 21
148.93100000000001
 31
0.0
  0
LINE
  5
1E5
  8
_________2
 62
     7
 10
105.2389999999999
 20
17.428499999999989
 30
0.0
 11
105.2389999999999
 21
0.4482100000000001
 31
0.0
  0
LINE
  5
1E6
  8
_________2
 62
     7
 10
105.2389999999999
 20
297.44999999999987
 30
0.0
 11
105.2389999999999
 21
280.42999999999989
 31
0.0
  0
LINE
  5
1E7
  8
_________2
 62
     7
 10
21.988499999999991
 20
148.93100000000001
 30
0.0
 11
0.238058
 21
148.93100000000001
 31
0.0
  0
LINE
  5
1E8
  8
_________2
 62
     7
 10
81.679900000000004
 20
51.324300000000001
 30
0.0
 11
79.493700000000004
 21
51.324300000000001
 31
0.0
  0
LINE
  5
1E9
  8
_________2
 62
     7
 10
82.172600000000017
 20
51.324300000000001
 30
0.0
 11
81.920400000000001
 21
51.324300000000001
 31
0.0
  0
LINE
  5
1EA
  8
_________2
 62
     7
 10
82.665199999999984
 20
51.324300000000001
 30
0.0
 11
85.590100000000007
 21
51.324300000000001
 31
0.0
  0
LINE
  5
1EB
  8
_________2
 62
     7
 10
82.172600000000017
 20
51.324300000000001
 30
0.0
 11
82.424800000000005
 21
51.324300000000001
 31
0.0
  0
LINE
  5
1EC
  8
_________2
 62
     7
 10
75.776399999999995
 20
51.324300000000001
 30
0.0
 11
73.589399999999998
 21
51.324300000000001
 31
0.0
  0
LINE
  5
1ED
  8
_________2
 62
     7
 10
76.2684
 20
51.324300000000001
 30
0.0
 11
76.016900000000007
 21
51.324300000000001
 31
0.0
  0
LINE
  5
1EE
  8
_________2
 62
     7
 10
76.2684
 20
51.817
 30
0.0
 11
76.2684
 21
54.003900000000002
 31
0.0
  0
LINE
  5
1EF
  8
_________2
 62
     7
 10
76.2684
 20
51.324300000000001
 30
0.0
 11
76.2684
 21
51.576500000000003
 31
0.0
  0
LINE
  5
1F0
  8
_________2
 62
     7
 10
76.76100000000001
 20
51.324300000000001
 30
0.0
 11
78.947999999999993
 21
51.324300000000001
 31
0.0
  0
LINE
  5
1F1
  8
_________2
 62
     7
 10
76.2684
 20
51.324300000000001
 30
0.0
 11
76.520499999999998
 21
51.324300000000001
 31
0.0
  0
LINE
  5
1F2
  8
_________2
 62
     7
 10
76.2684
 20
50.832399999999993
 30
0.0
 11
76.2684
 21
48.645400000000002
 31
0.0
  0
LINE
  5
1F3
  8
_________2
 62
     7
 10
76.2684
 20
51.324300000000001
 30
0.0
 11
76.2684
 21
51.072800000000001
 31
0.0
  0
LINE
  5
1F4
  8
_________2
 62
     7
 10
79.979399999999984
 20
50.104799999999997
 30
0.0
 11
85.157399999999996
 21
49.240000000000002
 31
0.0
  0
LINE
  5
1F5
  8
_________2
 62
     7
 10
79.979399999999984
 20
52.543900000000001
 30
0.0
 11
85.157399999999996
 21
53.409300000000002
 31
0.0
  0
LINE
  5
1F6
  8
_________2
 62
     7
 10
85.157399999999996
 20
49.240000000000002
 30
0.0
 11
85.157399999999996
 21
53.409300000000002
 31
0.0
  0
LINE
  5
1F7
  8
_________2
 62
     7
 10
79.979399999999984
 20
50.104799999999997
 30
0.0
 11
79.979399999999984
 21
52.543900000000001
 31
0.0
  0
ARC
  5
1F8
  8
_________2
 62
     7
 10
76.222110000000001
 20
51.277366999999991
 30
0.0
 40
1.2673709999999989
 50
2.1232950000000002
 51
87.909056000000007
  0
ARC
  5
1F9
  8
_________2
 62
     7
 10
76.315273000000005
 20
51.277400999999998
 30
0.0
 40
1.267363
 50
92.121785999999986
 51
177.878185
  0
ARC
  5
1FA
  8
_________2
 62
     7
 10
76.315273000000005
 20
51.371245999999992
 30
0.0
 40
1.267363
 50
182.12181499999991
 51
267.87821400000001
  0
ARC
  5
1FB
  8
_________2
 62
     7
 10
76.221461000000005
 20
51.371928999999987
 30
0.0
 40
1.2680439999999991
 50
272.11916400000001
 51
357.84848499999993
  0
ARC
  5
1FC
  8
_________2
 62
     7
 10
76.268349999999984
 20
51.324323
 30
0.0
 40
2.0849849999999992
 50
0.00001
 51
89.999980000000008
  0
ARC
  5
1FD
  8
_________2
 62
     7
 10
76.348388
 20
51.245001999999992
 30
0.0
 40
2.1657860000000002
 50
92.117855000000034
 51
177.90105299999991
  0
ARC
  5
1FE
  8
_________2
 62
     7
 10
76.348354
 20
51.404327000000002
 30
0.0
 40
2.1657779999999991
 50
182.11700400000001
 51
267.88302499999992
  0
ARC
  5
1FF
  8
_________2
 62
     7
 10
76.188378999999983
 20
51.405009999999997
 30
0.0
 40
2.1664590000000001
 50
272.11546800000002
 51
357.86560400000002
  0
TEXT
  5
200
  8
_________2
 62
     7
 10
109.5439999999999
 20
23.199100000000001
 30
0.0
 40
3.0923400000000001
  1
図番
 41
0.5
  0
LINE
  5
201
  8
_________2
 62
     7
 10
108.4889999999999
 20
27.4283
 30
0.0
 11
188.49000000000001
 21
27.4283
 31
0.0
  0
TEXT
  5
202
  8
_________2
 62
     7
 10
109.5439999999999
 20
33.198900000000002
 30
0.0
 40
3.0923400000000001
  1
品番
 41
0.5
  0
TEXT
  5
203
  8
_________2
 62
     7
 10
109.5439999999999
 20
53.337699999999998
 30
0.0
 40
3.0923400000000001
  1
名称
 41
0.5
  0
TEXT
  5
204
  8
_________2
 62
     7
 10
96.784058333333334
 20
48.341500000000011
 30
0.0
 40
3.6545800000000002
  1
mm
 41
0.5
 72
     1
 11
98.306799999999996
 21
48.341500000000011
 31
0.0
  0
TEXT
  5
205
  8
_________2
 62
     7
 10
90.582099999999997
 20
53.337699999999998
 30
0.0
 40
3.0923400000000001
  1
単位
 41
0.5
  0
TEXT
  5
206
  8
_________2
 62
     7
 10
90.582099999999997
 20
40.930399999999999
 30
0.0
 40
3.0923400000000001
  1
尺度
 41
0.5
  0
TEXT
  5
207
  8
_________2
 62
     7
 10
95.487658666666675
 20
34.73749999999999
 30
0.0
 40
3.6545800000000002
  1
1 ： 8
 41
0.5
 72
     1
 11
98.898600000000002
 21
34.73749999999999
 31
0.0
  0
TEXT
  5
208
  8
_________2
 62
     7
 10
137.50183749999999
 20
30.627400000000002
 30
0.0
 40
3.9357000000000002
  1
DV031927R-00
 41
0.5
 72
     1
 11
148.489
 21
30.627400000000002
 31
0.0
  0
TEXT
  5
209
  8
_________2
 62
     7
 10
140.12563750000001
 20
20.626999999999988
 30
0.0
 40
3.9357000000000002
  1
DV031927R
 41
0.5
 72
     1
 11
148.489
 21
20.626999999999988
 31
0.0
  0
TEXT
  5
20A
  8
_________2
 62
     7
 10
29.525700000000001
 20
22.226900000000001
 30
0.0
 40
3.9357000000000002
  1
実容量：3.3L、重量：4.8kg、オーバーフロー付
 41
0.5
  0
TEXT
  5
20B
  8
_________2
 62
     7
 10
114.11799999999999
 20
45.7453
 30
0.0
 40
3.9357000000000002
  1
アーキテック アンダーカウンター式洗面器
 41
0.5
  0
TEXT
  5
20C
  8
_________2
 62
     7
 10
44.364200333333329
 20
35.122599999999991
 30
0.0
 40
3.6545800000000002
  1
早川
 41
0.5
 72
     1
 11
46.252400000000002
 21
35.122599999999991
 31
0.0
  0
TEXT
  5
20D
  8
_________2
 62
     7
 10
25.72929066666666
 20
35.122599999999991
 30
0.0
 40
3.6545800000000002
  1
石原
 41
0.5
 72
     1
 11
27.6784
 21
35.122599999999991
 31
0.0
  0
TEXT
  5
20E
  8
_________2
 62
     7
 10
72.724699999999999
 20
34.73749999999999
 30
0.0
 40
3.6545800000000002
  1
13.12.05
 41
0.5
  0
TEXT
  5
20F
  8
_________2
 62
     7
 10
71.531999999999996
 20
40.930399999999999
 30
0.0
 40
3.0923400000000001
  1
日付
 41
0.5
  0
TEXT
  5
210
  8
_________2
 62
     7
 10
34.578299999999992
 20
40.930399999999999
 30
0.0
 40
3.0923400000000001
  1
検図
 41
0.5
  0
TEXT
  5
211
  8
_________2
 62
     7
 10
22.960000000000001
 20
26.730999999999991
 30
0.0
 40
3.0923400000000001
  1
備考
 41
0.5
  0
TEXT
  5
212
  8
_________2
 62
     7
 10
22.960000000000001
 20
40.930399999999999
 30
0.0
 40
3.0923400000000001
  1
製図
 41
0.5
  0
TEXT
  5
213
  8
_________2
 62
     7
 10
28.727365333333339
 20
49.456400000000002
 30
0.0
 40
4.4979399999999989
  1
セラトレーディング株式会社
 41
0.5
 72
     1
 11
46.119399999999992
 21
49.456400000000002
 31
0.0
  0
LINE
  5
214
  8
_________2
 62
     7
 10
188.49000000000001
 20
17.428499999999989
 30
0.0
 11
21.988499999999991
 21
17.428499999999989
 31
0.0
  0
LINE
  5
215
  8
_________2
 62
     7
 10
21.988499999999991
 20
17.428499999999989
 30
0.0
 11
21.988499999999991
 21
280.42999999999989
 31
0.0
  0
LINE
  5
216
  8
_________2
 62
     7
 10
21.988499999999991
 20
280.42999999999989
 30
0.0
 11
188.49000000000001
 21
280.42999999999989
 31
0.0
  0
LINE
  5
217
  8
_________2
 62
     7
 10
188.49000000000001
 20
280.42999999999989
 30
0.0
 11
188.49000000000001
 21
17.428499999999989
 31
0.0
  0
LINE
  5
218
  8
_________2
 62
     7
 10
70.488799999999998
 20
30.9285
 30
0.0
 11
70.488799999999998
 21
57.428400000000011
 31
0.0
  0
LINE
  5
219
  8
_________2
 62
     7
 10
89.488600000000005
 20
30.9285
 30
0.0
 11
89.488600000000005
 21
57.428400000000011
 31
0.0
  0
LINE
  5
21A
  8
_________2
 62
     7
 10
108.4889999999999
 20
17.428499999999989
 30
0.0
 11
108.4889999999999
 21
57.428400000000011
 31
0.0
  0
LINE
  5
21B
  8
_________2
 62
     7
 10
33.488300000000002
 20
30.9285
 30
0.0
 11
33.488300000000002
 21
44.928800000000003
 31
0.0
  0
LINE
  5
21C
  8
_________2
 62
     7
 10
21.988499999999991
 20
30.9285
 30
0.0
 11
108.4889999999999
 21
30.9285
 31
0.0
  0
LINE
  5
21D
  8
_________2
 62
     7
 10
21.988499999999991
 20
44.928800000000003
 30
0.0
 11
108.4889999999999
 21
44.928800000000003
 31
0.0
  0
LINE
  5
21E
  8
_________2
 62
     7
 10
108.4889999999999
 20
37.428100000000001
 30
0.0
 11
188.49000000000001
 21
37.428100000000001
 31
0.0
  0
LINE
  5
21F
  8
_________2
 62
     7
 10
21.988499999999991
 20
57.428400000000011
 30
0.0
 11
188.49000000000001
 21
57.428400000000011
 31
0.0
  0
ENDSEC
  0
EOF
