  0
SECTION
  2
HEADER
  9
$ACADVER
  1
AC1009
  9
$INSBASE
 10
0.0
 20
0.0
 30
0.0
  9
$EXTMIN
 10
0.238058
 20
0.4482100000000001
 30
0.0
  9
$EXTMAX
 10
210.24000000000001
 20
297.44999999999987
 30
0.0
  9
$LIMMIN
 10
0.0
 20
0.0
  9
$LIMMAX
 10
12.0
 20
9.0
  9
$ORTHOMODE
 70
     0
  9
$REGENMODE
 70
     1
  9
$FILLMODE
 70
     1
  9
$QTEXTMODE
 70
     0
  9
$MIRRTEXT
 70
     1
  9
$DRAGMODE
 70
     2
  9
$LTSCALE
 40
1.0
  9
$OSMODE
 70
    37
  9
$ATTMODE
 70
     1
  9
$TEXTSIZE
 40
0.0
  9
$TRACEWID
 40
0.05
  9
$TEXTSTYLE
  7
STANDARD
  9
$CLAYER
  8
0
  9
$CELTYPE
  6
CONTINUOUS
  9
$CECOLOR
 62
   256
  9
$DIMSCALE
 40
1.0
  9
$DIMASZ
 40
0.18
  9
$DIMEXO
 40
0.0625
  9
$DIMDLI
 40
0.38
  9
$DIMRND
 40
0.0
  9
$DIMDLE
 40
0.0
  9
$DIMEXE
 40
0.18
  9
$DIMTP
 40
0.0
  9
$DIMTM
 40
0.0
  9
$DIMTXT
 40
0.18
  9
$DIMCEN
 40
0.09
  9
$DIMTSZ
 40
0.0
  9
$DIMTOL
 70
     0
  9
$DIMLIM
 70
     0
  9
$DIMTIH
 70
     1
  9
$DIMTOH
 70
     1
  9
$DIMSE1
 70
     0
  9
$DIMSE2
 70
     0
  9
$DIMTAD
 70
     0
  9
$DIMZIN
 70
     0
  9
$DIMBLK
  1

  9
$DIMASO
 70
     1
  9
$DIMSHO
 70
     1
  9
$DIMPOST
  1

  9
$DIMAPOST
  1

  9
$DIMALT
 70
     0
  9
$DIMALTD
 70
     2
  9
$DIMALTF
 40
25.399999999999999
  9
$DIMLFAC
 40
1.0
  9
$DIMTOFL
 70
     0
  9
$DIMTVP
 40
0.0
  9
$DIMTIX
 70
     0
  9
$DIMSOXD
 70
     0
  9
$DIMSAH
 70
     0
  9
$DIMBLK1
  1

  9
$DIMBLK2
  1

  9
$DIMSTYLE
  2
STANDARD
  9
$DIMCLRD
 70
     0
  9
$DIMCLRE
 70
     0
  9
$DIMCLRT
 70
     0
  9
$DIMTFAC
 40
1.0
  9
$DIMGAP
 40
0.09
  9
$LUNITS
 70
     2
  9
$LUPREC
 70
     4
  9
$SKETCHINC
 40
0.1
  9
$FILLETRAD
 40
0.0
  9
$AUNITS
 70
     0
  9
$AUPREC
 70
     0
  9
$MENU
  1
.
  9
$ELEVATION
 40
0.0
  9
$PELEVATION
 40
0.0
  9
$THICKNESS
 40
0.0
  9
$LIMCHECK
 70
     0
  9
$BLIPMODE
 70
     0
  9
$CHAMFERA
 40
0.0
  9
$CHAMFERB
 40
0.0
  9
$SKPOLY
 70
     0
  9
$TDCREATE
 40
2444972.375
  9
$TDUPDATE
 40
2456644.2478751619
  9
$TDINDWG
 40
0.0000063657
  9
$TDUSRTIMER
 40
0.0000063657
  9
$USRTIMER
 70
     1
  9
$ANGBASE
 50
0.0
  9
$ANGDIR
 70
     0
  9
$PDMODE
 70
     0
  9
$PDSIZE
 40
0.0
  9
$PLINEWID
 40
0.0
  9
$COORDS
 70
     1
  9
$SPLFRAME
 70
     0
  9
$SPLINETYPE
 70
     6
  9
$SPLINESEGS
 70
     8
  9
$ATTDIA
 70
     0
  9
$ATTREQ
 70
     1
  9
$HANDLING
 70
     1
  9
$HANDSEED
  5
22C
  9
$SURFTAB1
 70
     6
  9
$SURFTAB2
 70
     6
  9
$SURFTYPE
 70
     6
  9
$SURFU
 70
     6
  9
$SURFV
 70
     6
  9
$UCSNAME
  2

  9
$UCSORG
 10
0.0
 20
0.0
 30
0.0
  9
$UCSXDIR
 10
1.0
 20
0.0
 30
0.0
  9
$UCSYDIR
 10
0.0
 20
1.0
 30
0.0
  9
$PUCSNAME
  2

  9
$PUCSORG
 10
0.0
 20
0.0
 30
0.0
  9
$PUCSXDIR
 10
1.0
 20
0.0
 30
0.0
  9
$PUCSYDIR
 10
0.0
 20
1.0
 30
0.0
  9
$USERI1
 70
     0
  9
$USERI2
 70
     0
  9
$USERI3
 70
     0
  9
$USERI4
 70
     0
  9
$USERI5
 70
     0
  9
$USERR1
 40
0.0
  9
$USERR2
 40
0.0
  9
$USERR3
 40
0.0
  9
$USERR4
 40
0.0
  9
$USERR5
 40
0.0
  9
$WORLDVIEW
 70
     1
  9
$SHADEDGE
 70
     3
  9
$SHADEDIF
 70
    70
  9
$TILEMODE
 70
     1
  9
$MAXACTVP
 70
    48
  9
$PLIMCHECK
 70
     0
  9
$PEXTMIN
 10
1.0000000000000000E+020
 20
1.0000000000000000E+020
 30
1.0000000000000000E+020
  9
$PEXTMAX
 10
-1.0000000000000000E+020
 20
-1.0000000000000000E+020
 30
-1.0000000000000000E+020
  9
$PLIMMIN
 10
0.0
 20
0.0
  9
$PLIMMAX
 10
12.0
 20
9.0
  9
$UNITMODE
 70
     0
  9
$VISRETAIN
 70
     1
  9
$PLINEGEN
 70
     0
  9
$PSLTSCALE
 70
     1
  0
ENDSEC
  0
SECTION
  2
TABLES
  0
TABLE
  2
VPORT
 70
     2
  0
VPORT
  2
*ACTIVE
 70
     0
 10
0.0
 20
0.0
 11
1.0
 21
1.0
 12
206.97982146115791
 22
148.72499999999991
 13
0.0
 23
0.0
 14
1.0
 24
1.0
 15
0.0
 25
0.0
 16
0.0
 26
0.0
 36
1.0
 17
0.0
 27
0.0
 37
0.0
 40
299.90488308115528
 41
2.2894736842105261
 42
50.0
 43
0.0
 44
0.0
 50
0.0
 51
0.0
 71
     0
 72
   100
 73
     1
 74
     1
 75
     0
 76
     0
 77
     0
 78
     0
  0
ENDTAB
  0
TABLE
  2
LTYPE
 70
     4
  0
LTYPE
  2
CONTINUOUS
 70
     0
  3
Solid line
 72
    65
 73
     0
 40
0.0
  0
LTYPE
  2
AIGENLINE001
 70
     0
  3
generate AI->DXF Converter
 72
    65
 73
     6
 40
7.4083750000000004
 49
3.5278
 49
-0.776115
 49
0.776115
 49
-0.776115
 49
0.776115
 49
-0.776115
  0
LTYPE
  2
AIGENLINE002
 70
     0
  3
generate AI->DXF Converter
 72
    65
 73
     4
 40
5.8561449999999988
 49
3.5278
 49
-0.776115
 49
0.776115
 49
-0.776115
  0
LTYPE
  2
AIGENLINE003
 70
     0
  3
generate AI->DXF Converter
 72
    65
 73
     2
 40
1.5522299999999991
 49
0.776115
 49
-0.776115
  0
ENDTAB
  0
TABLE
  2
LAYER
 70
     2
  0
LAYER
  2
0
 70
     0
 62
     7
  6
CONTINUOUS
  0
LAYER
  2
_________2
 70
     0
 62
     7
  6
CONTINUOUS
  0
ENDTAB
  0
TABLE
  2
STYLE
 70
     1
  0
STYLE
  2
STANDARD
 70
     0
 40
0.0
 41
0.0
 50
0.0
 71
     0
 42
0.0
  3
TXT
  4
EXTFONT.SHX
  0
ENDTAB
  0
TABLE
  2
VIEW
 70
     0
  0
ENDTAB
  0
TABLE
  2
UCS
 70
     0
  0
ENDTAB
  0
TABLE
  2
APPID
 70
     1
  0
APPID
  2
ACAD
 70
     0
  0
ENDTAB
  0
TABLE
  2
DIMSTYLE
 70
     1
  0
DIMSTYLE
  2
STANDARD
 70
     0
  3

  4

  5

  6

  7

 40
1.0
 41
0.18
 42
0.0625
 43
0.38
 44
0.18
 45
0.0
 46
0.0
 47
0.0
 48
0.0
140
0.18
141
0.09
142
0.0
143
25.399999999999999
144
1.0
145
0.0
146
1.0
147
0.09
 71
     0
 72
     0
 73
     1
 74
     1
 75
     0
 76
     0
 77
     0
 78
     0
170
     0
171
     2
172
     0
173
     0
174
     0
175
     0
176
     0
177
     0
178
     0
  0
ENDTAB
  0
ENDSEC
  0
SECTION
  2
BLOCKS
  0
BLOCK
  8
0
  2
$MODEL_SPACE
 70
     0
 10
0.0
 20
0.0
 30
0.0
  3
$MODEL_SPACE
  1

  0
ENDBLK
  5
1A
  8
0
  0
BLOCK
 67
     1
  8
0
  2
$PAPER_SPACE
 70
     0
 10
0.0
 20
0.0
 30
0.0
  3
$PAPER_SPACE
  1

  0
ENDBLK
  5
17
 67
     1
  8
0
  0
ENDSEC
  0
SECTION
  2
ENTITIES
  0
TEXT
  5
24
  8
0
 62
     7
 10
118.2419301212102
 20
216.6430698787897
 30
0.0
 40
3.0923400000000001
  1
%%c310
 50
315.0
 41
0.5
 72
     1
 11
119.9729999999999
 21
214.91199999999989
 31
0.0
  0
TEXT
  5
25
  8
0
 62
     7
 10
139.03382118022131
 20
194.9361788197786
 30
0.0
 40
3.0923400000000001
  1
35
 50
315.0
 41
0.5
 72
     2
 11
140.85599999999999
 21
193.114
 31
0.0
  0
TEXT
  5
26
  8
0
 62
     7
 10
98.206300000000013
 20
235.55799999999991
 30
0.0
 40
3.0923400000000001
  1
35
 50
2.06128
 41
0.5
  0
TEXT
  5
27
  8
0
 62
     7
 10
112.87753810203721
 20
209.39848349567009
 30
0.0
 40
3.0923400000000001
  1
380
 50
2.06128
 41
0.5
 72
     1
 11
114.809
 21
209.4679999999999
 31
0.0
  0
TEXT
  5
28
  8
0
 62
     7
 10
116.9046072044633
 20
265.22360720446329
 30
0.0
 40
3.0923400000000001
  1
80以上
 50
45.0
 41
0.5
 72
     1
 11
119.07299999999999
 21
267.39199999999988
 31
0.0
  0
TEXT
  5
29
  8
0
 62
     7
 10
132.82141378856571
 20
268.6757004797966
 30
0.0
 40
3.0923400000000001
  1
50以上
 50
2.06128
 41
0.5
 72
     1
 11
135.88599999999991
 21
268.786
 31
0.0
  0
TEXT
  5
2A
  8
0
 62
     7
 10
137.8129999999999
 20
76.470600000000005
 30
0.0
 40
3.0923400000000001
  1
〈付属品〉
 41
0.5
  0
TEXT
  5
2B
  8
0
 62
     7
 10
137.8129999999999
 20
72.605199999999996
 30
0.0
 40
3.0923400000000001
  1
洗面器固定金具×4
 41
0.5
  0
TEXT
  5
2C
  8
0
 62
     7
 10
137.8129999999999
 20
68.739699999999985
 30
0.0
 40
3.0923400000000001
  1
%%c5×25SUSねじ付
 41
0.5
  0
TEXT
  5
2D
  8
0
 62
     7
 10
137.8129999999999
 20
64.874300000000005
 30
0.0
 40
3.0923400000000001
  1
（尺度 1：3）
 41
0.5
  0
TEXT
  5
2E
  8
0
 62
     7
 10
159.1325249999999
 20
117.754
 30
0.0
 40
3.0923400000000001
  1
%%c7
 41
0.5
 72
     1
 11
160.42099999999991
 21
117.754
 31
0.0
  0
TEXT
  5
2F
  8
0
 62
     7
 10
143.7275249999999
 20
99.174599999999998
 30
0.0
 40
3.0923400000000001
  1
34
 41
0.5
 72
     1
 11
145.01599999999991
 21
99.174599999999998
 31
0.0
  0
TEXT
  5
30
  8
0
 62
     7
 10
148.66652500000001
 20
93.059899999999985
 30
0.0
 40
3.0923400000000001
  1
64
 41
0.5
 72
     1
 11
149.95500000000001
 21
93.059899999999985
 31
0.0
  0
TEXT
  5
31
  8
0
 62
     7
 10
154.55737250000001
 20
99.174599999999998
 30
0.0
 40
3.0923400000000001
  1
30
 41
0.5
 72
     1
 11
155.71700000000001
 21
99.174599999999998
 31
0.0
  0
TEXT
  5
32
  8
0
 62
     7
 10
169.56200000000001
 20
108.22837249999991
 30
0.0
 40
3.0923400000000001
  1
30
 50
90.0
 41
0.5
 72
     1
 11
169.56200000000001
 21
109.38799999999991
 31
0.0
  0
TEXT
  5
33
  8
0
 62
     7
 10
35.8399
 20
214.30498249999991
 30
0.0
 40
3.0923400000000001
  1
190
 50
90.0
 41
0.5
 72
     1
 11
35.8399
 21
215.97999999999999
 31
0.0
  0
TEXT
  5
34
  8
0
 62
     7
 10
35.839700000000001
 20
238.54298249999999
 30
0.0
 40
3.0923400000000001
  1
180
 50
90.0
 41
0.5
 72
     1
 11
35.839700000000001
 21
240.2179999999999
 31
0.0
  0
TEXT
  5
35
  8
0
 62
     7
 10
173.29599999999999
 20
152.91037249999991
 30
0.0
 40
3.0923400000000001
  1
40
 50
90.0
 41
0.5
 72
     1
 11
173.29599999999999
 21
154.06999999999999
 31
0.0
  0
TEXT
  5
36
  8
0
 62
     7
 10
156.8404349999999
 20
193.059
 30
0.0
 40
3.0923400000000001
  1
補強木（t24～30）
 41
0.5
 72
     2
 11
174.10599999999999
 21
193.059
 31
0.0
  0
TEXT
  5
37
  8
0
 62
     7
 10
121.9417599999999
 20
183.435
 30
0.0
 40
3.0923400000000001
  1
カウンター切込寸法
 41
0.5
 72
     1
 11
130.1879999999999
 21
183.435
 31
0.0
  0
TEXT
  5
38
  8
0
 62
     7
 10
162.58996599999989
 20
198.61000000000001
 30
0.0
 40
3.0923400000000001
  1
洗面器固定用
 41
0.5
 72
     2
 11
173.20699999999999
 21
198.61000000000001
 31
0.0
  0
TEXT
  5
39
  8
0
 62
     7
 10
114.9639999999999
 20
143.93813499999999
 30
0.0
 40
3.0923400000000001
  1
165
 50
90.0
 41
0.5
 72
     1
 11
114.9639999999999
 21
145.74199999999999
 31
0.0
  0
TEXT
  5
3A
  8
0
 62
     7
 10
143.29900000000001
 20
147.22098249999999
 30
0.0
 40
3.0923400000000001
  1
120
 50
90.0
 41
0.5
 72
     1
 11
143.29900000000001
 21
148.89599999999999
 31
0.0
  0
TEXT
  5
3B
  8
0
 62
     7
 10
131.55898250000001
 20
130.16499999999991
 30
0.0
 40
3.0923400000000001
  1
190
 41
0.5
 72
     1
 11
133.23400000000001
 21
130.16499999999991
 31
0.0
  0
TEXT
  5
3C
  8
0
 62
     7
 10
62.1901875
 20
165.1929999999999
 30
0.0
 40
3.0923400000000001
  1
360
 41
0.5
 72
     1
 11
64.122900000000001
 21
165.1929999999999
 31
0.0
  0
TEXT
  5
3D
  8
0
 62
     7
 10
62.4904875
 20
268.57400000000001
 30
0.0
 40
3.0923400000000001
  1
360
 41
0.5
 72
     1
 11
64.423199999999994
 21
268.57400000000001
 31
0.0
  0
TEXT
  5
3E
  8
0
 62
     7
 10
61.588554999999992
 20
262.36599999999999
 30
0.0
 40
3.0923400000000001
  1
%%c325
 41
0.5
 72
     1
 11
64.423199999999994
 21
262.36599999999999
 31
0.0
  0
TEXT
  5
3F
  8
0
 62
     7
 10
51.968240000000002
 20
223.36699999999999
 30
0.0
 40
3.0923400000000001
  1
%%c46
 41
0.5
 72
     1
 11
54.029800000000002
 21
223.36699999999999
 31
0.0
  0
TEXT
  5
40
  8
0
 62
     7
 10
143.0862875
 20
173.46299999999991
 30
0.0
 40
3.0923400000000001
  1
370
 41
0.5
 72
     1
 11
145.01900000000001
 21
173.46299999999991
 31
0.0
  0
TEXT
  5
41
  8
0
 62
     7
 10
142.19435499999989
 20
165.964
 30
0.0
 40
3.0923400000000001
  1
%%c325
 41
0.5
 72
     1
 11
145.029
 21
165.964
 31
0.0
  0
TEXT
  5
42
  8
0
 62
     7
 10
171.20544000000001
 20
165.864
 30
0.0
 40
3.0923400000000001
  1
17.5
 41
0.5
 72
     1
 11
173.26699999999991
 21
165.864
 31
0.0
  0
TEXT
  5
43
  8
0
 62
     7
 10
114.627745
 20
165.864
 30
0.0
 40
3.0923400000000001
  1
27.5
 41
0.5
 72
     1
 11
116.947
 21
165.864
 31
0.0
  0
LINE
  5
44
  8
0
 62
     7
 10
120.28
 20
258.80000000000001
 30
0.0
 11
115.955
 21
263.12400000000002
 31
0.0
  0
LINE
  5
45
  8
0
 62
     7
 10
117.1939999999999
 20
264.23000000000002
 30
0.0
 11
116.3359999999999
 21
262.74299999999988
 31
0.0
  0
LINE
  5
46
  8
0
 62
     7
 10
116.3359999999999
 20
262.74299999999988
 30
0.0
 11
117.82299999999989
 21
263.60199999999998
 31
0.0
  0
LINE
  5
47
  8
0
 62
     7
 10
117.82299999999989
 20
263.60199999999998
 30
0.0
 11
117.1939999999999
 21
264.23000000000002
 31
0.0
  0
LINE
  5
48
  8
0
 62
     7
 10
122.5409999999999
 20
268.3359999999999
 30
0.0
 11
123.399
 21
269.822
 31
0.0
  0
LINE
  5
49
  8
0
 62
     7
 10
123.399
 20
269.822
 30
0.0
 11
121.91199999999991
 21
268.964
 31
0.0
  0
LINE
  5
4A
  8
0
 62
     7
 10
121.91199999999991
 20
268.964
 30
0.0
 11
122.5409999999999
 21
268.3359999999999
 31
0.0
  0
LINE
  5
4B
  8
0
 62
     7
 10
116.33199999999999
 20
262.74700000000001
 30
0.0
 11
123.40299999999991
 21
269.81799999999993
 31
0.0
  0
LINE
  5
4C
  8
0
 62
     7
 10
127.34999999999999
 20
265.87099999999992
 30
0.0
 11
123.0269999999999
 21
270.19499999999999
 31
0.0
  0
LINE
  5
4D
  8
0
 62
     7
 10
128.78200000000001
 20
266.08999999999992
 30
0.0
 11
133.10599999999991
 21
270.41399999999987
 31
0.0
  0
LINE
  5
4E
  8
0
 62
     7
 10
134.21199999999999
 20
269.17599999999987
 30
0.0
 11
132.726
 21
270.03399999999999
 31
0.0
  0
LINE
  5
4F
  8
0
 62
     7
 10
132.726
 20
270.03399999999999
 30
0.0
 11
133.584
 21
268.54700000000003
 31
0.0
  0
LINE
  5
50
  8
0
 62
     7
 10
133.584
 20
268.54700000000003
 30
0.0
 11
134.21199999999999
 21
269.17599999999987
 31
0.0
  0
LINE
  5
51
  8
0
 62
     7
 10
135.667
 20
266.48099999999999
 30
0.0
 11
137.15299999999991
 21
265.62200000000001
 31
0.0
  0
LINE
  5
52
  8
0
 62
     7
 10
137.15299999999991
 20
265.62200000000001
 30
0.0
 11
136.2949999999999
 21
267.10899999999998
 31
0.0
  0
LINE
  5
53
  8
0
 62
     7
 10
136.2949999999999
 20
267.10899999999998
 30
0.0
 11
135.667
 21
266.48099999999999
 31
0.0
  0
LINE
  5
54
  8
0
 62
     7
 10
132.7299999999999
 20
270.03800000000001
 30
0.0
 11
137.149
 21
265.61900000000003
 31
0.0
  0
LINE
  5
55
  8
0
 62
     7
 10
133.20099999999991
 20
261.67099999999988
 30
0.0
 11
137.52600000000001
 21
265.995
 31
0.0
  0
LINE
  5
56
  8
0
  6
AIGENLINE001
 62
     7
 10
132.37700000000001
 20
220.1869999999999
 30
0.0
 11
127.9579999999999
 21
215.768
 31
0.0
  0
LINE
  5
57
  8
0
  6
AIGENLINE001
 62
     7
 10
127.9579999999999
 20
215.768
 30
0.0
 11
120.886
 21
222.83799999999999
 31
0.0
  0
LINE
  5
58
  8
0
  6
AIGENLINE001
 62
     7
 10
120.886
 20
222.83799999999999
 30
0.0
 11
125.30499999999989
 21
227.25800000000001
 31
0.0
  0
LINE
  5
59
  8
0
  6
AIGENLINE001
 62
     7
 10
125.30499999999989
 20
227.25800000000001
 30
0.0
 11
132.37700000000001
 21
220.1869999999999
 31
0.0
  0
LINE
  5
5A
  8
0
  6
AIGENLINE001
 62
     7
 10
170.3829999999999
 20
258.19400000000002
 30
0.0
 11
165.964
 21
253.77499999999989
 31
0.0
  0
LINE
  5
5B
  8
0
  6
AIGENLINE001
 62
     7
 10
165.964
 20
253.77499999999989
 30
0.0
 11
158.89299999999989
 21
260.846
 31
0.0
  0
LINE
  5
5C
  8
0
  6
AIGENLINE001
 62
     7
 10
158.89299999999989
 20
260.846
 30
0.0
 11
163.31200000000001
 21
265.26499999999987
 31
0.0
  0
LINE
  5
5D
  8
0
  6
AIGENLINE001
 62
     7
 10
163.31200000000001
 20
265.26499999999987
 30
0.0
 11
170.3829999999999
 21
258.19400000000002
 31
0.0
  0
LINE
  5
5E
  8
0
  6
AIGENLINE001
 62
     7
 10
163.3129999999999
 20
215.768
 30
0.0
 11
158.89299999999989
 21
220.1869999999999
 31
0.0
  0
LINE
  5
5F
  8
0
  6
AIGENLINE001
 62
     7
 10
158.89299999999989
 20
220.1869999999999
 30
0.0
 11
165.964
 21
227.25800000000001
 31
0.0
  0
LINE
  5
60
  8
0
  6
AIGENLINE001
 62
     7
 10
165.964
 20
227.25800000000001
 30
0.0
 11
170.3829999999999
 21
222.839
 31
0.0
  0
LINE
  5
61
  8
0
  6
AIGENLINE001
 62
     7
 10
170.3829999999999
 20
222.839
 30
0.0
 11
163.3129999999999
 21
215.768
 31
0.0
  0
LINE
  5
62
  8
0
  6
AIGENLINE001
 62
     7
 10
125.30499999999989
 20
253.77399999999989
 30
0.0
 11
120.886
 21
258.19299999999993
 31
0.0
  0
LINE
  5
63
  8
0
  6
AIGENLINE001
 62
     7
 10
120.886
 20
258.19299999999993
 30
0.0
 11
127.95699999999999
 21
265.26499999999987
 31
0.0
  0
LINE
  5
64
  8
0
  6
AIGENLINE001
 62
     7
 10
127.95699999999999
 20
265.26499999999987
 30
0.0
 11
132.376
 21
260.846
 31
0.0
  0
LINE
  5
65
  8
0
  6
AIGENLINE001
 62
     7
 10
132.376
 20
260.846
 30
0.0
 11
125.30499999999989
 21
253.77399999999989
 31
0.0
  0
LINE
  5
66
  8
0
 62
     7
 10
152.45699999999991
 20
112.0829999999999
 30
0.0
 11
151.31200000000001
 21
110.09999999999989
 31
0.0
  0
LINE
  5
67
  8
0
 62
     7
 10
151.31200000000001
 20
110.09999999999989
 30
0.0
 11
153.2949999999999
 21
111.245
 31
0.0
  0
LINE
  5
68
  8
0
 62
     7
 10
153.2949999999999
 20
111.245
 30
0.0
 11
152.45699999999991
 21
112.0829999999999
 31
0.0
  0
LINE
  5
69
  8
0
 62
     7
 10
148.52099999999999
 20
106.482
 30
0.0
 11
149.666
 21
108.465
 31
0.0
  0
LINE
  5
6A
  8
0
 62
     7
 10
149.666
 20
108.465
 30
0.0
 11
147.68299999999991
 21
107.31999999999989
 31
0.0
  0
LINE
  5
6B
  8
0
 62
     7
 10
147.68299999999991
 20
107.31999999999989
 30
0.0
 11
148.52099999999999
 21
106.482
 31
0.0
  0
LINE
  5
6C
  8
0
 62
     7
 10
146.69200000000001
 20
105.48099999999999
 30
0.0
 11
157.80000000000001
 21
116.589
 31
0.0
  0
LINE
  5
6D
  8
0
 62
     7
 10
152.702
 20
98.822800000000015
 30
0.0
 11
150.49100000000001
 21
98.230300000000014
 31
0.0
  0
LINE
  5
6E
  8
0
 62
     7
 10
150.49100000000001
 20
98.230300000000014
 30
0.0
 11
152.702
 21
97.637699999999995
 31
0.0
  0
LINE
  5
6F
  8
0
 62
     7
 10
152.702
 20
97.637699999999995
 30
0.0
 11
152.702
 21
98.822800000000015
 31
0.0
  0
LINE
  5
70
  8
0
 62
     7
 10
141.369
 20
98.822800000000015
 30
0.0
 11
139.1579999999999
 21
98.230300000000014
 31
0.0
  0
LINE
  5
71
  8
0
 62
     7
 10
139.1579999999999
 20
98.230300000000014
 30
0.0
 11
141.369
 21
97.637699999999995
 31
0.0
  0
LINE
  5
72
  8
0
 62
     7
 10
141.369
 20
97.637699999999995
 30
0.0
 11
141.369
 21
98.822800000000015
 31
0.0
  0
LINE
  5
73
  8
0
 62
     7
 10
148.28
 20
97.637699999999995
 30
0.0
 11
150.49100000000001
 21
98.230300000000014
 31
0.0
  0
LINE
  5
74
  8
0
 62
     7
 10
150.49100000000001
 20
98.230300000000014
 30
0.0
 11
148.28
 21
98.822800000000015
 31
0.0
  0
LINE
  5
75
  8
0
 62
     7
 10
148.28
 20
98.822800000000015
 30
0.0
 11
148.28
 21
97.637699999999995
 31
0.0
  0
LINE
  5
76
  8
0
 62
     7
 10
158.27999999999989
 20
97.652199999999993
 30
0.0
 11
160.49100000000001
 21
98.244800000000012
 31
0.0
  0
LINE
  5
77
  8
0
 62
     7
 10
160.49100000000001
 20
98.244800000000012
 30
0.0
 11
158.27999999999989
 21
98.837299999999985
 31
0.0
  0
LINE
  5
78
  8
0
 62
     7
 10
158.27999999999989
 20
98.837299999999985
 30
0.0
 11
158.27999999999989
 21
97.652199999999993
 31
0.0
  0
LINE
  5
79
  8
0
 62
     7
 10
139.1579999999999
 20
98.230300000000014
 30
0.0
 11
160.49100000000001
 21
98.230300000000014
 31
0.0
  0
LINE
  5
7A
  8
0
 62
     7
 10
141.369
 20
92.815600000000003
 30
0.0
 11
139.1579999999999
 21
92.222999999999999
 31
0.0
  0
LINE
  5
7B
  8
0
 62
     7
 10
139.1579999999999
 20
92.222999999999999
 30
0.0
 11
141.369
 21
91.630499999999998
 31
0.0
  0
LINE
  5
7C
  8
0
 62
     7
 10
141.369
 20
91.630499999999998
 30
0.0
 11
141.369
 21
92.815600000000003
 31
0.0
  0
LINE
  5
7D
  8
0
 62
     7
 10
158.27999999999989
 20
91.644900000000007
 30
0.0
 11
160.49100000000001
 21
92.237499999999997
 31
0.0
  0
LINE
  5
7E
  8
0
 62
     7
 10
160.49100000000001
 20
92.237499999999997
 30
0.0
 11
158.27999999999989
 21
92.830100000000002
 31
0.0
  0
LINE
  5
7F
  8
0
 62
     7
 10
158.27999999999989
 20
92.830100000000002
 30
0.0
 11
158.27999999999989
 21
91.644900000000007
 31
0.0
  0
LINE
  5
80
  8
0
 62
     7
 10
139.1579999999999
 20
92.222999999999999
 30
0.0
 11
160.49100000000001
 21
92.222999999999999
 31
0.0
  0
LINE
  5
81
  8
0
 62
     7
 10
171.09499999999991
 20
112.0689999999999
 30
0.0
 11
170.5029999999999
 21
114.28
 31
0.0
  0
LINE
  5
82
  8
0
 62
     7
 10
170.5029999999999
 20
114.28
 30
0.0
 11
169.91
 21
112.0689999999999
 31
0.0
  0
LINE
  5
83
  8
0
 62
     7
 10
169.91
 20
112.0689999999999
 30
0.0
 11
171.09499999999991
 21
112.0689999999999
 31
0.0
  0
LINE
  5
84
  8
0
 62
     7
 10
169.92500000000001
 20
106.491
 30
0.0
 11
170.517
 21
104.2799999999999
 31
0.0
  0
LINE
  5
85
  8
0
 62
     7
 10
170.517
 20
104.2799999999999
 30
0.0
 11
171.11000000000001
 21
106.491
 31
0.0
  0
LINE
  5
86
  8
0
 62
     7
 10
171.11000000000001
 20
106.491
 30
0.0
 11
169.92500000000001
 21
106.491
 31
0.0
  0
LINE
  5
87
  8
0
 62
     7
 10
170.5029999999999
 20
114.28
 30
0.0
 11
170.5029999999999
 21
104.2799999999999
 31
0.0
  0
LINE
  5
88
  8
0
 62
     7
 10
144.49100000000001
 20
84.167000000000002
 30
0.0
 11
147.29599999999999
 21
86.433200000000014
 31
0.0
  0
LINE
  5
89
  8
0
 62
     7
 10
143.715
 20
84.102199999999996
 30
0.0
 11
139.40299999999991
 21
86.524799999999999
 31
0.0
  0
ARC
  5
8A
  8
0
 62
     7
 10
144.05346899999989
 20
84.728019999999987
 30
0.0
 40
0.7112560000000001
 50
241.6274279999999
 51
307.92516299999988
  0
LINE
  5
8B
  8
0
 62
     7
 10
144.81700000000001
 20
83.787700000000015
 30
0.0
 11
147.637
 21
86.065899999999999
 31
0.0
  0
LINE
  5
8C
  8
0
 62
     7
 10
143.45799999999991
 20
83.673599999999993
 30
0.0
 11
139.1579999999999
 21
86.089299999999994
 31
0.0
  0
ARC
  5
8D
  8
0
 62
     7
 10
144.0500659999999
 20
84.768415000000005
 30
0.0
 40
1.244729999999999
 50
241.58647899999991
 51
308.00814600000001
  0
LINE
  5
8E
  8
0
 62
     7
 10
148.4789999999999
 20
86.298500000000004
 30
0.0
 11
152.5679999999999
 21
85.718699999999998
 31
0.0
  0
ARC
  5
8F
  8
0
 62
     7
 10
148.32995500000001
 20
85.198495999999977
 30
0.0
 40
1.1099799999999991
 50
82.298918999999998
 51
128.604015
  0
LINE
  5
90
  8
0
 62
     7
 10
148.58299999999991
 20
86.788700000000006
 30
0.0
 11
152.63599999999991
 21
86.214100000000002
 31
0.0
  0
ARC
  5
91
  8
0
 62
     7
 10
148.3547759999999
 20
85.106899999999996
 30
0.0
 40
1.6972769999999999
 50
82.257712999999995
 51
128.61016100000001
  0
LINE
  5
92
  8
0
 62
     7
 10
153.44599999999991
 20
85.817899999999995
 30
0.0
 11
156.292
 21
86.906499999999994
 31
0.0
  0
ARC
  5
93
  8
0
 62
     7
 10
152.81438899999989
 20
87.470634000000004
 30
0.0
 40
1.7691680000000001
 50
262.00744199999991
 51
290.900147
  0
LINE
  5
94
  8
0
 62
     7
 10
153.26900000000001
 20
86.285700000000006
 30
0.0
 11
156.00499999999991
 21
87.331699999999984
 31
0.0
  0
ARC
  5
95
  8
0
 62
     7
 10
152.81349399999991
 20
87.478455000000025
 30
0.0
 40
1.2768040000000001
 50
262.005583
 51
290.90742299999988
  0
LINE
  5
96
  8
0
 62
     7
 10
156.9139999999999
 20
86.7791
 30
0.0
 11
160.14400000000001
 21
83.652999999999992
 31
0.0
  0
ARC
  5
97
  8
0
 62
     7
 10
156.4998249999999
 20
86.339318000000006
 30
0.0
 40
0.6041270000000001
 50
46.710246999999988
 51
110.1334889999999
  0
LINE
  5
98
  8
0
 62
     7
 10
157.345
 20
87.057400000000001
 30
0.0
 11
160.49100000000001
 21
84.012299999999996
 31
0.0
  0
ARC
  5
99
  8
0
 62
     7
 10
156.45267100000001
 20
86.107592000000025
 30
0.0
 40
1.3035099999999991
 50
46.775235999999992
 51
110.10705400000001
  0
LINE
  5
9A
  8
0
  6
AIGENLINE002
 62
     7
 10
150.49100000000001
 20
111.4109999999999
 30
0.0
 11
150.49100000000001
 21
107.3679999999999
 31
0.0
  0
LINE
  5
9B
  8
0
  6
AIGENLINE002
 62
     7
 10
152.40000000000001
 20
109.2799999999999
 30
0.0
 11
148.584
 21
109.2799999999999
 31
0.0
  0
ARC
  5
9C
  8
0
 62
     7
 10
150.43510599999999
 20
109.2357819999999
 30
0.0
 40
1.2121770000000001
 50
2.0814590000000002
 51
87.357562000000001
  0
ARC
  5
9D
  8
0
 62
     7
 10
150.53628699999999
 20
109.24732999999991
 30
0.0
 40
1.2001949999999999
 50
92.162887999999995
 51
178.44932
  0
ARC
  5
9E
  8
0
 62
     7
 10
150.54753299999999
 20
109.32377099999989
 30
0.0
 40
1.2117990000000001
 50
182.0790989999999
 51
267.32561099999998
  0
ARC
  5
9F
  8
0
 62
     7
 10
150.44575599999999
 20
109.3136429999999
 30
0.0
 40
1.201203
 50
272.15813799999989
 51
358.38592299999988
  0
LINE
  5
A0
  8
0
  6
AIGENLINE002
 62
     7
 10
150.16499999999991
 20
84.217999999999989
 30
0.0
 11
150.791
 21
88.635300000000001
 31
0.0
  0
LINE
  5
A1
  8
0
 62
     7
 10
139.40299999999991
 20
114.28
 30
0.0
 11
139.40299999999991
 21
104.2799999999999
 31
0.0
  0
LINE
  5
A2
  8
0
 62
     7
 10
144.161
 20
113.78
 30
0.0
 11
144.161
 21
104.78
 31
0.0
  0
LINE
  5
A3
  8
0
 62
     7
 10
147.97599999999991
 20
113.78
 30
0.0
 11
147.97599999999991
 21
104.78
 31
0.0
  0
LINE
  5
A4
  8
0
 62
     7
 10
152.86099999999999
 20
113.78
 30
0.0
 11
152.86099999999999
 21
104.78
 31
0.0
  0
LINE
  5
A5
  8
0
 62
     7
 10
156.49000000000001
 20
113.78
 30
0.0
 11
156.49000000000001
 21
104.78
 31
0.0
  0
LINE
  5
A6
  8
0
 62
     7
 10
160.49100000000001
 20
84.012299999999996
 30
0.0
 11
160.14400000000001
 21
83.652999999999992
 31
0.0
  0
LINE
  5
A7
  8
0
 62
     7
 10
139.1579999999999
 20
86.089299999999994
 30
0.0
 11
139.40299999999991
 21
86.524799999999999
 31
0.0
  0
LINE
  5
A8
  8
0
 62
     7
 10
171.48400000000001
 20
104.2799999999999
 30
0.0
 11
161.5439999999999
 21
104.2799999999999
 31
0.0
  0
LINE
  5
A9
  8
0
 62
     7
 10
162.358
 20
116.589
 30
0.0
 11
157.80000000000001
 21
116.589
 31
0.0
  0
LINE
  5
AA
  8
0
 62
     7
 10
171.48400000000001
 20
114.28
 30
0.0
 11
161.5439999999999
 21
114.28
 31
0.0
  0
LINE
  5
AB
  8
0
 62
     7
 10
160.49100000000001
 20
104.2799999999999
 30
0.0
 11
139.1579999999999
 21
104.2799999999999
 31
0.0
  0
LINE
  5
AC
  8
0
 62
     7
 10
160.49100000000001
 20
114.28
 30
0.0
 11
139.1579999999999
 21
114.28
 31
0.0
  0
LINE
  5
AD
  8
0
 62
     7
 10
160.49100000000001
 20
103.4909999999999
 30
0.0
 11
160.49100000000001
 21
91.684600000000003
 31
0.0
  0
LINE
  5
AE
  8
0
 62
     7
 10
150.49100000000001
 20
106.633
 30
0.0
 11
150.49100000000001
 21
97.630100000000013
 31
0.0
  0
LINE
  5
AF
  8
0
 62
     7
 10
139.1579999999999
 20
103.4909999999999
 30
0.0
 11
139.1579999999999
 21
91.684600000000003
 31
0.0
  0
LINE
  5
B0
  8
0
 62
     7
 10
160.49100000000001
 20
114.28
 30
0.0
 11
160.49100000000001
 21
104.2799999999999
 31
0.0
  0
LINE
  5
B1
  8
0
 62
     7
 10
139.1579999999999
 20
114.28
 30
0.0
 11
139.1579999999999
 21
104.2799999999999
 31
0.0
  0
ARC
  5
B2
  8
0
 62
     7
 10
64.055812000000003
 20
204.748152
 30
0.0
 40
5.254656999999999
 50
89.949905000000015
 51
92.114005000000006
  0
ARC
  5
B3
  8
0
 62
     7
 10
63.933305000000011
 20
208.05435199999991
 30
0.0
 40
1.946188
 50
92.100355000000008
 51
101.23042700000001
  0
ARC
  5
B4
  8
0
 62
     7
 10
63.717757999999989
 20
209.19636999999989
 30
0.0
 40
0.7841360000000001
 50
102.03377
 51
116.7983909999999
  0
ARC
  5
B5
  8
0
 62
     7
 10
63.542478000000003
 20
209.55769699999991
 30
0.0
 40
0.3826449999999999
 50
117.764387
 51
150.224839
  0
ARC
  5
B6
  8
0
 62
     7
 10
63.517980000000001
 20
209.59114699999989
 30
0.0
 40
0.345183
 50
153.0258419999999
 51
181.66379599999991
  0
ARC
  5
B7
  8
0
 62
     7
 10
63.470143999999991
 20
209.582435
 30
0.0
 40
0.297204
 50
180.252645
 51
226.799813
  0
ARC
  5
B8
  8
0
 62
     7
 10
63.597343999999993
 20
209.71465900000001
 30
0.0
 40
0.4806700000000001
 50
226.53635099999991
 51
245.768192
  0
ARC
  5
B9
  8
0
 62
     7
 10
63.805326999999991
 20
210.1364879999999
 30
0.0
 40
0.950839
 50
244.77223499999999
 51
258.55620499999992
  0
ARC
  5
BA
  8
0
 62
     7
 10
64.02816
 20
211.10670999999999
 30
0.0
 40
1.946156999999999
 50
257.79354899999998
 51
270.94937199999998
  0
LINE
  5
BB
  8
0
 62
     7
 10
64.060400000000001
 20
209.16099999999989
 30
0.0
 11
64.423199999999994
 21
209.16099999999989
 31
0.0
  0
LINE
  5
BC
  8
0
 62
     7
 10
64.060400000000001
 20
210.0029999999999
 30
0.0
 11
64.423199999999994
 21
210.0029999999999
 31
0.0
  0
ARC
  5
BD
  8
0
 62
     7
 10
64.790540000000007
 20
204.748152
 30
0.0
 40
5.254656999999999
 50
87.885974999999988
 51
90.050076000000004
  0
ARC
  5
BE
  8
0
 62
     7
 10
64.913046999999992
 20
208.05435199999991
 30
0.0
 40
1.946188
 50
78.769553000000002
 51
87.899624999999986
  0
ARC
  5
BF
  8
0
 62
     7
 10
65.128593999999993
 20
209.19636999999989
 30
0.0
 40
0.7841360000000001
 50
63.201588999999998
 51
77.966210000000004
  0
ARC
  5
C0
  8
0
 62
     7
 10
65.303873999999993
 20
209.55769699999991
 30
0.0
 40
0.3826449999999999
 50
29.775141000000001
 51
62.235593000000009
  0
ARC
  5
C1
  8
0
 62
     7
 10
65.328372000000002
 20
209.59114699999989
 30
0.0
 40
0.345183
 50
358.33624400000002
 51
26.974118000000001
  0
ARC
  5
C2
  8
0
 62
     7
 10
65.376207999999991
 20
209.582435
 30
0.0
 40
0.297204
 50
313.20022499999988
 51
359.74735600000002
  0
ARC
  5
C3
  8
0
 62
     7
 10
65.249009000000001
 20
209.71465900000001
 30
0.0
 40
0.4806700000000001
 50
294.23182800000001
 51
313.46366899999992
  0
ARC
  5
C4
  8
0
 62
     7
 10
65.041025000000005
 20
210.1364879999999
 30
0.0
 40
0.950839
 50
281.44381399999997
 51
295.22778499999993
  0
ARC
  5
C5
  8
0
 62
     7
 10
64.81819200000001
 20
211.10670999999999
 30
0.0
 40
1.946156999999999
 50
269.05064800000002
 51
282.20647100000002
  0
LINE
  5
C6
  8
0
 62
     7
 10
64.785899999999998
 20
209.16099999999989
 30
0.0
 11
64.423199999999994
 21
209.16099999999989
 31
0.0
  0
LINE
  5
C7
  8
0
 62
     7
 10
64.785899999999998
 20
210.0029999999999
 30
0.0
 11
64.423199999999994
 21
210.0029999999999
 31
0.0
  0
ARC
  5
C8
  8
0
 62
     7
 10
59.714819999999989
 20
150.16551299999989
 30
0.0
 40
1.2499750000000001
 50
0.003958
 51
90.003928000000016
  0
ARC
  5
C9
  8
0
 62
     7
 10
62.027268999999997
 20
137.04056299999999
 30
0.0
 40
0.6249440000000001
 50
179.99996999999991
 51
270.00002000000001
  0
LINE
  5
CA
  8
0
 62
     7
 10
64.423199999999994
 20
136.416
 30
0.0
 11
62.02729999999999
 21
136.416
 31
0.0
  0
LINE
  5
CB
  8
0
 62
     7
 10
61.40229999999999
 20
137.04099999999991
 30
0.0
 11
60.96479999999999
 21
150.166
 31
0.0
  0
ARC
  5
CC
  8
0
 62
     7
 10
69.131531999999993
 20
150.16551299999989
 30
0.0
 40
1.2499750000000001
 50
89.996052000000006
 51
179.99602200000001
  0
ARC
  5
CD
  8
0
 62
     7
 10
66.819082999999992
 20
137.0405639999999
 30
0.0
 40
0.6249440000000001
 50
270.00002000000001
 51
359.99998999999991
  0
LINE
  5
CE
  8
0
 62
     7
 10
36.12019999999999
 20
230.685
 30
0.0
 11
36.563899999999997
 21
229.02699999999999
 31
0.0
  0
LINE
  5
CF
  8
0
 62
     7
 10
36.563899999999997
 20
229.02699999999999
 30
0.0
 11
37.008299999999991
 21
230.685
 31
0.0
  0
LINE
  5
D0
  8
0
 62
     7
 10
37.008299999999991
 20
230.685
 30
0.0
 11
36.12019999999999
 21
230.685
 31
0.0
  0
LINE
  5
D1
  8
0
 62
     7
 10
36.12019999999999
 20
206.935
 30
0.0
 11
36.563899999999997
 21
205.27699999999999
 31
0.0
  0
LINE
  5
D2
  8
0
 62
     7
 10
36.563899999999997
 20
205.27699999999999
 30
0.0
 11
37.008299999999991
 21
206.935
 31
0.0
  0
LINE
  5
D3
  8
0
 62
     7
 10
37.008299999999991
 20
206.935
 30
0.0
 11
36.12019999999999
 21
206.935
 31
0.0
  0
LINE
  5
D4
  8
0
 62
     7
 10
37.008299999999991
 20
227.36799999999999
 30
0.0
 11
36.563899999999997
 21
229.02699999999999
 31
0.0
  0
LINE
  5
D5
  8
0
 62
     7
 10
36.563899999999997
 20
229.02699999999999
 30
0.0
 11
36.12019999999999
 21
227.36799999999999
 31
0.0
  0
LINE
  5
D6
  8
0
 62
     7
 10
36.12019999999999
 20
227.36799999999999
 30
0.0
 11
37.008299999999991
 21
227.36799999999999
 31
0.0
  0
LINE
  5
D7
  8
0
 62
     7
 10
37.008299999999991
 20
249.87200000000001
 30
0.0
 11
36.563899999999997
 21
251.52999999999989
 31
0.0
  0
LINE
  5
D8
  8
0
 62
     7
 10
36.563899999999997
 20
251.52999999999989
 30
0.0
 11
36.12019999999999
 21
249.87200000000001
 31
0.0
  0
LINE
  5
D9
  8
0
 62
     7
 10
36.12019999999999
 20
249.87200000000001
 30
0.0
 11
37.008299999999991
 21
249.87200000000001
 31
0.0
  0
LINE
  5
DA
  8
0
 62
     7
 10
36.563899999999997
 20
205.27699999999999
 30
0.0
 11
36.563899999999997
 21
251.52999999999989
 31
0.0
  0
LINE
  5
DB
  8
0
 62
     7
 10
35.502299999999991
 20
229.02699999999999
 30
0.0
 11
38.735900000000001
 21
229.02699999999999
 31
0.0
  0
LINE
  5
DC
  8
0
 62
     7
 10
35.408700000000003
 20
251.52999999999989
 30
0.0
 11
57.633899999999997
 21
251.52999999999989
 31
0.0
  0
LINE
  5
DD
  8
0
 62
     7
 10
35.761499999999998
 20
205.27699999999999
 30
0.0
 11
60.279699999999991
 21
205.27699999999999
 31
0.0
  0
LINE
  5
DE
  8
0
 62
     7
 10
173.619
 20
154.7579999999999
 30
0.0
 11
174.0629999999999
 21
156.416
 31
0.0
  0
LINE
  5
DF
  8
0
 62
     7
 10
174.0629999999999
 20
156.416
 30
0.0
 11
174.50700000000001
 21
154.7579999999999
 31
0.0
  0
LINE
  5
E0
  8
0
 62
     7
 10
174.50700000000001
 20
154.7579999999999
 30
0.0
 11
173.619
 21
154.7579999999999
 31
0.0
  0
LINE
  5
E1
  8
0
 62
     7
 10
174.4959999999999
 20
153.0739999999999
 30
0.0
 11
174.05199999999999
 21
151.41499999999991
 31
0.0
  0
LINE
  5
E2
  8
0
 62
     7
 10
174.05199999999999
 20
151.41499999999991
 30
0.0
 11
173.608
 21
153.0739999999999
 31
0.0
  0
LINE
  5
E3
  8
0
 62
     7
 10
173.608
 20
153.0739999999999
 30
0.0
 11
174.4959999999999
 21
153.0739999999999
 31
0.0
  0
LINE
  5
E4
  8
0
 62
     7
 10
174.05699999999999
 20
156.416
 30
0.0
 11
174.05699999999999
 21
151.41599999999991
 31
0.0
  0
LINE
  5
E5
  8
0
 62
     7
 10
168.44
 20
151.41499999999991
 30
0.0
 11
174.71499999999989
 21
151.41499999999991
 31
0.0
  0
LINE
  5
E6
  8
0
 62
     7
 10
169.33500000000001
 20
156.416
 30
0.0
 11
174.58999999999989
 21
156.416
 31
0.0
  0
ARC
  5
E7
  8
0
 62
     7
 10
124.209272
 20
155.1197939999999
 30
0.0
 40
0.294499
 50
16.911351
 51
88.869669000000002
  0
ARC
  5
E8
  8
0
 62
     7
 10
123.466278
 20
155.11675600000001
 30
0.0
 40
0.297677
 50
92.087899000000007
 51
177.91207099999991
  0
LINE
  5
E9
  8
0
 62
     7
 10
123.1689999999999
 20
155.12799999999999
 30
0.0
 11
123.1689999999999
 21
153.291
 31
0.0
  0
LINE
  5
EA
  8
0
 62
     7
 10
142.7589999999999
 20
140.16499999999991
 30
0.0
 11
142.7589999999999
 21
139.01699999999991
 31
0.0
  0
LINE
  5
EB
  8
0
 62
     7
 10
142.05699999999999
 20
139.161
 30
0.0
 11
140.45899999999989
 21
140.39500000000001
 31
0.0
  0
LINE
  5
EC
  8
0
 62
     7
 10
142.7589999999999
 20
140.16499999999991
 30
0.0
 11
141.2589999999999
 21
141.416
 31
0.0
  0
LINE
  5
ED
  8
0
 62
     7
 10
150.00999999999991
 20
141.416
 30
0.0
 11
148.50999999999991
 21
140.16499999999991
 31
0.0
  0
LINE
  5
EE
  8
0
 62
     7
 10
140.94699999999989
 20
136.416
 30
0.0
 11
140.94699999999989
 21
135.79099999999991
 31
0.0
  0
LINE
  5
EF
  8
0
 62
     7
 10
145.63499999999999
 20
135.79099999999991
 30
0.0
 11
140.94699999999989
 21
135.79099999999991
 31
0.0
  0
LINE
  5
F0
  8
0
 62
     7
 10
124.215
 20
155.4139999999999
 30
0.0
 11
123.455
 21
155.4139999999999
 31
0.0
  0
LINE
  5
F1
  8
0
 62
     7
 10
145.63499999999999
 20
156.416
 30
0.0
 11
121.8839999999999
 21
156.416
 31
0.0
  0
ARC
  5
F2
  8
0
 62
     7
 10
165.922617
 20
150.77426399999999
 30
0.0
 40
0.6413060000000002
 50
90.915591000000006
 51
155.489633
  0
ARC
  5
F3
  8
0
 62
     7
 10
167.16784499999989
 20
151.80282099999991
 30
0.0
 40
0.387489
 50
271.619123
 51
351.2913549999999
  0
ARC
  5
F4
  8
0
 62
     7
 10
149.9328689999999
 20
136.17998600000001
 30
0.0
 40
0.38958
 50
272.13042300000001
 51
357.86958700000002
  0
LINE
  5
F5
  8
0
 62
     7
 10
168.13499999999991
 20
156.416
 30
0.0
 11
167.5509999999999
 21
151.744
 31
0.0
  0
ARC
  5
F6
  8
0
 62
     7
 10
151.11158699999999
 20
161.5949379999999
 30
0.0
 40
26.304507999999998
 50
191.355423
 51
200.048327
  0
ARC
  5
F7
  8
0
 62
     7
 10
145.33919900000001
 20
159.62817699999999
 30
0.0
 40
20.208100000000002
 50
200.42049499999999
 51
211.49794900000001
  0
ARC
  5
F8
  8
0
 62
     7
 10
141.8135189999999
 20
157.6190409999999
 30
0.0
 40
16.152702999999988
 50
211.955343
 51
239.10774599999991
  0
ARC
  5
F9
  8
0
 62
     7
 10
141.86892700000001
 20
158.02129500000001
 30
0.0
 40
16.527104000000001
 50
239.65890499999989
 51
254.82415599999999
  0
ARC
  5
FA
  8
0
 62
     7
 10
142.77380400000001
 20
160.893112
 30
0.0
 40
19.536031000000001
 50
254.467727
 51
265.55422499999992
  0
ARC
  5
FB
  8
0
 62
     7
 10
159.2629729999999
 20
165.07436200000001
 30
0.0
 40
36.145302000000001
 50
195.84491299999991
 51
200.41372899999999
  0
ARC
  5
FC
  8
0
 62
     7
 10
150.29937699999991
 20
161.82942800000001
 30
0.0
 40
26.612949
 50
200.59742299999999
 51
207.91209599999999
  0
ARC
  5
FD
  8
0
 62
     7
 10
143.5900629999999
 20
158.41940700000001
 30
0.0
 40
19.088289
 50
208.29455100000001
 51
219.40710299999989
  0
ARC
  5
FE
  8
0
 62
     7
 10
140.46780100000001
 20
156.054832
 30
0.0
 40
15.175557
 50
219.99266900000001
 51
245.32564599999989
  0
ARC
  5
FF
  8
0
 62
     7
 10
142.20460299999991
 20
159.584532
 30
0.0
 40
19.10831099999999
 50
245.01166799999999
 51
252.37624199999991
  0
ARC
  5
100
  8
0
 62
     7
 10
144.130303
 20
165.24405699999991
 30
0.0
 40
25.085538
 50
252.09802500000001
 51
256.35631799999999
  0
ARC
  5
101
  8
0
 62
     7
 10
146.34590700000001
 20
174.056468
 30
0.0
 40
34.171979
 50
256.2316009999999
 51
260.07968699999998
  0
ARC
  5
102
  8
0
 62
     7
 10
142.6296439999999
 20
161.173383
 30
0.0
 40
23.797941000000002
 50
338.25858499999993
 51
348.46779900000001
  0
ARC
  5
103
  8
0
 62
     7
 10
147.03684799999991
 20
159.549387
 30
0.0
 40
19.103088
 50
321.90691900000002
 51
337.88656099999992
  0
ARC
  5
104
  8
0
 62
     7
 10
148.79930599999989
 20
158.41633899999999
 30
0.0
 40
17.018117999999991
 50
284.21816799999988
 51
321.24832599999991
  0
ARC
  5
105
  8
0
 62
     7
 10
148.52878699999999
 20
159.152612
 30
0.0
 40
17.798466999999999
 50
274.77282100000002
 51
284.48018499999989
  0
ARC
  5
106
  8
0
 62
     7
 10
128.217996
 20
171.211172
 30
0.0
 40
42.247202000000001
 50
328.72508999999991
 51
331.48165199999988
  0
ARC
  5
107
  8
0
 62
     7
 10
142.905958
 20
162.40863899999991
 30
0.0
 40
25.124019000000001
 50
323.77146299999993
 51
328.49298299999992
  0
ARC
  5
108
  8
0
 62
     7
 10
148.89228499999999
 20
158.1197919999999
 30
0.0
 40
17.760483999999991
 50
315.34680099999991
 51
323.51887199999999
  0
ARC
  5
109
  8
0
 62
     7
 10
150.505841
 20
156.64943199999999
 30
0.0
 40
15.579502
 50
298.18113299999987
 51
315.02296999999999
  0
ARC
  5
10A
  8
0
 62
     7
 10
148.15881099999999
 20
160.7183629999999
 30
0.0
 40
20.275041000000002
 50
291.56992200000002
 51
298.59715599999993
  0
ARC
  5
10B
  8
0
 62
     7
 10
145.636022
 20
166.786812
 30
0.0
 40
26.846231
 50
287.36275499999999
 51
291.81564800000001
  0
ARC
  5
10C
  8
0
 62
     7
 10
142.77636699999999
 20
175.67983799999999
 30
0.0
 40
36.1875
 50
282.82712400000003
 51
287.48228599999999
  0
LINE
  5
10D
  8
0
 62
     7
 10
122.509
 20
151.41499999999991
 30
0.0
 11
121.8839999999999
 21
156.416
 31
0.0
  0
ARC
  5
10E
  8
0
 62
     7
 10
150.967646
 20
139.76912400000001
 30
0.0
 40
0.645661
 50
104.06856500000001
 51
178.59601599999999
  0
LINE
  5
10F
  8
0
 62
     7
 10
142.7589999999999
 20
136.95699999999991
 30
0.0
 11
142.7589999999999
 21
135.79099999999991
 31
0.0
  0
LINE
  5
110
  8
0
 62
     7
 10
148.50999999999991
 20
140.16499999999991
 30
0.0
 11
148.50999999999991
 21
135.79099999999991
 31
0.0
  0
LINE
  5
111
  8
0
 62
     7
 10
150.32199999999989
 20
139.785
 30
0.0
 11
150.32199999999989
 21
136.166
 31
0.0
  0
LINE
  5
112
  8
0
 62
     7
 10
145.63499999999999
 20
135.79099999999991
 30
0.0
 11
149.947
 21
135.79099999999991
 31
0.0
  0
LINE
  5
113
  8
0
  6
AIGENLINE002
 62
     7
 10
145.63499999999999
 20
133.00200000000001
 30
0.0
 11
145.63499999999999
 21
159.1989999999999
 31
0.0
  0
LINE
  5
114
  8
0
 62
     7
 10
165.91200000000001
 20
151.41499999999991
 30
0.0
 11
167.179
 21
151.41499999999991
 31
0.0
  0
LINE
  5
115
  8
0
 62
     7
 10
141.2589999999999
 20
141.416
 30
0.0
 11
145.63499999999999
 21
141.416
 31
0.0
  0
LINE
  5
116
  8
0
 62
     7
 10
142.7589999999999
 20
140.16499999999991
 30
0.0
 11
145.63499999999999
 21
140.16499999999991
 31
0.0
  0
LINE
  5
117
  8
0
 62
     7
 10
145.63499999999999
 20
140.16499999999991
 30
0.0
 11
148.50999999999991
 21
140.16499999999991
 31
0.0
  0
LINE
  5
118
  8
0
 62
     7
 10
145.63499999999999
 20
141.416
 30
0.0
 11
150.00999999999991
 21
141.416
 31
0.0
  0
LINE
  5
119
  8
0
 62
     7
 10
126.61
 20
152.03999999999991
 30
0.0
 11
125.64400000000001
 21
151.80899999999991
 31
0.0
  0
LINE
  5
11A
  8
0
 62
     7
 10
125.7679999999999
 20
154.53999999999991
 30
0.0
 11
124.761
 21
154.29900000000001
 31
0.0
  0
LINE
  5
11B
  8
0
 62
     7
 10
145.63499999999999
 20
156.416
 30
0.0
 11
168.13499999999991
 21
156.416
 31
0.0
  0
ARC
  5
11C
  8
0
 62
     7
 10
85.335992000000005
 20
150.774787
 30
0.0
 40
0.640783
 50
90.917083000000005
 51
155.51970900000001
  0
ARC
  5
11D
  8
0
 62
     7
 10
85.956264000000004
 20
151.80282700000001
 30
0.0
 40
0.387494
 50
271.61978499999998
 51
351.29069299999998
  0
ARC
  5
11E
  8
0
 62
     7
 10
68.721292000000005
 20
136.17998600000001
 30
0.0
 40
0.38958
 50
272.13042300000001
 51
357.86958700000002
  0
LINE
  5
11F
  8
0
 62
     7
 10
86.923199999999994
 20
156.416
 30
0.0
 11
86.339299999999994
 21
151.744
 31
0.0
  0
ARC
  5
120
  8
0
 62
     7
 10
69.517617999999985
 20
157.643765
 30
0.0
 40
16.604583999999999
 50
305.09051099999988
 51
336.5675470000001
  0
ARC
  5
121
  8
0
 62
     7
 10
67.989407999999997
 20
159.6318729999999
 30
0.0
 40
19.110167000000001
 50
292.741963
 51
305.41295700000001
  0
ARC
  5
122
  8
0
 62
     7
 10
66.566556999999989
 20
162.73513500000001
 30
0.0
 40
22.522494999999999
 50
283.27194900000001
 51
293.02833099999992
  0
ARC
  5
123
  8
0
 62
     7
 10
65.699197999999996
 20
165.973544
 30
0.0
 40
25.873729999999991
 50
278.66918599999991
 51
283.49503599999991
  0
ARC
  5
124
  8
0
 62
     7
 10
69.755491000000006
 20
139.769588
 30
0.0
 40
0.645071
 50
104.0287009999999
 51
178.63587999999999
  0
LINE
  5
125
  8
0
 62
     7
 10
69.110600000000005
 20
139.785
 30
0.0
 11
69.110600000000005
 21
136.166
 31
0.0
  0
LINE
  5
126
  8
0
 62
     7
 10
64.423199999999994
 20
136.416
 30
0.0
 11
66.819100000000006
 21
136.416
 31
0.0
  0
LINE
  5
127
  8
0
 62
     7
 10
64.423199999999994
 20
135.79099999999991
 30
0.0
 11
68.735799999999998
 21
135.79099999999991
 31
0.0
  0
LINE
  5
128
  8
0
 62
     7
 10
69.131600000000006
 20
151.41499999999991
 30
0.0
 11
85.967200000000005
 21
151.41499999999991
 31
0.0
  0
LINE
  5
129
  8
0
 62
     7
 10
64.423199999999994
 20
156.416
 30
0.0
 11
86.923199999999994
 21
156.416
 31
0.0
  0
ARC
  5
12A
  8
0
 62
     7
 10
43.510359999999991
 20
150.774787
 30
0.0
 40
0.640783
 50
24.480271999999999
 51
89.082897000000003
  0
ARC
  5
12B
  8
0
 62
     7
 10
42.890087999999999
 20
151.80282700000001
 30
0.0
 40
0.387494
 50
188.709327
 51
268.38023500000003
  0
ARC
  5
12C
  8
0
 62
     7
 10
60.125060999999988
 20
136.17998600000001
 30
0.0
 40
0.38958
 50
182.13043300000001
 51
267.869597
  0
LINE
  5
12D
  8
0
 62
     7
 10
41.923099999999991
 20
156.416
 30
0.0
 11
42.507100000000001
 21
151.744
 31
0.0
  0
LINE
  5
12E
  8
0
 62
     7
 10
54.4771
 20
208.84399999999999
 30
0.0
 11
60.819899999999997
 21
205.71899999999999
 31
0.0
  0
ARC
  5
12F
  8
0
 62
     7
 10
62.198493999999997
 20
208.513004
 30
0.0
 40
3.1160730000000001
 50
243.73552699999991
 51
263.86587200000002
  0
LINE
  5
130
  8
0
 62
     7
 10
74.367500000000007
 20
208.8429999999999
 30
0.0
 11
68.0244
 21
205.7179999999999
 31
0.0
  0
ARC
  5
131
  8
0
 62
     7
 10
66.644233999999997
 20
208.518214
 30
0.0
 40
3.1215899999999999
 50
276.15200800000002
 51
296.23933799999992
  0
ARC
  5
132
  8
0
 62
     7
 10
64.422314999999998
 20
229.016402
 30
0.0
 40
23.739851000000002
 50
263.81807099999992
 51
276.18194899999997
  0
LINE
  5
133
  8
0
  6
AIGENLINE002
 62
     7
 10
38.846600000000002
 20
229.02699999999999
 30
0.0
 11
90.352500000000006
 21
229.02699999999999
 31
0.0
  0
LINE
  5
134
  8
0
  6
AIGENLINE002
 62
     7
 10
64.423199999999994
 20
254.42699999999999
 30
0.0
 11
64.423199999999994
 21
201.33399999999989
 31
0.0
  0
ARC
  5
135
  8
0
 62
     7
 10
64.423085999999998
 20
229.02682699999991
 30
0.0
 40
20.312665999999989
 50
180.00025299999999
 51
270.0002629999999
  0
ARC
  5
136
  8
0
 62
     7
 10
64.423259000000002
 20
229.02683399999989
 30
0.0
 40
20.312673
 50
269.99977699999988
 51
359.99974700000001
  0
ARC
  5
137
  8
0
 62
     7
 10
64.423172999999991
 20
229.02674099999999
 30
0.0
 40
20.312759
 50
0.00001
 51
89.999980000000008
  0
ARC
  5
138
  8
0
 62
     7
 10
64.423180000000002
 20
229.02674099999999
 30
0.0
 40
20.312759
 50
90.0
 51
179.99996999999991
  0
ARC
  5
139
  8
0
 62
     7
 10
64.423450000000003
 20
229.02665200000001
 30
0.0
 40
22.499841
 50
296.22908699999988
 51
26.230121
  0
ARC
  5
13A
  8
0
 62
     7
 10
64.423152000000002
 20
229.0270129999999
 30
0.0
 40
22.49994899999999
 50
26.228959
 51
116.229642
  0
ARC
  5
13B
  8
0
 62
     7
 10
64.929850000000002
 20
228.71170799999999
 30
0.0
 40
23.008890999999998
 50
117.014483
 51
179.21546399999991
  0
ARC
  5
13C
  8
0
 62
     7
 10
64.930573999999993
 20
229.34238300000001
 30
0.0
 40
23.009623999999992
 50
180.78600900000001
 51
242.97768099999999
  0
LINE
  5
13D
  8
0
 62
     7
 10
130.21100000000001
 20
191.50399999999999
 30
0.0
 11
157.02699999999999
 21
218.32099999999991
 31
0.0
  0
LINE
  5
13E
  8
0
 62
     7
 10
132.0739999999999
 20
199.55500000000001
 30
0.0
 11
155.23699999999991
 21
222.71700000000001
 31
0.0
  0
LINE
  5
13F
  8
0
 62
     7
 10
96.622799999999998
 20
225.09200000000001
 30
0.0
 11
123.4399999999999
 21
251.90899999999999
 31
0.0
  0
LINE
  5
140
  8
0
 62
     7
 10
173.53999999999999
 20
197.2949999999999
 30
0.0
 11
149.29300000000001
 21
197.2949999999999
 31
0.0
  0
LINE
  5
141
  8
0
 62
     7
 10
160.88
 20
215.36699999999999
 30
0.0
 11
161.51400000000001
 21
217.56599999999989
 31
0.0
  0
LINE
  5
142
  8
0
 62
     7
 10
161.51400000000001
 20
217.56599999999989
 30
0.0
 11
159.86500000000001
 21
215.97900000000001
 31
0.0
  0
LINE
  5
143
  8
0
 62
     7
 10
159.86500000000001
 20
215.97900000000001
 30
0.0
 11
160.88
 21
215.36699999999999
 31
0.0
  0
LINE
  5
144
  8
0
 62
     7
 10
161.51400000000001
 20
217.56599999999989
 30
0.0
 11
149.29300000000001
 21
197.2949999999999
 31
0.0
  0
LINE
  5
145
  8
0
 62
     7
 10
128.822
 20
193.19699999999989
 30
0.0
 11
130.804
 21
192.053
 31
0.0
  0
LINE
  5
146
  8
0
 62
     7
 10
130.804
 20
192.053
 30
0.0
 11
129.65899999999991
 21
194.035
 31
0.0
  0
LINE
  5
147
  8
0
 62
     7
 10
129.65899999999991
 20
194.035
 30
0.0
 11
128.822
 21
193.19699999999989
 31
0.0
  0
LINE
  5
148
  8
0
 62
     7
 10
99.175600000000017
 20
224.51799999999989
 30
0.0
 11
97.194000000000003
 21
225.6629999999999
 31
0.0
  0
LINE
  5
149
  8
0
 62
     7
 10
97.194000000000003
 20
225.6629999999999
 30
0.0
 11
98.338099999999983
 21
223.6809999999999
 31
0.0
  0
LINE
  5
14A
  8
0
 62
     7
 10
98.338099999999983
 20
223.6809999999999
 30
0.0
 11
99.175600000000017
 21
224.51799999999989
 31
0.0
  0
LINE
  5
14B
  8
0
 62
     7
 10
130.804
 20
192.053
 30
0.0
 11
97.194000000000003
 21
225.6629999999999
 31
0.0
  0
LINE
  5
14C
  8
0
 62
     7
 10
130.50200000000001
 20
201.10900000000001
 30
0.0
 11
132.48400000000001
 21
199.964
 31
0.0
  0
LINE
  5
14D
  8
0
 62
     7
 10
132.48400000000001
 20
199.964
 30
0.0
 11
131.339
 21
201.946
 31
0.0
  0
LINE
  5
14E
  8
0
 62
     7
 10
131.339
 20
201.946
 30
0.0
 11
130.50200000000001
 21
201.10900000000001
 31
0.0
  0
LINE
  5
14F
  8
0
 62
     7
 10
100.008
 20
231.60300000000001
 30
0.0
 11
101.98999999999999
 21
230.459
 31
0.0
  0
LINE
  5
150
  8
0
 62
     7
 10
101.98999999999999
 20
230.459
 30
0.0
 11
100.845
 21
232.44099999999989
 31
0.0
  0
LINE
  5
151
  8
0
 62
     7
 10
100.845
 20
232.44099999999989
 30
0.0
 11
100.008
 21
231.60300000000001
 31
0.0
  0
LINE
  5
152
  8
0
 62
     7
 10
137.637
 20
195.75899999999999
 30
0.0
 11
135.655
 21
196.904
 31
0.0
  0
LINE
  5
153
  8
0
 62
     7
 10
135.655
 20
196.904
 30
0.0
 11
136.79900000000001
 21
194.922
 31
0.0
  0
LINE
  5
154
  8
0
 62
     7
 10
136.79900000000001
 20
194.922
 30
0.0
 11
137.637
 21
195.75899999999999
 31
0.0
  0
LINE
  5
155
  8
0
 62
     7
 10
107.12
 20
226.2759999999999
 30
0.0
 11
105.13799999999991
 21
227.4199999999999
 31
0.0
  0
LINE
  5
156
  8
0
 62
     7
 10
105.13799999999991
 20
227.4199999999999
 30
0.0
 11
106.2829999999999
 21
225.4379999999999
 31
0.0
  0
LINE
  5
157
  8
0
 62
     7
 10
106.2829999999999
 20
225.4379999999999
 30
0.0
 11
107.12
 21
226.2759999999999
 31
0.0
  0
LINE
  5
158
  8
0
 62
     7
 10
139.99399999999989
 20
192.45400000000001
 30
0.0
 11
97.672499999999999
 21
234.77600000000001
 31
0.0
  0
LINE
  5
159
  8
0
 62
     7
 10
104.67400000000001
 20
226.9559999999999
 30
0.0
 11
127.8359999999999
 21
250.11799999999999
 31
0.0
  0
LINE
  5
15A
  8
0
  6
AIGENLINE002
 62
     7
 10
145.63499999999999
 20
217.923
 30
0.0
 11
145.63499999999999
 21
263.15800000000002
 31
0.0
  0
LINE
  5
15B
  8
0
  6
AIGENLINE002
 62
     7
 10
122.866
 20
240.51599999999991
 30
0.0
 11
168.101
 21
240.51599999999991
 31
0.0
  0
LINE
  5
15C
  8
0
  6
AIGENLINE002
 62
     7
 10
122.3629999999999
 20
263.78800000000001
 30
0.0
 11
168.0029999999999
 21
218.148
 31
0.0
  0
LINE
  5
15D
  8
0
  6
AIGENLINE002
 62
     7
 10
123.32899999999989
 20
218.21000000000001
 30
0.0
 11
168.13099999999989
 21
263.012
 31
0.0
  0
ARC
  5
15E
  8
0
 62
     7
 10
145.63474999999991
 20
240.51603499999999
 30
0.0
 40
19.375343000000001
 50
0.00001
 51
89.999980000000008
  0
ARC
  5
15F
  8
0
 62
     7
 10
145.634929
 20
240.51620800000001
 30
0.0
 40
19.375170999999991
 50
90.000508999999994
 51
180.00051899999991
  0
ARC
  5
160
  8
0
 62
     7
 10
145.6349919999999
 20
240.5161049999999
 30
0.0
 40
19.375233999999988
 50
180.00021599999999
 51
269.99930399999988
  0
ARC
  5
161
  8
0
 62
     7
 10
145.63483599999989
 20
240.5161279999999
 30
0.0
 40
19.375257000000001
 50
269.99976499999991
 51
359.99973499999987
  0
ARC
  5
162
  8
0
 62
     7
 10
142.49337299999999
 20
136.9487949999999
 30
0.0
 40
0.266197
 50
1.6592439999999991
 51
79.760366000000005
  0
ARC
  5
163
  8
0
 62
     7
 10
142.43913599999999
 20
139.59938899999989
 30
0.0
 40
0.5820220000000002
 50
228.91639900000001
 51
269.75536799999998
  0
ARC
  5
164
  8
0
 62
     7
 10
126.54815600000001
 20
153.29382100000001
 30
0.0
 40
3.3793589999999991
 50
180.05353599999989
 51
186.644182
  0
ARC
  5
165
  8
0
 62
     7
 10
129.88844999999989
 20
153.61477600000001
 30
0.0
 40
6.7346940000000002
 50
186.068366
 51
193.79397299999999
  0
ARC
  5
166
  8
0
 62
     7
 10
125.6616659999999
 20
152.56495699999991
 30
0.0
 40
2.3795319999999989
 50
193.51115799999999
 51
198.78809000000001
  0
ARC
  5
167
  8
0
 62
     7
 10
141.890006
 20
158.44198600000001
 30
0.0
 40
19.638869
 50
199.77202500000001
 51
216.94985700000001
  0
ARC
  5
168
  8
0
 62
     7
 10
144.07933499999999
 20
159.95355599999991
 30
0.0
 40
22.297388000000002
 50
216.67220499999999
 51
233.0910979999999
  0
ARC
  5
169
  8
0
 62
     7
 10
145.92671699999991
 20
162.21805699999999
 30
0.0
 40
25.217770999999988
 50
232.8247779999999
 51
256.156657
  0
ARC
  5
16A
  8
0
 62
     7
 10
146.274788
 20
163.12680599999999
 30
0.0
 40
26.183684
 50
255.89291800000001
 51
261.801019
  0
ARC
  5
16B
  8
0
 62
     7
 10
142.12554900000001
 20
158.2251939999999
 30
0.0
 40
20.764520000000001
 50
199.14436000000001
 51
225.96048300000001
  0
ARC
  5
16C
  8
0
 62
     7
 10
144.2841489999999
 20
160.30047999999991
 30
0.0
 40
23.757171
 50
225.69739399999989
 51
239.57101899999989
  0
ARC
  5
16D
  8
0
 62
     7
 10
146.58688599999999
 20
163.92714299999989
 30
0.0
 40
28.050951000000001
 50
239.26717600000001
 51
252.39199099999999
  0
ARC
  5
16E
  8
0
 62
     7
 10
147.79746299999999
 20
167.1879769999999
 30
0.0
 40
31.525658
 50
252.08766600000001
 51
257.44959499999999
  0
LINE
  5
16F
  8
0
 62
     7
 10
142.7589999999999
 20
139.01699999999991
 30
0.0
 11
142.43700000000001
 21
139.01699999999991
 31
0.0
  0
ARC
  5
170
  8
0
 62
     7
 10
59.330319999999993
 20
157.64505700000001
 30
0.0
 40
16.606552000000001
 50
203.43438599999999
 51
234.90759499999999
  0
ARC
  5
171
  8
0
 62
     7
 10
60.856943999999991
 20
159.6318729999999
 30
0.0
 40
19.110167000000001
 50
234.58706199999989
 51
247.25805600000001
  0
ARC
  5
172
  8
0
 62
     7
 10
62.279795
 20
162.73513500000001
 30
0.0
 40
22.522494999999999
 50
246.971689
 51
256.72806999999989
  0
ARC
  5
173
  8
0
 62
     7
 10
63.147154
 20
165.973544
 30
0.0
 40
25.873729999999991
 50
256.50498399999992
 51
261.33083399999992
  0
LINE
  5
174
  8
0
 62
     7
 10
43.580899999999993
 20
164.6049999999999
 30
0.0
 11
41.923099999999991
 21
164.16099999999989
 31
0.0
  0
LINE
  5
175
  8
0
 62
     7
 10
41.923099999999991
 20
164.16099999999989
 30
0.0
 11
43.580899999999993
 21
163.71700000000001
 31
0.0
  0
LINE
  5
176
  8
0
 62
     7
 10
43.580899999999993
 20
163.71700000000001
 30
0.0
 11
43.580899999999993
 21
164.6049999999999
 31
0.0
  0
LINE
  5
177
  8
0
 62
     7
 10
85.2654
 20
163.72799999999989
 30
0.0
 11
86.923199999999994
 21
164.172
 31
0.0
  0
LINE
  5
178
  8
0
 62
     7
 10
86.923199999999994
 20
164.172
 30
0.0
 11
85.2654
 21
164.6159999999999
 31
0.0
  0
LINE
  5
179
  8
0
 62
     7
 10
85.2654
 20
164.6159999999999
 30
0.0
 11
85.2654
 21
163.72799999999989
 31
0.0
  0
LINE
  5
17A
  8
0
 62
     7
 10
41.923099999999991
 20
164.16599999999991
 30
0.0
 11
86.923199999999994
 21
164.16599999999991
 31
0.0
  0
LINE
  5
17B
  8
0
 62
     7
 10
86.923199999999994
 20
156.89599999999999
 30
0.0
 11
86.923199999999994
 21
164.69900000000001
 31
0.0
  0
LINE
  5
17C
  8
0
 62
     7
 10
41.923099999999991
 20
157.06999999999991
 30
0.0
 11
41.923099999999991
 21
164.69900000000001
 31
0.0
  0
LINE
  5
17D
  8
0
 62
     7
 10
143.977
 20
129.86999999999989
 30
0.0
 11
145.63499999999999
 21
129.42599999999999
 31
0.0
  0
LINE
  5
17E
  8
0
 62
     7
 10
145.63499999999999
 20
129.42599999999999
 30
0.0
 11
143.977
 21
128.98199999999991
 31
0.0
  0
LINE
  5
17F
  8
0
 62
     7
 10
143.977
 20
128.98199999999991
 30
0.0
 11
143.977
 21
129.86999999999989
 31
0.0
  0
LINE
  5
180
  8
0
 62
     7
 10
123.54300000000001
 20
128.99299999999999
 30
0.0
 11
121.8839999999999
 21
129.43700000000001
 31
0.0
  0
LINE
  5
181
  8
0
 62
     7
 10
121.8839999999999
 20
129.43700000000001
 30
0.0
 11
123.54300000000001
 21
129.881
 31
0.0
  0
LINE
  5
182
  8
0
 62
     7
 10
123.54300000000001
 20
129.881
 30
0.0
 11
123.54300000000001
 21
128.99299999999999
 31
0.0
  0
LINE
  5
183
  8
0
 62
     7
 10
145.63499999999999
 20
129.43199999999999
 30
0.0
 11
121.8839999999999
 21
129.43199999999999
 31
0.0
  0
LINE
  5
184
  8
0
 62
     7
 10
121.8839999999999
 20
151.649
 30
0.0
 11
121.8839999999999
 21
128.899
 31
0.0
  0
LINE
  5
185
  8
0
 62
     7
 10
145.63499999999999
 20
132.33199999999999
 30
0.0
 11
145.63499999999999
 21
128.899
 31
0.0
  0
LINE
  5
186
  8
0
 62
     7
 10
115.28700000000001
 20
154.7579999999999
 30
0.0
 11
115.73099999999999
 21
156.416
 31
0.0
  0
LINE
  5
187
  8
0
 62
     7
 10
115.73099999999999
 20
156.416
 30
0.0
 11
116.176
 21
154.7579999999999
 31
0.0
  0
LINE
  5
188
  8
0
 62
     7
 10
116.176
 20
154.7579999999999
 30
0.0
 11
115.28700000000001
 21
154.7579999999999
 31
0.0
  0
LINE
  5
189
  8
0
 62
     7
 10
116.16500000000001
 20
137.44799999999989
 30
0.0
 11
115.721
 21
135.79099999999991
 31
0.0
  0
LINE
  5
18A
  8
0
 62
     7
 10
115.721
 20
135.79099999999991
 30
0.0
 11
115.277
 21
137.44799999999989
 31
0.0
  0
LINE
  5
18B
  8
0
 62
     7
 10
115.277
 20
137.44799999999989
 30
0.0
 11
116.16500000000001
 21
137.44799999999989
 31
0.0
  0
LINE
  5
18C
  8
0
 62
     7
 10
115.7259999999999
 20
156.416
 30
0.0
 11
115.7259999999999
 21
135.79099999999991
 31
0.0
  0
LINE
  5
18D
  8
0
 62
     7
 10
115.1939999999999
 20
156.416
 30
0.0
 11
121.099
 21
156.416
 31
0.0
  0
LINE
  5
18E
  8
0
 62
     7
 10
115.1939999999999
 20
135.79099999999991
 30
0.0
 11
139.22499999999991
 21
135.79099999999991
 31
0.0
  0
LINE
  5
18F
  8
0
 62
     7
 10
144.3179999999999
 20
143.0739999999999
 30
0.0
 11
143.87399999999991
 21
141.416
 31
0.0
  0
LINE
  5
190
  8
0
 62
     7
 10
143.87399999999991
 20
141.416
 30
0.0
 11
143.429
 21
143.0739999999999
 31
0.0
  0
LINE
  5
191
  8
0
 62
     7
 10
143.429
 20
143.0739999999999
 30
0.0
 11
144.3179999999999
 21
143.0739999999999
 31
0.0
  0
LINE
  5
192
  8
0
 62
     7
 10
143.43999999999991
 20
154.7579999999999
 30
0.0
 11
143.8839999999999
 21
156.416
 31
0.0
  0
LINE
  5
193
  8
0
 62
     7
 10
143.8839999999999
 20
156.416
 30
0.0
 11
144.328
 21
154.7579999999999
 31
0.0
  0
LINE
  5
194
  8
0
 62
     7
 10
144.328
 20
154.7579999999999
 30
0.0
 11
143.43999999999991
 21
154.7579999999999
 31
0.0
  0
LINE
  5
195
  8
0
 62
     7
 10
143.87899999999999
 20
141.416
 30
0.0
 11
143.87899999999999
 21
156.416
 31
0.0
  0
LINE
  5
196
  8
0
 62
     7
 10
125.322
 20
157.828
 30
0.0
 11
125.322
 21
165.27699999999999
 31
0.0
  0
LINE
  5
197
  8
0
 62
     7
 10
165.94699999999989
 20
157.49899999999991
 30
0.0
 11
165.94699999999989
 21
165.327
 31
0.0
  0
LINE
  5
198
  8
0
 62
     7
 10
120.226
 20
165.184
 30
0.0
 11
121.8839999999999
 21
164.739
 31
0.0
  0
LINE
  5
199
  8
0
 62
     7
 10
121.8839999999999
 20
164.739
 30
0.0
 11
120.226
 21
164.2949999999999
 31
0.0
  0
LINE
  5
19A
  8
0
 62
     7
 10
120.226
 20
164.2949999999999
 30
0.0
 11
120.226
 21
165.184
 31
0.0
  0
LINE
  5
19B
  8
0
 62
     7
 10
164.28899999999999
 20
165.184
 30
0.0
 11
165.94699999999989
 21
164.739
 31
0.0
  0
LINE
  5
19C
  8
0
 62
     7
 10
165.94699999999989
 20
164.739
 30
0.0
 11
164.28899999999999
 21
164.2949999999999
 31
0.0
  0
LINE
  5
19D
  8
0
 62
     7
 10
164.28899999999999
 20
164.2949999999999
 30
0.0
 11
164.28899999999999
 21
165.184
 31
0.0
  0
LINE
  5
19E
  8
0
 62
     7
 10
169.79300000000001
 20
164.30600000000001
 30
0.0
 11
168.13499999999991
 21
164.74999999999989
 31
0.0
  0
LINE
  5
19F
  8
0
 62
     7
 10
168.13499999999991
 20
164.74999999999989
 30
0.0
 11
169.79300000000001
 21
165.19399999999999
 31
0.0
  0
LINE
  5
1A0
  8
0
 62
     7
 10
169.79300000000001
 20
165.19399999999999
 30
0.0
 11
169.79300000000001
 21
164.30600000000001
 31
0.0
  0
LINE
  5
1A1
  8
0
 62
     7
 10
126.98
 20
164.30600000000001
 30
0.0
 11
125.322
 21
164.74999999999989
 31
0.0
  0
LINE
  5
1A2
  8
0
 62
     7
 10
125.322
 20
164.74999999999989
 30
0.0
 11
126.98
 21
165.19399999999999
 31
0.0
  0
LINE
  5
1A3
  8
0
 62
     7
 10
126.98
 20
165.19399999999999
 30
0.0
 11
126.98
 21
164.30600000000001
 31
0.0
  0
LINE
  5
1A4
  8
0
 62
     7
 10
176.70500000000001
 20
164.745
 30
0.0
 11
113.223
 21
164.745
 31
0.0
  0
LINE
  5
1A5
  8
0
 62
     7
 10
166.477
 20
173.2109999999999
 30
0.0
 11
168.13499999999991
 21
172.76699999999991
 31
0.0
  0
LINE
  5
1A6
  8
0
 62
     7
 10
168.13499999999991
 20
172.76699999999991
 30
0.0
 11
166.477
 21
172.32299999999989
 31
0.0
  0
LINE
  5
1A7
  8
0
 62
     7
 10
166.477
 20
172.32299999999989
 30
0.0
 11
166.477
 21
173.2109999999999
 31
0.0
  0
LINE
  5
1A8
  8
0
 62
     7
 10
123.54300000000001
 20
172.334
 30
0.0
 11
121.8839999999999
 21
172.77799999999991
 31
0.0
  0
LINE
  5
1A9
  8
0
 62
     7
 10
121.8839999999999
 20
172.77799999999991
 30
0.0
 11
123.54300000000001
 21
173.22200000000001
 31
0.0
  0
LINE
  5
1AA
  8
0
 62
     7
 10
123.54300000000001
 20
173.22200000000001
 30
0.0
 11
123.54300000000001
 21
172.334
 31
0.0
  0
LINE
  5
1AB
  8
0
 62
     7
 10
168.13499999999991
 20
172.77199999999999
 30
0.0
 11
121.8839999999999
 21
172.77199999999999
 31
0.0
  0
LINE
  5
1AC
  8
0
 62
     7
 10
121.8839999999999
 20
157.24999999999989
 30
0.0
 11
121.8839999999999
 21
173.30500000000001
 31
0.0
  0
LINE
  5
1AD
  8
0
 62
     7
 10
168.13499999999991
 20
157.24999999999989
 30
0.0
 11
168.13499999999991
 21
173.30500000000001
 31
0.0
  0
ARC
  5
1AE
  8
0
 62
     7
 10
59.09086099999999
 20
139.76958699999989
 30
0.0
 40
0.645071
 50
1.3641179999999991
 51
75.971261000000013
  0
LINE
  5
1AF
  8
0
 62
     7
 10
59.735700000000001
 20
139.785
 30
0.0
 11
59.735700000000001
 21
136.166
 31
0.0
  0
ARC
  5
1B0
  8
0
  6
AIGENLINE003
 62
     7
 10
64.375272999999993
 20
153.2424179999999
 30
0.0
 40
1.298675
 50
2.1138789999999998
 51
87.886111
  0
ARC
  5
1B1
  8
0
  6
AIGENLINE003
 62
     7
 10
64.471461000000005
 20
153.24203600000001
 30
0.0
 40
1.299070999999999
 50
92.130084999999994
 51
177.86988500000001
  0
ARC
  5
1B2
  8
0
  6
AIGENLINE003
 62
     7
 10
64.423348000000004
 20
153.2901479999999
 30
0.0
 40
1.2500610000000001
 50
179.992075
 51
269.99212499999999
  0
ARC
  5
1B3
  8
0
  6
AIGENLINE003
 62
     7
 10
64.423004000000006
 20
153.2901479999999
 30
0.0
 40
1.2500610000000001
 50
270.00791499999991
 51
0.007885
  0
LINE
  5
1B4
  8
0
  6
AIGENLINE002
 62
     7
 10
67.114500000000007
 20
153.291
 30
0.0
 11
61.72979999999999
 21
153.291
 31
0.0
  0
LINE
  5
1B5
  8
0
 62
     7
 10
64.423199999999994
 20
135.79099999999991
 30
0.0
 11
60.110599999999998
 21
135.79099999999991
 31
0.0
  0
LINE
  5
1B6
  8
0
 62
     7
 10
67.444000000000003
 20
137.04099999999991
 30
0.0
 11
67.881600000000006
 21
150.166
 31
0.0
  0
LINE
  5
1B7
  8
0
  6
AIGENLINE002
 62
     7
 10
64.423199999999994
 20
133.00200000000001
 30
0.0
 11
64.423199999999994
 21
159.1989999999999
 31
0.0
  0
LINE
  5
1B8
  8
0
 62
     7
 10
59.714700000000001
 20
151.41499999999991
 30
0.0
 11
42.879100000000001
 21
151.41499999999991
 31
0.0
  0
LINE
  5
1B9
  8
0
 62
     7
 10
64.423199999999994
 20
156.416
 30
0.0
 11
41.923099999999991
 21
156.416
 31
0.0
  0
LINE
  5
1BA
  8
0
 62
     7
 10
41.82459999999999
 20
234.3249999999999
 30
0.0
 11
41.82459999999999
 21
268.20999999999992
 31
0.0
  0
LINE
  5
1BB
  8
0
 62
     7
 10
43.482399999999991
 20
268.11599999999987
 30
0.0
 11
41.82459999999999
 21
267.67200000000003
 31
0.0
  0
LINE
  5
1BC
  8
0
 62
     7
 10
41.82459999999999
 20
267.67200000000003
 30
0.0
 11
43.482399999999991
 21
267.22699999999998
 31
0.0
  0
LINE
  5
1BD
  8
0
 62
     7
 10
43.482399999999991
 20
267.22699999999998
 30
0.0
 11
43.482399999999991
 21
268.11599999999987
 31
0.0
  0
LINE
  5
1BE
  8
0
 62
     7
 10
85.490099999999998
 20
267.23799999999989
 30
0.0
 11
87.147900000000007
 21
267.68299999999988
 31
0.0
  0
LINE
  5
1BF
  8
0
 62
     7
 10
87.147900000000007
 20
267.68299999999988
 30
0.0
 11
85.490099999999998
 21
268.12700000000001
 31
0.0
  0
LINE
  5
1C0
  8
0
 62
     7
 10
85.490099999999998
 20
268.12700000000001
 30
0.0
 11
85.490099999999998
 21
267.23799999999989
 31
0.0
  0
LINE
  5
1C1
  8
0
 62
     7
 10
41.82459999999999
 20
267.67700000000002
 30
0.0
 11
87.147900000000007
 21
267.67700000000002
 31
0.0
  0
LINE
  5
1C2
  8
0
 62
     7
 10
87.147900000000007
 20
234.3249999999999
 30
0.0
 11
87.147900000000007
 21
268.20999999999992
 31
0.0
  0
LINE
  5
1C3
  8
0
 62
     7
 10
45.740600000000001
 20
261.40899999999999
 30
0.0
 11
44.082500000000003
 21
260.96499999999992
 31
0.0
  0
LINE
  5
1C4
  8
0
 62
     7
 10
44.082500000000003
 20
260.96499999999992
 30
0.0
 11
45.740600000000001
 21
260.51999999999992
 31
0.0
  0
LINE
  5
1C5
  8
0
 62
     7
 10
45.740600000000001
 20
260.51999999999992
 30
0.0
 11
45.740600000000001
 21
261.40899999999999
 31
0.0
  0
LINE
  5
1C6
  8
0
 62
     7
 10
83.232100000000017
 20
260.53100000000001
 30
0.0
 11
84.889899999999983
 21
260.976
 31
0.0
  0
LINE
  5
1C7
  8
0
 62
     7
 10
84.889899999999983
 20
260.976
 30
0.0
 11
83.232100000000017
 21
261.42000000000002
 31
0.0
  0
LINE
  5
1C8
  8
0
 62
     7
 10
83.232100000000017
 20
261.42000000000002
 30
0.0
 11
83.232100000000017
 21
260.53100000000001
 31
0.0
  0
LINE
  5
1C9
  8
0
 62
     7
 10
44.082500000000003
 20
260.97000000000003
 30
0.0
 11
84.889899999999983
 21
260.97000000000003
 31
0.0
  0
LINE
  5
1CA
  8
0
 62
     7
 10
44.082500000000003
 20
233.87899999999999
 30
0.0
 11
44.082500000000003
 21
261.50299999999987
 31
0.0
  0
LINE
  5
1CB
  8
0
 62
     7
 10
84.889899999999983
 20
233.87899999999999
 30
0.0
 11
84.889899999999983
 21
261.50299999999987
 31
0.0
  0
LINE
  5
1CC
  8
0
 62
     7
 10
50.741900000000001
 20
222.2339999999999
 30
0.0
 11
57.630400000000002
 21
222.2339999999999
 31
0.0
  0
LINE
  5
1CD
  8
0
 62
     7
 10
61.531999999999996
 20
225.50699999999989
 30
0.0
 11
62.390599999999999
 21
226.994
 31
0.0
  0
LINE
  5
1CE
  8
0
 62
     7
 10
62.390599999999999
 20
226.994
 30
0.0
 11
60.903599999999997
 21
226.13599999999991
 31
0.0
  0
LINE
  5
1CF
  8
0
 62
     7
 10
60.903599999999997
 20
226.13599999999991
 30
0.0
 11
61.531999999999996
 21
225.50699999999989
 31
0.0
  0
LINE
  5
1D0
  8
0
 62
     7
 10
67.314300000000003
 20
232.54599999999999
 30
0.0
 11
66.456100000000006
 21
231.05999999999989
 31
0.0
  0
LINE
  5
1D1
  8
0
 62
     7
 10
66.456100000000006
 20
231.05999999999989
 30
0.0
 11
67.942700000000002
 21
231.91800000000001
 31
0.0
  0
LINE
  5
1D2
  8
0
 62
     7
 10
67.942700000000002
 20
231.91800000000001
 30
0.0
 11
67.314300000000003
 21
232.54599999999999
 31
0.0
  0
LINE
  5
1D3
  8
0
 62
     7
 10
70.960599999999999
 20
235.56399999999999
 30
0.0
 11
57.630400000000002
 21
222.2339999999999
 31
0.0
  0
ARC
  5
1D4
  8
0
 62
     7
 10
64.423003000000008
 20
229.026917
 30
0.0
 40
2.8751220000000002
 50
180.00344299999989
 51
270.00345299999992
  0
ARC
  5
1D5
  8
0
 62
     7
 10
64.423175999999984
 20
229.02674499999989
 30
0.0
 40
2.8749509999999989
 50
270.00002000000001
 51
359.99998999999991
  0
ARC
  5
1D6
  8
0
 62
     7
 10
64.423175999999984
 20
229.02674400000001
 30
0.0
 40
2.8749509999999989
 50
0.00001
 51
89.999980000000008
  0
ARC
  5
1D7
  8
0
 62
     7
 10
64.423004000000006
 20
229.02657199999999
 30
0.0
 40
2.875122999999999
 50
89.996566999999999
 51
179.99653699999999
  0
ARC
  5
1D8
  8
0
 62
     7
 10
64.423175000000001
 20
229.02674400000001
 30
0.0
 40
4.6874260000000003
 50
179.99996999999991
 51
270.00002000000001
  0
ARC
  5
1D9
  8
0
 62
     7
 10
64.423175000000001
 20
229.02674599999989
 30
0.0
 40
4.6874269999999987
 50
270.00002000000001
 51
359.99998999999991
  0
ARC
  5
1DA
  8
0
 62
     7
 10
64.423089000000004
 20
229.02682999999999
 30
0.0
 40
4.687513
 50
359.9989569999999
 51
89.998926999999995
  0
ARC
  5
1DB
  8
0
 62
     7
 10
64.423263000000006
 20
229.02682999999999
 30
0.0
 40
4.687513
 50
90.001052999999985
 51
180.0010629999999
  0
LINE
  5
1DC
  8
_________2
 62
     7
 10
210.24000000000001
 20
148.93100000000001
 30
0.0
 11
188.49000000000001
 21
148.93100000000001
 31
0.0
  0
LINE
  5
1DD
  8
_________2
 62
     7
 10
105.2389999999999
 20
17.428499999999989
 30
0.0
 11
105.2389999999999
 21
0.4482100000000001
 31
0.0
  0
LINE
  5
1DE
  8
_________2
 62
     7
 10
105.2389999999999
 20
297.44999999999987
 30
0.0
 11
105.2389999999999
 21
280.42999999999989
 31
0.0
  0
LINE
  5
1DF
  8
_________2
 62
     7
 10
21.988499999999991
 20
148.93100000000001
 30
0.0
 11
0.238058
 21
148.93100000000001
 31
0.0
  0
LINE
  5
1E0
  8
_________2
 62
     7
 10
81.679900000000004
 20
51.324300000000001
 30
0.0
 11
79.493700000000004
 21
51.324300000000001
 31
0.0
  0
LINE
  5
1E1
  8
_________2
 62
     7
 10
82.172600000000017
 20
51.324300000000001
 30
0.0
 11
81.920400000000001
 21
51.324300000000001
 31
0.0
  0
LINE
  5
1E2
  8
_________2
 62
     7
 10
82.665199999999984
 20
51.324300000000001
 30
0.0
 11
85.590100000000007
 21
51.324300000000001
 31
0.0
  0
LINE
  5
1E3
  8
_________2
 62
     7
 10
82.172600000000017
 20
51.324300000000001
 30
0.0
 11
82.424800000000005
 21
51.324300000000001
 31
0.0
  0
LINE
  5
1E4
  8
_________2
 62
     7
 10
75.776399999999995
 20
51.324300000000001
 30
0.0
 11
73.589399999999998
 21
51.324300000000001
 31
0.0
  0
LINE
  5
1E5
  8
_________2
 62
     7
 10
76.2684
 20
51.324300000000001
 30
0.0
 11
76.016900000000007
 21
51.324300000000001
 31
0.0
  0
LINE
  5
1E6
  8
_________2
 62
     7
 10
76.2684
 20
51.817
 30
0.0
 11
76.2684
 21
54.003900000000002
 31
0.0
  0
LINE
  5
1E7
  8
_________2
 62
     7
 10
76.2684
 20
51.324300000000001
 30
0.0
 11
76.2684
 21
51.576500000000003
 31
0.0
  0
LINE
  5
1E8
  8
_________2
 62
     7
 10
76.76100000000001
 20
51.324300000000001
 30
0.0
 11
78.947999999999993
 21
51.324300000000001
 31
0.0
  0
LINE
  5
1E9
  8
_________2
 62
     7
 10
76.2684
 20
51.324300000000001
 30
0.0
 11
76.520499999999998
 21
51.324300000000001
 31
0.0
  0
LINE
  5
1EA
  8
_________2
 62
     7
 10
76.2684
 20
50.832399999999993
 30
0.0
 11
76.2684
 21
48.645400000000002
 31
0.0
  0
LINE
  5
1EB
  8
_________2
 62
     7
 10
76.2684
 20
51.324300000000001
 30
0.0
 11
76.2684
 21
51.072800000000001
 31
0.0
  0
LINE
  5
1EC
  8
_________2
 62
     7
 10
79.979399999999984
 20
50.104799999999997
 30
0.0
 11
85.157399999999996
 21
49.240000000000002
 31
0.0
  0
LINE
  5
1ED
  8
_________2
 62
     7
 10
79.979399999999984
 20
52.543900000000001
 30
0.0
 11
85.157399999999996
 21
53.409300000000002
 31
0.0
  0
LINE
  5
1EE
  8
_________2
 62
     7
 10
85.157399999999996
 20
49.240000000000002
 30
0.0
 11
85.157399999999996
 21
53.409300000000002
 31
0.0
  0
LINE
  5
1EF
  8
_________2
 62
     7
 10
79.979399999999984
 20
50.104799999999997
 30
0.0
 11
79.979399999999984
 21
52.543900000000001
 31
0.0
  0
ARC
  5
1F0
  8
_________2
 62
     7
 10
76.222110000000001
 20
51.277366999999991
 30
0.0
 40
1.2673709999999989
 50
2.1232950000000002
 51
87.909056000000007
  0
ARC
  5
1F1
  8
_________2
 62
     7
 10
76.315273000000005
 20
51.277400999999998
 30
0.0
 40
1.267363
 50
92.121785999999986
 51
177.878185
  0
ARC
  5
1F2
  8
_________2
 62
     7
 10
76.315273000000005
 20
51.371245999999992
 30
0.0
 40
1.267363
 50
182.12181499999991
 51
267.87821400000001
  0
ARC
  5
1F3
  8
_________2
 62
     7
 10
76.221461000000005
 20
51.371928999999987
 30
0.0
 40
1.2680439999999991
 50
272.11916400000001
 51
357.84848499999993
  0
ARC
  5
1F4
  8
_________2
 62
     7
 10
76.268349999999984
 20
51.324323
 30
0.0
 40
2.0849849999999992
 50
0.00001
 51
89.999980000000008
  0
ARC
  5
1F5
  8
_________2
 62
     7
 10
76.348388
 20
51.245001999999992
 30
0.0
 40
2.1657860000000002
 50
92.117855000000034
 51
177.90105299999991
  0
ARC
  5
1F6
  8
_________2
 62
     7
 10
76.348354
 20
51.404327000000002
 30
0.0
 40
2.1657779999999991
 50
182.11700400000001
 51
267.88302499999992
  0
ARC
  5
1F7
  8
_________2
 62
     7
 10
76.188378999999983
 20
51.405009999999997
 30
0.0
 40
2.1664590000000001
 50
272.11546800000002
 51
357.86560400000002
  0
TEXT
  5
1F8
  8
_________2
 62
     7
 10
109.5439999999999
 20
23.199100000000001
 30
0.0
 40
3.0923400000000001
  1
図番
 41
0.5
  0
LINE
  5
1F9
  8
_________2
 62
     7
 10
108.4889999999999
 20
27.4283
 30
0.0
 11
188.49000000000001
 21
27.4283
 31
0.0
  0
TEXT
  5
1FA
  8
_________2
 62
     7
 10
109.5439999999999
 20
33.198900000000002
 30
0.0
 40
3.0923400000000001
  1
品番
 41
0.5
  0
TEXT
  5
1FB
  8
_________2
 62
     7
 10
109.5439999999999
 20
53.337699999999998
 30
0.0
 40
3.0923400000000001
  1
名称
 41
0.5
  0
TEXT
  5
1FC
  8
_________2
 62
     7
 10
96.784058333333334
 20
48.341500000000011
 30
0.0
 40
3.6545800000000002
  1
mm
 41
0.5
 72
     1
 11
98.306799999999996
 21
48.341500000000011
 31
0.0
  0
TEXT
  5
1FD
  8
_________2
 62
     7
 10
90.582099999999997
 20
53.337699999999998
 30
0.0
 40
3.0923400000000001
  1
単位
 41
0.5
  0
TEXT
  5
1FE
  8
_________2
 62
     7
 10
90.582099999999997
 20
40.930399999999999
 30
0.0
 40
3.0923400000000001
  1
尺度
 41
0.5
  0
TEXT
  5
1FF
  8
_________2
 62
     7
 10
95.487658666666675
 20
34.73749999999999
 30
0.0
 40
3.6545800000000002
  1
1 ： 8
 41
0.5
 72
     1
 11
98.898600000000002
 21
34.73749999999999
 31
0.0
  0
TEXT
  5
200
  8
_________2
 62
     7
 10
137.50183749999999
 20
30.627400000000002
 30
0.0
 40
3.9357000000000002
  1
DV031932R-00
 41
0.5
 72
     1
 11
148.489
 21
30.627400000000002
 31
0.0
  0
TEXT
  5
201
  8
_________2
 62
     7
 10
140.12563750000001
 20
20.626999999999988
 30
0.0
 40
3.9357000000000002
  1
DV031932R
 41
0.5
 72
     1
 11
148.489
 21
20.626999999999988
 31
0.0
  0
TEXT
  5
202
  8
_________2
 62
     7
 10
29.525700000000001
 20
22.226900000000001
 30
0.0
 40
3.9357000000000002
  1
実容量：4.0L、重量：4.9kg、オーバーフロー付
 41
0.5
  0
TEXT
  5
203
  8
_________2
 62
     7
 10
114.11799999999999
 20
45.7453
 30
0.0
 40
3.9357000000000002
  1
アーキテック アンダーカウンター式洗面器
 41
0.5
  0
TEXT
  5
204
  8
_________2
 62
     7
 10
44.364200333333329
 20
35.122599999999991
 30
0.0
 40
3.6545800000000002
  1
早川
 41
0.5
 72
     1
 11
46.252400000000002
 21
35.122599999999991
 31
0.0
  0
TEXT
  5
205
  8
_________2
 62
     7
 10
25.72929066666666
 20
35.122599999999991
 30
0.0
 40
3.6545800000000002
  1
石原
 41
0.5
 72
     1
 11
27.6784
 21
35.122599999999991
 31
0.0
  0
TEXT
  5
206
  8
_________2
 62
     7
 10
72.724699999999999
 20
34.73749999999999
 30
0.0
 40
3.6545800000000002
  1
13.12.05
 41
0.5
  0
TEXT
  5
207
  8
_________2
 62
     7
 10
71.531999999999996
 20
40.930399999999999
 30
0.0
 40
3.0923400000000001
  1
日付
 41
0.5
  0
TEXT
  5
208
  8
_________2
 62
     7
 10
34.578299999999992
 20
40.930399999999999
 30
0.0
 40
3.0923400000000001
  1
検図
 41
0.5
  0
TEXT
  5
209
  8
_________2
 62
     7
 10
22.960000000000001
 20
26.730999999999991
 30
0.0
 40
3.0923400000000001
  1
備考
 41
0.5
  0
TEXT
  5
20A
  8
_________2
 62
     7
 10
22.960000000000001
 20
40.930399999999999
 30
0.0
 40
3.0923400000000001
  1
製図
 41
0.5
  0
TEXT
  5
20B
  8
_________2
 62
     7
 10
28.727365333333339
 20
49.456400000000002
 30
0.0
 40
4.4979399999999989
  1
セラトレーディング株式会社
 41
0.5
 72
     1
 11
46.119399999999992
 21
49.456400000000002
 31
0.0
  0
LINE
  5
20C
  8
_________2
 62
     7
 10
188.49000000000001
 20
17.428499999999989
 30
0.0
 11
21.988499999999991
 21
17.428499999999989
 31
0.0
  0
LINE
  5
20D
  8
_________2
 62
     7
 10
21.988499999999991
 20
17.428499999999989
 30
0.0
 11
21.988499999999991
 21
280.42999999999989
 31
0.0
  0
LINE
  5
20E
  8
_________2
 62
     7
 10
21.988499999999991
 20
280.42999999999989
 30
0.0
 11
188.49000000000001
 21
280.42999999999989
 31
0.0
  0
LINE
  5
20F
  8
_________2
 62
     7
 10
188.49000000000001
 20
280.42999999999989
 30
0.0
 11
188.49000000000001
 21
17.428499999999989
 31
0.0
  0
LINE
  5
210
  8
_________2
 62
     7
 10
70.488799999999998
 20
30.9285
 30
0.0
 11
70.488799999999998
 21
57.428400000000011
 31
0.0
  0
LINE
  5
211
  8
_________2
 62
     7
 10
89.488600000000005
 20
30.9285
 30
0.0
 11
89.488600000000005
 21
57.428400000000011
 31
0.0
  0
LINE
  5
212
  8
_________2
 62
     7
 10
108.4889999999999
 20
17.428499999999989
 30
0.0
 11
108.4889999999999
 21
57.428400000000011
 31
0.0
  0
LINE
  5
213
  8
_________2
 62
     7
 10
33.488300000000002
 20
30.9285
 30
0.0
 11
33.488300000000002
 21
44.928800000000003
 31
0.0
  0
LINE
  5
214
  8
_________2
 62
     7
 10
21.988499999999991
 20
30.9285
 30
0.0
 11
108.4889999999999
 21
30.9285
 31
0.0
  0
LINE
  5
215
  8
_________2
 62
     7
 10
21.988499999999991
 20
44.928800000000003
 30
0.0
 11
108.4889999999999
 21
44.928800000000003
 31
0.0
  0
LINE
  5
216
  8
_________2
 62
     7
 10
108.4889999999999
 20
37.428100000000001
 30
0.0
 11
188.49000000000001
 21
37.428100000000001
 31
0.0
  0
LINE
  5
217
  8
_________2
 62
     7
 10
21.988499999999991
 20
57.428400000000011
 30
0.0
 11
188.49000000000001
 21
57.428400000000011
 31
0.0
  0
ENDSEC
  0
EOF
