  0
SECTION
  2
HEADER
  9
$ACADVER
  1
AC1009
  9
$INSBASE
 10
0.0
 20
0.0
 30
0.0
  9
$EXTMIN
 10
-4.7008599999999987
 20
-21.070999999999991
 30
0.0
  9
$EXTMAX
 10
205.30099999999999
 20
275.93099999999993
 30
0.0
  9
$LIMMIN
 10
0.0
 20
0.0
  9
$LIMMAX
 10
12.0
 20
9.0
  9
$ORTHOMODE
 70
     0
  9
$REGENMODE
 70
     1
  9
$FILLMODE
 70
     1
  9
$QTEXTMODE
 70
     0
  9
$MIRRTEXT
 70
     1
  9
$DRAGMODE
 70
     2
  9
$LTSCALE
 40
1.0
  9
$OSMODE
 70
    37
  9
$ATTMODE
 70
     1
  9
$TEXTSIZE
 40
0.0
  9
$TRACEWID
 40
0.05
  9
$TEXTSTYLE
  7
STANDARD
  9
$CLAYER
  8
0
  9
$CELTYPE
  6
CONTINUOUS
  9
$CECOLOR
 62
   256
  9
$DIMSCALE
 40
1.0
  9
$DIMASZ
 40
0.18
  9
$DIMEXO
 40
0.0625
  9
$DIMDLI
 40
0.38
  9
$DIMRND
 40
0.0
  9
$DIMDLE
 40
0.0
  9
$DIMEXE
 40
0.18
  9
$DIMTP
 40
0.0
  9
$DIMTM
 40
0.0
  9
$DIMTXT
 40
0.18
  9
$DIMCEN
 40
0.09
  9
$DIMTSZ
 40
0.0
  9
$DIMTOL
 70
     0
  9
$DIMLIM
 70
     0
  9
$DIMTIH
 70
     1
  9
$DIMTOH
 70
     1
  9
$DIMSE1
 70
     0
  9
$DIMSE2
 70
     0
  9
$DIMTAD
 70
     0
  9
$DIMZIN
 70
     0
  9
$DIMBLK
  1

  9
$DIMASO
 70
     1
  9
$DIMSHO
 70
     1
  9
$DIMPOST
  1

  9
$DIMAPOST
  1

  9
$DIMALT
 70
     0
  9
$DIMALTD
 70
     2
  9
$DIMALTF
 40
25.399999999999999
  9
$DIMLFAC
 40
1.0
  9
$DIMTOFL
 70
     0
  9
$DIMTVP
 40
0.0
  9
$DIMTIX
 70
     0
  9
$DIMSOXD
 70
     0
  9
$DIMSAH
 70
     0
  9
$DIMBLK1
  1

  9
$DIMBLK2
  1

  9
$DIMSTYLE
  2
STANDARD
  9
$DIMCLRD
 70
     0
  9
$DIMCLRE
 70
     0
  9
$DIMCLRT
 70
     0
  9
$DIMTFAC
 40
1.0
  9
$DIMGAP
 40
0.09
  9
$LUNITS
 70
     2
  9
$LUPREC
 70
     4
  9
$SKETCHINC
 40
0.1
  9
$FILLETRAD
 40
0.0
  9
$AUNITS
 70
     0
  9
$AUPREC
 70
     0
  9
$MENU
  1
.
  9
$ELEVATION
 40
0.0
  9
$PELEVATION
 40
0.0
  9
$THICKNESS
 40
0.0
  9
$LIMCHECK
 70
     0
  9
$BLIPMODE
 70
     0
  9
$CHAMFERA
 40
0.0
  9
$CHAMFERB
 40
0.0
  9
$SKPOLY
 70
     0
  9
$TDCREATE
 40
2444972.375
  9
$TDUPDATE
 40
2454224.285592257
  9
$TDINDWG
 40
0.0077574769
  9
$TDUSRTIMER
 40
0.0077574769
  9
$USRTIMER
 70
     1
  9
$ANGBASE
 50
0.0
  9
$ANGDIR
 70
     0
  9
$PDMODE
 70
     0
  9
$PDSIZE
 40
0.0
  9
$PLINEWID
 40
0.0
  9
$COORDS
 70
     1
  9
$SPLFRAME
 70
     0
  9
$SPLINETYPE
 70
     6
  9
$SPLINESEGS
 70
     8
  9
$ATTDIA
 70
     0
  9
$ATTREQ
 70
     1
  9
$HANDLING
 70
     1
  9
$HANDSEED
  5
4D7
  9
$SURFTAB1
 70
     6
  9
$SURFTAB2
 70
     6
  9
$SURFTYPE
 70
     6
  9
$SURFU
 70
     6
  9
$SURFV
 70
     6
  9
$UCSNAME
  2

  9
$UCSORG
 10
0.0
 20
0.0
 30
0.0
  9
$UCSXDIR
 10
1.0
 20
0.0
 30
0.0
  9
$UCSYDIR
 10
0.0
 20
1.0
 30
0.0
  9
$PUCSNAME
  2

  9
$PUCSORG
 10
0.0
 20
0.0
 30
0.0
  9
$PUCSXDIR
 10
1.0
 20
0.0
 30
0.0
  9
$PUCSYDIR
 10
0.0
 20
1.0
 30
0.0
  9
$USERI1
 70
     0
  9
$USERI2
 70
     0
  9
$USERI3
 70
     0
  9
$USERI4
 70
     0
  9
$USERI5
 70
     0
  9
$USERR1
 40
0.0
  9
$USERR2
 40
0.0
  9
$USERR3
 40
0.0
  9
$USERR4
 40
0.0
  9
$USERR5
 40
0.0
  9
$WORLDVIEW
 70
     1
  9
$SHADEDGE
 70
     3
  9
$SHADEDIF
 70
    70
  9
$TILEMODE
 70
     1
  9
$MAXACTVP
 70
    48
  9
$PLIMCHECK
 70
     0
  9
$PEXTMIN
 10
1.0000000000000000E+020
 20
1.0000000000000000E+020
 30
1.0000000000000000E+020
  9
$PEXTMAX
 10
-1.0000000000000000E+020
 20
-1.0000000000000000E+020
 30
-1.0000000000000000E+020
  9
$PLIMMIN
 10
0.0
 20
0.0
  9
$PLIMMAX
 10
12.0
 20
9.0
  9
$UNITMODE
 70
     0
  9
$VISRETAIN
 70
     1
  9
$PLINEGEN
 70
     0
  9
$PSLTSCALE
 70
     1
  0
ENDSEC
  0
SECTION
  2
TABLES
  0
TABLE
  2
VPORT
 70
     2
  0
VPORT
  2
*ACTIVE
 70
     0
 10
0.0
 20
0.0
 11
1.0
 21
1.0
 12
192.64441062456379
 22
126.64652696028951
 13
0.0
 23
0.0
 14
1.0
 24
1.0
 15
0.0
 25
0.0
 16
0.0
 26
0.0
 36
1.0
 17
0.0
 27
0.0
 37
0.0
 40
289.26864922432571
 41
2.1842105263157889
 42
50.0
 43
0.0
 44
0.0
 50
0.0
 51
0.0
 71
     0
 72
   100
 73
     1
 74
     1
 75
     0
 76
     0
 77
     0
 78
     0
  0
ENDTAB
  0
TABLE
  2
LTYPE
 70
     4
  0
LTYPE
  2
CONTINUOUS
 70
     0
  3
Solid line
 72
    65
 73
     0
 40
0.0
  0
LTYPE
  2
AIGENLINE001
 70
     0
  3
generate AI->DXF Converter
 72
    65
 73
     4
 40
5.8561449999999979
 49
3.5278
 49
-0.776115
 49
0.776115
 49
-0.776115
  0
LTYPE
  2
AIGENLINE002
 70
     0
  3
generate AI->DXF Converter
 72
    65
 73
     4
 40
12.328120999999999
 49
10.0001
 49
-0.776007
 49
0.776007
 49
-0.776007
  0
LTYPE
  2
AIGENLINE003
 70
     0
  3
generate AI->DXF Converter
 72
    65
 73
     6
 40
12.900133
 49
9.0000499999999999
 49
-0.700021
 49
0.9000100000000001
 49
-0.700021
 49
0.9000100000000001
 49
-0.700021
  0
ENDTAB
  0
TABLE
  2
LAYER
 70
     2
  0
LAYER
  2
0
 70
     0
 62
     7
  6
CONTINUOUS
  0
LAYER
  2
_________2
 70
     0
 62
     7
  6
CONTINUOUS
  0
ENDTAB
  0
TABLE
  2
STYLE
 70
     1
  0
STYLE
  2
STANDARD
 70
     0
 40
0.0
 41
0.0
 50
0.0
 71
     0
 42
0.0
  3
TXT
  4
EXTFONT.SHX
  0
ENDTAB
  0
TABLE
  2
VIEW
 70
     0
  0
ENDTAB
  0
TABLE
  2
UCS
 70
     0
  0
ENDTAB
  0
TABLE
  2
APPID
 70
     1
  0
APPID
  2
ACAD
 70
     0
  0
ENDTAB
  0
TABLE
  2
DIMSTYLE
 70
     1
  0
DIMSTYLE
  2
STANDARD
 70
     0
  3

  4

  5

  6

  7

 40
1.0
 41
0.18
 42
0.0625
 43
0.38
 44
0.18
 45
0.0
 46
0.0
 47
0.0
 48
0.0
140
0.18
141
0.09
142
0.0
143
25.399999999999999
144
1.0
145
0.0
146
1.0
147
0.09
 71
     0
 72
     0
 73
     1
 74
     1
 75
     0
 76
     0
 77
     0
 78
     0
170
     0
171
     2
172
     0
173
     0
174
     0
175
     0
176
     0
177
     0
178
     0
  0
ENDTAB
  0
ENDSEC
  0
SECTION
  2
BLOCKS
  0
BLOCK
  8
0
  2
$MODEL_SPACE
 70
     0
 10
0.0
 20
0.0
 30
0.0
  3
$MODEL_SPACE
  1

  0
ENDBLK
  5
25C
  8
0
  0
BLOCK
 67
     1
  8
0
  2
$PAPER_SPACE
 70
     0
 10
0.0
 20
0.0
 30
0.0
  3
$PAPER_SPACE
  1

  0
ENDBLK
  5
258
 67
     1
  8
0
  0
ENDSEC
  0
SECTION
  2
ENTITIES
  0
TEXT
  5
26C
  8
0
 62
     7
 10
62.945756944177049
 20
181.91974305582289
 30
0.0
 40
3.0923400000000001
  1
%%c46
 50
315.0
 41
0.5
 72
     1
 11
64.403499999999994
 21
180.4619999999999
 31
0.0
  0
TEXT
  5
26D
  8
0
 62
     7
 10
148.83869949999999
 20
199.56299999999999
 30
0.0
 40
3.0923400000000001
  1
%%c10穴（2ケ所）
 41
0.5
 72
     1
 11
155.51300000000001
 21
199.56299999999999
 31
0.0
  0
TEXT
  5
26E
  8
0
 62
     7
 10
125.2232025
 20
123.04000000000001
 30
0.0
 40
3.0923400000000001
  1
%%c420
 41
0.5
 72
     1
 11
127.929
 21
123.04000000000001
 31
0.0
  0
TEXT
  5
26F
  8
0
 62
     7
 10
126.04620250000001
 20
78.09869999999998
 30
0.0
 40
3.0923400000000001
  1
%%c220
 41
0.5
 72
     1
 11
128.75200000000001
 21
78.09869999999998
 31
0.0
  0
TEXT
  5
270
  8
0
 62
     7
 10
85.623900000000006
 20
98.463422500000007
 30
0.0
 40
3.0923400000000001
  1
max.30
 50
90.0
 41
0.5
 72
     1
 11
85.623900000000006
 21
102.2
 31
0.0
  0
TEXT
  5
271
  8
0
 62
     7
 10
61.902312239232387
 20
191.35371223923229
 30
0.0
 40
3.0923400000000001
  1
%%c420
 50
45.0
 41
0.5
 72
     1
 11
63.815600000000003
 21
193.267
 31
0.0
  0
TEXT
  5
272
  8
0
 62
     7
 10
124.49021999999989
 20
199.3839999999999
 30
0.0
 40
3.0923400000000001
  1
81
 41
0.5
 72
     1
 11
125.5209999999999
 21
199.3839999999999
 31
0.0
  0
TEXT
  5
273
  8
0
 62
     7
 10
116.1969999999999
 20
187.65452499999989
 30
0.0
 40
3.0923400000000001
  1
75
 50
90.0
 41
0.5
 72
     1
 11
116.1969999999999
 21
188.9429999999999
 31
0.0
  0
TEXT
  5
274
  8
0
 62
     7
 10
116.1969999999999
 20
181.039525
 30
0.0
 40
3.0923400000000001
  1
55
 50
90.0
 41
0.5
 72
     1
 11
116.1969999999999
 21
182.328
 31
0.0
  0
TEXT
  5
275
  8
0
 62
     7
 10
142.56700000000001
 20
186.331525
 30
0.0
 40
3.0923400000000001
  1
47
 50
90.0
 41
0.5
 72
     1
 11
142.56700000000001
 21
187.62
 31
0.0
  0
TEXT
  5
276
  8
0
 62
     7
 10
132.57521999999989
 20
199.3839999999999
 30
0.0
 40
3.0923400000000001
  1
81
 41
0.5
 72
     1
 11
133.60599999999999
 21
199.3839999999999
 31
0.0
  0
TEXT
  5
277
  8
0
 62
     7
 10
128.31937249999979
 20
173.6519999999999
 30
0.0
 40
3.0923400000000001
  1
90
 41
0.5
 72
     1
 11
129.47899999999979
 21
173.6519999999999
 31
0.0
  0
TEXT
  5
278
  8
0
 62
     7
 10
128.62545399999999
 20
158.3669999999999
 30
0.0
 40
3.0923400000000001
  1
前
 41
0.5
 72
     1
 11
129.34700000000001
 21
158.3669999999999
 31
0.0
  0
TEXT
  5
279
  8
0
 62
     7
 10
102.1809999999998
 20
104.06698249999999
 30
0.0
 40
3.0923400000000001
  1
120
 50
90.0
 41
0.5
 72
     1
 11
102.1809999999998
 21
105.742
 31
0.0
  0
TEXT
  5
27A
  8
0
 62
     7
 10
102.4459999999999
 20
96.487372500000006
 30
0.0
 40
3.0923400000000001
  1
50
 50
90.0
 41
0.5
 72
     1
 11
102.4459999999999
 21
97.647000000000006
 31
0.0
  0
TEXT
  5
27B
  8
0
 62
     7
 10
127.09544
 20
86.855199999999982
 30
0.0
 40
3.0923400000000001
  1
%%c75
 41
0.5
 72
     1
 11
129.15700000000001
 21
86.855199999999982
 31
0.0
  0
TEXT
  5
27C
  8
0
 62
     7
 10
157.36199999999999
 20
102.1851349999999
 30
0.0
 40
3.0923400000000001
  1
155
 50
90.0
 41
0.5
 72
     1
 11
157.36199999999999
 21
103.9889999999999
 31
0.0
  0
TEXT
  5
27D
  8
0
 62
     7
 10
165.2579999999999
 20
101.39398250000001
 30
0.0
 40
3.0923400000000001
  1
170
 50
90.0
 41
0.5
 72
     1
 11
165.2579999999999
 21
103.069
 31
0.0
  0
TEXT
  5
27E
  8
0
 62
     7
 10
121.8377599999998
 20
152.62799999999979
 30
0.0
 40
3.0923400000000001
  1
カウンター切込寸法
 41
0.5
 72
     1
 11
130.0839999999998
 21
152.62799999999979
 31
0.0
  0
LINE
  5
27F
  8
0
 62
     7
 10
146.03899999999979
 20
198.24700000000001
 30
0.0
 11
163.98400000000001
 21
198.24700000000001
 31
0.0
  0
LINE
  5
280
  8
0
 62
     7
 10
135.31999999999991
 20
188.3659999999999
 30
0.0
 11
137.30199999999991
 21
189.50999999999999
 31
0.0
  0
LINE
  5
281
  8
0
 62
     7
 10
137.30199999999991
 20
189.50999999999999
 30
0.0
 11
136.1579999999999
 21
187.52799999999999
 31
0.0
  0
LINE
  5
282
  8
0
 62
     7
 10
136.1579999999999
 20
187.52799999999999
 30
0.0
 11
135.31999999999991
 21
188.3659999999999
 31
0.0
  0
LINE
  5
283
  8
0
 62
     7
 10
139.99100000000001
 20
191.36199999999991
 30
0.0
 11
138.00899999999979
 21
190.21700000000001
 31
0.0
  0
LINE
  5
284
  8
0
 62
     7
 10
138.00899999999979
 20
190.21700000000001
 30
0.0
 11
139.15299999999991
 21
192.19900000000001
 31
0.0
  0
LINE
  5
285
  8
0
 62
     7
 10
139.15299999999991
 20
192.19900000000001
 30
0.0
 11
139.99100000000001
 21
191.36199999999991
 31
0.0
  0
LINE
  5
286
  8
0
 62
     7
 10
146.03899999999979
 20
198.24700000000001
 30
0.0
 11
134.8249999999999
 21
187.03200000000001
 31
0.0
  0
ARC
  5
287
  8
0
 62
     7
 10
121.43736299999991
 20
189.88220200000001
 30
0.0
 40
0.5194479999999999
 50
272.119686
 51
357.90006399999982
  0
ARC
  5
288
  8
0
 62
     7
 10
121.47601
 20
189.8824239999999
 30
0.0
 40
0.519678
 50
182.12349299999991
 51
267.85679699999991
  0
ARC
  5
289
  8
0
 62
     7
 10
121.47578799999999
 20
189.84413499999991
 30
0.0
 40
0.5194479999999999
 50
92.119648999999995
 51
177.90006099999991
  0
ARC
  5
28A
  8
0
 62
     7
 10
121.4378659999999
 20
189.8446379999998
 30
0.0
 40
0.5189270000000003
 50
2.0464329999999991
 51
87.933817000000005
  0
LINE
  5
28B
  8
0
  6
AIGENLINE001
 62
     7
 10
121.45699999999989
 20
191.32400000000001
 30
0.0
 11
121.45699999999989
 21
188.37599999999981
 31
0.0
  0
LINE
  5
28C
  8
0
  6
AIGENLINE001
 62
     7
 10
122.887
 20
189.8629999999998
 30
0.0
 11
120.1659999999999
 21
189.8629999999998
 31
0.0
  0
ARC
  5
28D
  8
0
 62
     7
 10
137.6373379999998
 20
189.88220200000001
 30
0.0
 40
0.5194479999999999
 50
272.119686
 51
357.90006399999982
  0
ARC
  5
28E
  8
0
 62
     7
 10
137.675985
 20
189.8824239999999
 30
0.0
 40
0.519678
 50
182.12349299999991
 51
267.85679699999991
  0
ARC
  5
28F
  8
0
 62
     7
 10
137.6757629999999
 20
189.84413499999991
 30
0.0
 40
0.5194479999999999
 50
92.119648999999995
 51
177.90006099999991
  0
ARC
  5
290
  8
0
 62
     7
 10
137.63784099999981
 20
189.8446379999998
 30
0.0
 40
0.5189270000000003
 50
2.0464329999999991
 51
87.933817000000005
  0
LINE
  5
291
  8
0
 62
     7
 10
134.05600000000001
 20
179.6629999999999
 30
0.0
 11
125.0559999999999
 21
179.6629999999999
 31
0.0
  0
LINE
  5
292
  8
0
 62
     7
 10
125.0559999999999
 20
179.6629999999999
 30
0.0
 11
125.0559999999999
 21
192.6629999999999
 31
0.0
  0
LINE
  5
293
  8
0
 62
     7
 10
125.0559999999999
 20
192.6629999999999
 30
0.0
 11
134.05600000000001
 21
192.6629999999999
 31
0.0
  0
LINE
  5
294
  8
0
 62
     7
 10
134.05600000000001
 20
192.6629999999999
 30
0.0
 11
134.05600000000001
 21
179.6629999999999
 31
0.0
  0
ARC
  5
295
  8
0
 62
     7
 10
58.655381999999989
 20
201.73290399999991
 30
0.0
 40
0.6581700000000003
 50
0.126183
 51
32.880057000000001
  0
ARC
  5
296
  8
0
 62
     7
 10
58.288635999999997
 20
201.50600299999991
 30
0.0
 40
1.08938
 50
32.430543
 51
60.848562999999999
  0
ARC
  5
297
  8
0
 62
     7
 10
57.761722999999982
 20
200.68666999999991
 30
0.0
 40
2.0625059999999991
 50
59.152132999999999
 51
80.192246999999981
  0
ARC
  5
298
  8
0
 62
     7
 10
57.582057999999982
 20
199.94773599999999
 30
0.0
 40
2.821708999999998
 50
79.153208999999976
 51
90.122882000000004
  0
ARC
  5
299
  8
0
 62
     7
 10
57.57715000000001
 20
200.0554639999998
 30
0.0
 40
2.713975
 50
90.024141999999983
 51
113.6816559999999
  0
ARC
  5
29A
  8
0
 62
     7
 10
57.095272000000001
 20
201.23536699999991
 30
0.0
 40
1.4402520000000001
 50
114.97921699999991
 51
139.4489089999999
  0
ARC
  5
29B
  8
0
 62
     7
 10
56.576208000000001
 20
201.7094419999998
 30
0.0
 40
0.737996
 50
141.21606599999981
 51
178.06552300000001
  0
ARC
  5
29C
  8
0
 62
     7
 10
56.496800999999998
 20
201.735803
 30
0.0
 40
0.6581700000000003
 50
180.126203
 51
212.880077
  0
ARC
  5
29D
  8
0
 62
     7
 10
56.863634999999981
 20
201.9627659999999
 30
0.0
 40
1.089488
 50
212.430836
 51
240.84514300000001
  0
ARC
  5
29E
  8
0
 62
     7
 10
57.390402999999999
 20
202.78185500000001
 30
0.0
 40
2.0623320000000001
 50
239.15040400000001
 51
260.1906009999999
  0
ARC
  5
29F
  8
0
 62
     7
 10
57.569957999999993
 20
203.52010999999999
 30
0.0
 40
2.8208489999999991
 50
259.15157099999988
 51
270.12285000000003
  0
ARC
  5
2A0
  8
0
 62
     7
 10
57.574863999999998
 20
203.41389599999991
 30
0.0
 40
2.7146289999999991
 50
270.02409499999987
 51
293.67878300000001
  0
ARC
  5
2A1
  8
0
 62
     7
 10
58.056883999999997
 20
202.23342999999991
 30
0.0
 40
1.440331
 50
294.97756499999991
 51
319.44693499999983
  0
ARC
  5
2A2
  8
0
 62
     7
 10
58.575975
 20
201.759266
 30
0.0
 40
0.737996
 50
321.2160859999999
 51
358.06554299999999
  0
LINE
  5
2A5
  8
0
 62
     7
 10
131.78
 20
97.792100000000005
 30
0.0
 11
126.8799999999999
 21
97.792100000000005
 31
0.0
  0
LINE
  5
2A6
  8
0
 62
     7
 10
131.78
 20
95.732900000000001
 30
0.0
 11
126.8799999999999
 21
95.732900000000001
 31
0.0
  0
LINE
  5
2A7
  8
0
 62
     7
 10
134.68999999999991
 20
92.709500000000006
 30
0.0
 11
132.92099999999999
 21
92.709500000000006
 31
0.0
  0
LINE
  5
2A8
  8
0
 62
     7
 10
134.68999999999991
 20
92.709500000000006
 30
0.0
 11
134.68999999999991
 21
93.055000000000007
 31
0.0
  0
LINE
  5
2A9
  8
0
 62
     7
 10
134.68999999999991
 20
93.055000000000007
 30
0.0
 11
132.92099999999999
 21
93.055000000000007
 31
0.0
  0
LINE
  5
2AA
  8
0
 62
     7
 10
134.05600000000001
 20
91.772099999999995
 30
0.0
 11
134.05600000000001
 21
92.075599999999994
 31
0.0
  0
LINE
  5
2AB
  8
0
 62
     7
 10
134.05600000000001
 20
92.075599999999994
 30
0.0
 11
134.05600000000001
 21
92.709500000000006
 31
0.0
  0
LINE
  5
2AC
  8
0
 62
     7
 10
133.5539999999998
 20
91.772099999999995
 30
0.0
 11
133.5539999999998
 21
92.075599999999994
 31
0.0
  0
LINE
  5
2AD
  8
0
 62
     7
 10
133.5539999999998
 20
92.075599999999994
 30
0.0
 11
133.5539999999998
 21
92.709500000000006
 31
0.0
  0
LINE
  5
2AE
  8
0
 62
     7
 10
133.5539999999998
 20
91.772099999999995
 30
0.0
 11
133.6249999999998
 21
91.587100000000007
 31
0.0
  0
LINE
  5
2AF
  8
0
 62
     7
 10
133.98500000000001
 20
91.587100000000007
 30
0.0
 11
134.05600000000001
 21
91.772099999999995
 31
0.0
  0
LINE
  5
2B0
  8
0
 62
     7
 10
133.98500000000001
 20
91.587100000000007
 30
0.0
 11
133.6249999999998
 21
91.587100000000007
 31
0.0
  0
LINE
  5
2B1
  8
0
 62
     7
 10
134.05600000000001
 20
91.772099999999995
 30
0.0
 11
133.5539999999998
 21
91.772099999999995
 31
0.0
  0
LINE
  5
2B2
  8
0
 62
     7
 10
133.1849999999998
 20
92.075599999999994
 30
0.0
 11
133.1849999999998
 21
92.709500000000006
 31
0.0
  0
LINE
  5
2B3
  8
0
 62
     7
 10
134.42599999999999
 20
92.075599999999994
 30
0.0
 11
134.42599999999999
 21
92.709500000000006
 31
0.0
  0
LINE
  5
2B4
  8
0
 62
     7
 10
134.42599999999999
 20
92.075599999999994
 30
0.0
 11
133.1849999999998
 21
92.075599999999994
 31
0.0
  0
LINE
  5
2B5
  8
0
 62
     7
 10
132.92099999999999
 20
92.709500000000006
 30
0.0
 11
132.92099999999999
 21
93.055000000000007
 31
0.0
  0
LINE
  5
2B6
  8
0
 62
     7
 10
134.05600000000001
 20
93.055000000000007
 30
0.0
 11
134.05600000000001
 21
96.169799999999995
 31
0.0
  0
LINE
  5
2B7
  8
0
 62
     7
 10
133.5539999999998
 20
93.055000000000007
 30
0.0
 11
133.5539999999998
 21
95.965800000000016
 31
0.0
  0
LINE
  5
2B8
  8
0
 62
     7
 10
48.8461
 20
91.772099999999995
 30
0.0
 11
48.8461
 21
92.075599999999994
 31
0.0
  0
LINE
  5
2B9
  8
0
 62
     7
 10
48.8461
 20
92.075599999999994
 30
0.0
 11
48.8461
 21
92.709500000000006
 31
0.0
  0
LINE
  5
2BA
  8
0
 62
     7
 10
48.344499999999996
 20
91.772099999999995
 30
0.0
 11
48.344499999999996
 21
92.075599999999994
 31
0.0
  0
LINE
  5
2BB
  8
0
 62
     7
 10
48.344499999999996
 20
92.075599999999994
 30
0.0
 11
48.344499999999996
 21
92.709500000000006
 31
0.0
  0
LINE
  5
2BC
  8
0
 62
     7
 10
48.344499999999996
 20
91.772099999999995
 30
0.0
 11
48.415399999999998
 21
91.587100000000007
 31
0.0
  0
LINE
  5
2BD
  8
0
 62
     7
 10
48.775100000000002
 20
91.587100000000007
 30
0.0
 11
48.8461
 21
91.772099999999995
 31
0.0
  0
LINE
  5
2BE
  8
0
 62
     7
 10
48.775100000000002
 20
91.587100000000007
 30
0.0
 11
48.415399999999998
 21
91.587100000000007
 31
0.0
  0
LINE
  5
2BF
  8
0
 62
     7
 10
48.8461
 20
91.772099999999995
 30
0.0
 11
48.344499999999996
 21
91.772099999999995
 31
0.0
  0
LINE
  5
2C0
  8
0
 62
     7
 10
47.974499999999999
 20
92.075599999999994
 30
0.0
 11
47.974499999999999
 21
92.709500000000006
 31
0.0
  0
LINE
  5
2C1
  8
0
 62
     7
 10
49.216099999999997
 20
92.075599999999994
 30
0.0
 11
49.216099999999997
 21
92.709500000000006
 31
0.0
  0
LINE
  5
2C2
  8
0
 62
     7
 10
49.216099999999997
 20
92.075599999999994
 30
0.0
 11
47.974499999999999
 21
92.075599999999994
 31
0.0
  0
LINE
  5
2C3
  8
0
 62
     7
 10
49.479999999999997
 20
92.709500000000006
 30
0.0
 11
47.710599999999999
 21
92.709500000000006
 31
0.0
  0
LINE
  5
2C4
  8
0
 62
     7
 10
49.479999999999997
 20
92.709500000000006
 30
0.0
 11
49.479999999999997
 21
93.055000000000007
 31
0.0
  0
LINE
  5
2C5
  8
0
 62
     7
 10
47.710599999999999
 20
92.709500000000006
 30
0.0
 11
47.710599999999999
 21
93.055000000000007
 31
0.0
  0
LINE
  5
2C6
  8
0
 62
     7
 10
49.479999999999997
 20
93.055000000000007
 30
0.0
 11
47.710599999999999
 21
93.055000000000007
 31
0.0
  0
LINE
  5
2C7
  8
0
 62
     7
 10
48.8461
 20
93.055000000000007
 30
0.0
 11
48.8461
 21
96.525999999999996
 31
0.0
  0
LINE
  5
2C8
  8
0
 62
     7
 10
48.344499999999996
 20
93.055000000000007
 30
0.0
 11
48.344499999999996
 21
96.525999999999996
 31
0.0
  0
LINE
  5
2C9
  8
0
 62
     7
 10
66.305800000000005
 20
91.772099999999995
 30
0.0
 11
66.305800000000005
 21
92.075599999999994
 31
0.0
  0
LINE
  5
2CA
  8
0
 62
     7
 10
66.305800000000005
 20
92.075599999999994
 30
0.0
 11
66.305800000000005
 21
92.709500000000006
 31
0.0
  0
LINE
  5
2CB
  8
0
 62
     7
 10
66.807400000000001
 20
91.772099999999995
 30
0.0
 11
66.807400000000001
 21
92.075599999999994
 31
0.0
  0
LINE
  5
2CC
  8
0
 62
     7
 10
66.807400000000001
 20
92.075599999999994
 30
0.0
 11
66.807400000000001
 21
92.709500000000006
 31
0.0
  0
LINE
  5
2CD
  8
0
 62
     7
 10
66.807400000000001
 20
91.772099999999995
 30
0.0
 11
66.736400000000003
 21
91.587100000000007
 31
0.0
  0
LINE
  5
2CE
  8
0
 62
     7
 10
66.376699999999985
 20
91.587100000000007
 30
0.0
 11
66.305800000000005
 21
91.772099999999995
 31
0.0
  0
LINE
  5
2CF
  8
0
 62
     7
 10
66.376699999999985
 20
91.587100000000007
 30
0.0
 11
66.736400000000003
 21
91.587100000000007
 31
0.0
  0
LINE
  5
2D0
  8
0
 62
     7
 10
66.305800000000005
 20
91.772099999999995
 30
0.0
 11
66.807400000000001
 21
91.772099999999995
 31
0.0
  0
LINE
  5
2D1
  8
0
 62
     7
 10
67.177400000000006
 20
92.075599999999994
 30
0.0
 11
67.177400000000006
 21
92.709500000000006
 31
0.0
  0
LINE
  5
2D2
  8
0
 62
     7
 10
65.9358
 20
92.075599999999994
 30
0.0
 11
65.9358
 21
92.709500000000006
 31
0.0
  0
LINE
  5
2D3
  8
0
 62
     7
 10
65.9358
 20
92.075599999999994
 30
0.0
 11
67.177400000000006
 21
92.075599999999994
 31
0.0
  0
LINE
  5
2D4
  8
0
 62
     7
 10
65.671899999999994
 20
92.709500000000006
 30
0.0
 11
67.441299999999998
 21
92.709500000000006
 31
0.0
  0
LINE
  5
2D5
  8
0
 62
     7
 10
65.671899999999994
 20
92.709500000000006
 30
0.0
 11
65.671899999999994
 21
93.055000000000007
 31
0.0
  0
LINE
  5
2D6
  8
0
 62
     7
 10
67.441299999999998
 20
92.709500000000006
 30
0.0
 11
67.441299999999998
 21
93.055000000000007
 31
0.0
  0
LINE
  5
2D7
  8
0
 62
     7
 10
65.671899999999994
 20
93.055000000000007
 30
0.0
 11
67.441299999999998
 21
93.055000000000007
 31
0.0
  0
LINE
  5
2D8
  8
0
 62
     7
 10
66.305800000000005
 20
93.055000000000007
 30
0.0
 11
66.305800000000005
 21
96.525999999999996
 31
0.0
  0
LINE
  5
2D9
  8
0
 62
     7
 10
66.807400000000001
 20
93.055000000000007
 30
0.0
 11
66.807400000000001
 21
96.525999999999996
 31
0.0
  0
LINE
  5
2DA
  8
0
 62
     7
 10
125.58
 20
96.52630000000002
 30
0.0
 11
118.65900000000001
 21
96.52630000000002
 31
0.0
  0
LINE
  5
2DB
  8
0
 62
     7
 10
103.3209999999999
 20
95.026300000000006
 30
0.0
 11
103.3209999999999
 21
99.826400000000007
 31
0.0
  0
LINE
  5
2DC
  8
0
 62
     7
 10
124.634
 20
95.026300000000006
 30
0.0
 11
102.898
 21
95.026300000000006
 31
0.0
  0
LINE
  5
2DD
  8
0
 62
     7
 10
133.22399999999979
 20
95.831800000000001
 30
0.0
 11
135.87
 21
96.906999999999996
 31
0.0
  0
LINE
  5
2DE
  8
0
 62
     7
 10
108.1279999999999
 20
112.026
 30
0.0
 11
102.898
 21
112.026
 31
0.0
  0
LINE
  5
2DF
  8
0
 62
     7
 10
121.523
 20
96.9435
 30
0.0
 11
119.17699999999979
 21
96.9435
 31
0.0
  0
LINE
  5
2E0
  8
0
 62
     7
 10
119.17699999999979
 20
96.52630000000002
 30
0.0
 11
119.17699999999979
 21
96.9435
 31
0.0
  0
LINE
  5
2E1
  8
0
 62
     7
 10
119.76600000000001
 20
96.9435
 30
0.0
 11
119.17699999999979
 21
96.9435
 31
0.0
  0
LINE
  5
2E2
  8
0
 62
     7
 10
121.523
 20
96.52630000000002
 30
0.0
 11
121.523
 21
96.9435
 31
0.0
  0
LINE
  5
2E3
  8
0
 62
     7
 10
145.62299999999979
 20
107.6079999999999
 30
0.0
 11
146.3009999999999
 21
107.072
 31
0.0
  0
LINE
  5
2E4
  8
0
 62
     7
 10
147.239
 20
109.512
 30
0.0
 11
147.91499999999991
 21
108.977
 31
0.0
  0
ARC
  5
2E5
  8
0
 62
     7
 10
149.95074499999981
 20
109.92125900000001
 30
0.0
 40
1.120304
 50
135.7706509999999
 51
146.40977100000001
  0
ARC
  5
2E6
  8
0
 62
     7
 10
149.38688999999999
 20
110.495633
 30
0.0
 40
0.316155
 50
109.14421899999979
 51
139.082279
  0
ARC
  5
2E7
  8
0
 62
     7
 10
149.3038699999999
 20
110.7221429999998
 30
0.0
 40
0.07506
 50
49.122793999999999
 51
105.978728
  0
ARC
  5
2E8
  8
0
 62
     7
 10
149.23399299999991
 20
110.664601
 30
0.0
 40
0.164999
 50
10.251201
 51
43.84508499999999
  0
ARC
  5
2E9
  8
0
 62
     7
 10
148.64869399999981
 20
110.53636
 30
0.0
 40
0.7640950000000001
 50
358.98367000000002
 51
11.903454999999999
  0
ARC
  5
2EA
  8
0
 62
     7
 10
133.63768999999991
 20
94.444186999999985
 30
0.0
 40
2.380125999999998
 50
108.757807
 51
115.81602599999999
  0
ARC
  5
2EB
  8
0
 62
     7
 10
132.8771659999999
 20
96.045276000000001
 30
0.0
 40
0.607766
 50
117.00637500000001
 51
180.476418
  0
LINE
  5
2EC
  8
0
 62
     7
 10
132.875
 20
96.697900000000004
 30
0.0
 11
135.52299999999991
 21
97.772800000000004
 31
0.0
  0
ARC
  5
2ED
  8
0
 62
     7
 10
122.7807
 20
129.03943599999999
 30
0.0
 40
33.763314000000001
 50
292.17212899999993
 51
320.59265099999982
  0
LINE
  5
2EE
  8
0
 62
     7
 10
148.86799999999999
 20
107.605
 30
0.0
 11
149.1459999999999
 21
107.9439999999999
 31
0.0
  0
LINE
  5
2EF
  8
0
 62
     7
 10
149.1459999999999
 20
107.9439999999999
 30
0.0
 11
149.1459999999999
 21
107.9439999999999
 31
0.0
  0
ARC
  5
2F0
  8
0
 62
     7
 10
148.237324
 20
108.6849409999999
 30
0.0
 40
1.171910999999999
 50
320.81406699999991
 51
359.74227899999983
  0
ARC
  5
2F1
  8
0
 62
     7
 10
638.05690099999981
 20
108.6878809999999
 30
0.0
 40
488.64767799999993
 50
179.784828
 51
180.00098299999999
  0
ARC
  5
2F2
  8
0
 62
     7
 10
133.31141
 20
95.612634999999997
 30
0.0
 40
0.235924
 50
111.730147
 51
168.70359999999991
  0
LINE
  5
2F3
  8
0
 62
     7
 10
132.26900000000001
 20
95.882800000000003
 30
0.0
 11
132.26900000000001
 21
96.040200000000013
 31
0.0
  0
ARC
  5
2F4
  8
0
 62
     7
 10
134.1403649999998
 20
98.374049999999997
 30
0.0
 40
0.9331329999999999
 50
111.523191
 51
144.08778499999991
  0
ARC
  5
2F5
  8
0
 62
     7
 10
156.67342600000001
 20
105.07495
 30
0.0
 40
9.4069880000000001
 50
144.474165
 51
147.82741399999981
  0
LINE
  5
2F6
  8
0
 62
     7
 10
148.71100000000001
 20
110.084
 30
0.0
 11
148.59700000000001
 21
109.9099999999999
 31
0.0
  0
ARC
  5
2F7
  8
0
 62
     7
 10
136.13091563414051
 20
118.30403298855229
 30
0.0
 40
15.02857906494275
 50
321.63859392995681
 51
326.04330198401021
  0
ARC
  5
2F8
  8
0
 62
     7
 10
126.2332069999966
 20
125.7364140000039
 30
0.0
 40
27.403704000005231
 50
307.38659200000041
 51
317.10781074139078
  0
ARC
  5
2F9
  8
0
 62
     7
 10
131.7590899999999
 20
119.04858999999981
 30
0.0
 40
18.737491999999978
 50
300.28541799999988
 51
306.37792400000001
  0
ARC
  5
2FA
  8
0
 62
     7
 10
119.9191059999999
 20
138.60188099999991
 30
0.0
 40
41.594809999999981
 50
296.01655299999987
 51
300.78577000000001
  0
ARC
  5
2FB
  8
0
 62
     7
 10
106.9855199999998
 20
164.12850900000001
 30
0.0
 40
70.209119999999999
 50
292.45384699999988
 51
296.36439000000001
  0
LINE
  5
2FC
  8
0
 62
     7
 10
133.38499999999991
 20
98.921400000000006
 30
0.0
 11
132.43899999999991
 21
97.843100000000007
 31
0.0
  0
LINE
  5
2FD
  8
0
 62
     7
 10
131.78
 20
97.792100000000005
 30
0.0
 11
132.32599999999991
 21
97.792100000000005
 31
0.0
  0
ARC
  5
2FE
  8
0
 62
     7
 10
132.3250739999998
 20
97.943887000000004
 30
0.0
 40
0.151823
 50
270.18935299999993
 51
318.38231200000001
  0
LINE
  5
2FF
  8
0
 62
     7
 10
131.63
 20
98.344700000000003
 30
0.0
 11
131.63
 21
97.941900000000004
 31
0.0
  0
ARC
  5
300
  8
0
 62
     7
 10
131.78555800000001
 20
97.94762900000002
 30
0.0
 40
0.155656
 50
182.09914499999999
 51
268.03244799999987
  0
LINE
  5
301
  8
0
 62
     7
 10
131.63
 20
95.582700000000003
 30
0.0
 11
131.63
 21
95.026300000000006
 31
0.0
  0
LINE
  5
302
  8
0
 62
     7
 10
131.78
 20
95.732900000000001
 30
0.0
 11
132.119
 21
95.732900000000001
 31
0.0
  0
ARC
  5
303
  8
0
 62
     7
 10
131.78591499999979
 20
95.577366999999995
 30
0.0
 40
0.155656
 50
92.099115000000026
 51
178.03241800000001
  0
ARC
  5
304
  8
0
 62
     7
 10
132.1135839999998
 20
95.888409999999993
 30
0.0
 40
0.155938
 50
272.068828
 51
357.93118199999998
  0
LINE
  5
305
  8
0
 62
     7
 10
127.0299999999999
 20
95.582700000000003
 30
0.0
 11
127.0299999999999
 21
95.026300000000006
 31
0.0
  0
LINE
  5
306
  8
0
 62
     7
 10
126.8799999999999
 20
95.732900000000001
 30
0.0
 11
126.5409999999999
 21
95.732900000000001
 31
0.0
  0
ARC
  5
307
  8
0
 62
     7
 10
126.874233
 20
95.577065000000005
 30
0.0
 40
0.155955
 50
2.074748
 51
87.925241999999983
  0
LINE
  5
308
  8
0
 62
     7
 10
126.39100000000001
 20
97.764499999999998
 30
0.0
 11
126.39100000000001
 21
95.882800000000003
 31
0.0
  0
ARC
  5
309
  8
0
 62
     7
 10
126.546859
 20
95.888402999999997
 30
0.0
 40
0.155943
 50
182.065957
 51
267.80250999999993
  0
LINE
  5
30A
  8
0
 62
     7
 10
126.819
 20
97.805200000000013
 30
0.0
 11
126.602
 21
97.901600000000002
 31
0.0
  0
ARC
  5
30B
  8
0
 62
     7
 10
126.54216099999989
 20
97.768270000000001
 30
0.0
 40
0.146103
 50
65.883285000000001
 51
90.502571000000003
  0
ARC
  5
30C
  8
0
 62
     7
 10
126.54655700000001
 20
97.758826999999997
 30
0.0
 40
0.155643
 50
92.090291000000022
 51
177.90967900000001
  0
LINE
  5
30D
  8
0
 62
     7
 10
127.0299999999999
 20
98.344700000000003
 30
0.0
 11
127.0299999999999
 21
97.941900000000004
 31
0.0
  0
LINE
  5
30E
  8
0
 62
     7
 10
126.819
 20
97.805200000000013
 30
0.0
 11
126.8799999999999
 21
97.792100000000005
 31
0.0
  0
ARC
  5
30F
  8
0
 62
     7
 10
126.87430000000001
 20
97.947864999999993
 30
0.0
 40
0.1559
 50
272.05105400000002
 51
357.81739299999992
  0
LINE
  5
310
  8
0
 62
     7
 10
122.492
 20
96.52630000000002
 30
0.0
 11
122.492
 21
96.897000000000006
 31
0.0
  0
LINE
  5
311
  8
0
 62
     7
 10
122.584
 20
98.383600000000015
 30
0.0
 11
122.696
 21
99.282799999999995
 31
0.0
  0
ARC
  5
312
  8
0
 62
     7
 10
134.60705899999991
 20
96.890710999999996
 30
0.0
 40
12.115227000000001
 50
172.92180500000001
 51
179.9701279999999
  0
LINE
  5
313
  8
0
 62
     7
 10
125.58
 20
96.52630000000002
 30
0.0
 11
125.58
 21
98.417400000000015
 31
0.0
  0
LINE
  5
314
  8
0
 62
     7
 10
125.4869999999999
 20
98.691599999999994
 30
0.0
 11
124.86499999999999
 21
99.501199999999997
 31
0.0
  0
ARC
  5
315
  8
0
 62
     7
 10
125.125941
 20
98.416218000000001
 30
0.0
 40
0.4540970000000001
 50
0.143346
 51
37.330109
  0
LINE
  5
316
  8
0
 62
     7
 10
123.1429999999999
 20
99.676900000000003
 30
0.0
 11
124.5079999999999
 21
99.676900000000003
 31
0.0
  0
ARC
  5
317
  8
0
 62
     7
 10
124.504744
 20
99.220083000000017
 30
0.0
 40
0.4568170000000002
 50
37.977764000000001
 51
89.602204999999998
  0
ARC
  5
318
  8
0
 62
     7
 10
123.156435
 20
99.211658
 30
0.0
 40
0.465426
 50
91.658974999999984
 51
171.21171799999991
  0
ARC
  5
319
  8
0
 62
     7
 10
118.55892900000001
 20
97.024962000000002
 30
0.0
 40
4.6359379999999986
 50
62.349157000000012
 51
67.360357999999991
  0
ARC
  5
31A
  8
0
 62
     7
 10
119.58271499999979
 20
99.130142000000006
 30
0.0
 40
2.297134999999999
 50
46.317661000000001
 51
60.600059000000002
  0
LINE
  5
31B
  8
0
 62
     7
 10
121.5999999999998
 20
99.702699999999993
 30
0.0
 11
121.5999999999998
 21
100.209
 31
0.0
  0
LINE
  5
31C
  8
0
 62
     7
 10
121.1689999999999
 20
100.791
 30
0.0
 11
121.447
 21
100.547
 31
0.0
  0
ARC
  5
31D
  8
0
 62
     7
 10
121.144402
 20
100.2061029999999
 30
0.0
 40
0.4558430000000002
 50
0.340894
 51
48.362057999999998
  0
LINE
  5
31E
  8
0
 62
     7
 10
121.28399999999991
 20
97.841700000000003
 30
0.0
 11
119.282
 21
97.841700000000003
 31
0.0
  0
LINE
  5
31F
  8
0
 62
     7
 10
121.5079999999999
 20
98.042199999999994
 30
0.0
 11
121.5119999999999
 21
98.079400000000021
 31
0.0
  0
ARC
  5
320
  8
0
 62
     7
 10
121.2773279999999
 20
98.074387999999985
 30
0.0
 40
0.232818
 50
271.72084199999989
 51
352.04840799999999
  0
ARC
  5
321
  8
0
 62
     7
 10
106.5570139999999
 20
99.706641000000005
 30
0.0
 40
15.04322399999999
 50
353.79269900000003
 51
359.98509300000001
  0
ARC
  5
322
  8
0
 62
     7
 10
109.743786
 20
110.1308419999998
 30
0.0
 40
0.09522
 50
16.336123999999991
 51
99.321429000000023
  0
ARC
  5
323
  8
0
 62
     7
 10
109.699879
 20
110.1466009999999
 30
0.0
 40
0.056017
 50
126.3266749999999
 51
181.89552699999999
  0
ARC
  5
324
  8
0
 62
     7
 10
109.80577099999979
 20
110.14392699999991
 30
0.0
 40
0.16188
 50
179.70922300000001
 51
205.899306
  0
LINE
  5
325
  8
0
 62
     7
 10
109.72799999999999
 20
110.2249999999998
 30
0.0
 11
109.667
 21
110.19199999999999
 31
0.0
  0
ARC
  5
326
  8
0
 62
     7
 10
113.182512
 20
111.89975200000001
 30
0.0
 40
3.7735609999999991
 50
207.494722
 51
212.720868
  0
ARC
  5
327
  8
0
 62
     7
 10
116.76042199999991
 20
114.377779
 30
0.0
 40
8.1245960000000004
 50
213.784198
 51
217.57137799999981
  0
ARC
  5
328
  8
0
 62
     7
 10
132.67605800000001
 20
126.3461639999998
 30
0.0
 40
28.037803999999991
 50
217.1249289999999
 51
232.965531
  0
ARC
  5
329
  8
0
 62
     7
 10
126.8186019999999
 20
118.9210539999999
 30
0.0
 40
18.583735000000001
 50
233.59369599999999
 51
239.713775
  0
ARC
  5
32A
  8
0
 62
     7
 10
138.4242659999999
 20
138.05296200000001
 30
0.0
 40
40.959127000000002
 50
239.19188799999989
 51
243.7948439999999
  0
ARC
  5
32B
  8
0
 62
     7
 10
119.27506099999999
 20
98.043924000000004
 30
0.0
 40
0.20225
 50
243.57305500000001
 51
269.82364799999982
  0
ARC
  5
32C
  8
0
 62
     7
 10
119.3812199999999
 20
98.246554000000003
 30
0.0
 40
0.43098
 50
221.36921599999991
 51
242.92380800000001
  0
ARC
  5
32D
  8
0
 62
     7
 10
120.51756499999991
 20
99.269096000000005
 30
0.0
 40
1.9596439999999991
 50
211.9103549999999
 51
221.8476439999998
  0
ARC
  5
32E
  8
0
 62
     7
 10
115.278301
 20
96.219570000000004
 30
0.0
 40
4.1037800000000004
 50
29.38580399999999
 51
44.812913000000002
  0
LINE
  5
32F
  8
0
 62
     7
 10
118.1899999999999
 20
99.111900000000006
 30
0.0
 11
118.1969999999999
 21
99.104699999999994
 31
0.0
  0
LINE
  5
330
  8
0
 62
     7
 10
118.1969999999999
 20
99.104699999999994
 30
0.0
 11
116.032
 21
101.258
 31
0.0
  0
ARC
  5
331
  8
0
 62
     7
 10
138.09685500000001
 20
123.873155
 30
0.0
 40
31.596114
 50
206.36082400000001
 51
225.70571000000001
  0
ARC
  5
332
  8
0
 62
     7
 10
105.2194879999998
 20
107.483487
 30
0.0
 40
5.1406409999999987
 50
27.331799
 51
30.250145
  0
LINE
  5
333
  8
0
 62
     7
 10
150.34499999999991
 20
108.682
 30
0.0
 11
150.34499999999991
 21
111.125
 31
0.0
  0
LINE
  5
334
  8
0
 62
     7
 10
149.596
 20
107.0179999999999
 30
0.0
 11
149.869
 21
107.352
 31
0.0
  0
ARC
  5
335
  8
0
 62
     7
 10
148.226214
 20
108.6905449999999
 30
0.0
 40
2.1190639999999981
 50
320.84797200000008
 51
359.78045600000002
  0
ARC
  5
336
  8
0
 62
     7
 10
122.777962
 20
129.0446009999998
 30
0.0
 40
34.70393499999998
 50
292.17124299999989
 51
320.60463599999991
  0
ARC
  5
337
  8
0
 62
     7
 10
141.150306
 20
97.146698999999998
 30
0.0
 40
0.792312
 50
162.16112599999991
 51
174.75398100000001
  0
ARC
  5
338
  8
0
 62
     7
 10
141.62346099999991
 20
96.994795999999994
 30
0.0
 40
1.289253999999999
 50
149.88934900000001
 51
162.17656099999991
  0
ARC
  5
339
  8
0
 62
     7
 10
143.54273499999991
 20
95.866650000000007
 30
0.0
 40
3.5155199999999991
 50
142.2354879999998
 51
149.6763599999999
  0
ARC
  5
33A
  8
0
 62
     7
 10
203.7662029999999
 20
52.788750999999998
 30
0.0
 40
77.557461000000004
 50
144.0882159999999
 51
144.32464299999981
  0
ARC
  5
33B
  8
0
 62
     7
 10
101.21015199999989
 20
124.73588599999999
 30
0.0
 40
47.741731000000001
 50
326.34694799999988
 51
329.214989
  0
LINE
  5
33C
  8
0
 62
     7
 10
134.93399999999991
 20
96.52630000000002
 30
0.0
 11
140.10399999999979
 21
96.52630000000002
 31
0.0
  0
LINE
  5
33D
  8
0
 62
     7
 10
140.36099999999999
 20
97.219100000000012
 30
0.0
 11
140.328
 21
96.735800000000012
 31
0.0
  0
ARC
  5
33E
  8
0
 62
     7
 10
140.09618
 20
96.759473999999997
 30
0.0
 40
0.233264
 50
271.82703599999991
 51
354.17298999999991
  0
LINE
  5
33F
  8
0
 62
     7
 10
150.00999999999991
 20
111.7499999999999
 30
0.0
 11
149.7829999999999
 21
111.901
 31
0.0
  0
ARC
  5
340
  8
0
 62
     7
 10
149.5822279999999
 20
111.11775900000001
 30
0.0
 40
0.7630680000000001
 50
0.544717
 51
55.898367000000007
  0
LINE
  5
341
  8
0
 62
     7
 10
129.33000000000001
 20
112.026
 30
0.0
 11
149.3669999999999
 21
112.026
 31
0.0
  0
ARC
  5
342
  8
0
 62
     7
 10
149.366613
 20
111.2733489999999
 30
0.0
 40
0.752907
 50
56.453977999999999
 51
89.955833999999996
  0
ARC
  5
343
  8
0
 62
     7
 10
149.4944319999999
 20
111.311909
 30
0.0
 40
0.6556980000000002
 50
63.921897000000001
 51
113.98812099999979
  0
ARC
  5
344
  8
0
 62
     7
 10
149.6829119999999
 20
110.8438009999999
 30
0.0
 40
1.160142
 50
113.09385
 51
126.399871
  0
ARC
  5
345
  8
0
 62
     7
 10
150.218242
 20
110.11702099999999
 30
0.0
 40
2.062797999999999
 50
126.38875899999999
 51
136.44861399999991
  0
ARC
  5
346
  8
0
 62
     7
 10
151.64366200000001
 20
108.755308
 30
0.0
 40
4.0341110000000002
 50
136.3805939999998
 51
143.563492
  0
ARC
  5
347
  8
0
 62
     7
 10
159.32226799999981
 20
103.1586759999999
 30
0.0
 40
13.53581
 50
143.80894499999991
 51
147.71905699999991
  0
ARC
  5
348
  8
0
 62
     7
 10
136.0402274979779
 20
118.3617736266166
 30
0.0
 40
14.273436824899809
 50
321.68262333484762
 51
326.0367416616786
  0
ARC
  5
349
  8
0
 62
     7
 10
126.2882049999981
 20
125.6806190000016
 30
0.0
 40
26.464104000002379
 50
307.39633100000083
 51
317.06249934701231
  0
ARC
  5
34A
  8
0
 62
     7
 10
131.476223
 20
119.44045199999989
 30
0.0
 40
18.358767999999991
 50
300.21371599999992
 51
306.36066399999982
  0
ARC
  5
34B
  8
0
 62
     7
 10
119.854542
 20
138.68105299999991
 30
0.0
 40
40.835551000000002
 50
295.95620700000001
 51
300.71959399999992
  0
ARC
  5
34C
  8
0
 62
     7
 10
108.5787899999999
 20
160.8857909999999
 30
0.0
 40
65.737026999999998
 50
291.74481999999989
 51
296.32201400000002
  0
LINE
  5
34D
  8
0
 62
     7
 10
117.5289999999999
 20
98.425600000000003
 30
0.0
 11
115.372
 21
100.5719999999999
 31
0.0
  0
LINE
  5
34E
  8
0
 62
     7
 10
108.932
 20
109.41
 30
0.0
 11
108.5179999999999
 21
110.2249999999998
 31
0.0
  0
ARC
  5
34F
  8
0
 62
     7
 10
139.74480199999991
 20
125.0730649999999
 30
0.0
 40
34.565422999999981
 50
206.94544099999999
 51
225.14173
  0
LINE
  5
350
  8
0
 62
     7
 10
127.0299999999999
 20
98.344700000000003
 30
0.0
 11
125.73
 21
99.826400000000007
 31
0.0
  0
LINE
  5
351
  8
0
 62
     7
 10
127.0299999999999
 20
98.344700000000003
 30
0.0
 11
129.33000000000001
 21
98.344700000000003
 31
0.0
  0
LINE
  5
352
  8
0
 62
     7
 10
125.73
 20
99.826400000000007
 30
0.0
 11
129.33000000000001
 21
99.826400000000007
 31
0.0
  0
ARC
  5
353
  8
0
 62
     7
 10
109.429298
 20
110.330581
 30
0.0
 40
1.571264999999999
 50
92.642309999999981
 51
112.059507
  0
ARC
  5
354
  8
0
 62
     7
 10
109.352799
 20
111.04161000000001
 30
0.0
 40
0.8585749999999999
 50
39.148420000000002
 51
89.728931000000003
  0
ARC
  5
355
  8
0
 62
     7
 10
108.638035
 20
110.383346
 30
0.0
 40
1.829426999999999
 50
30.089838
 51
41.004055999999999
  0
ARC
  5
356
  8
0
 62
     7
 10
104.937495
 20
108.275626
 30
0.0
 40
6.0880859999999979
 50
24.176703
 51
29.792366000000001
  0
ARC
  5
357
  8
0
 62
     7
 10
112.9976099999999
 20
111.8391499999999
 30
0.0
 40
2.7249590000000001
 50
203.1236219999999
 51
213.45032399999991
  0
ARC
  5
358
  8
0
 62
     7
 10
117.27730200000001
 20
114.7195509999999
 30
0.0
 40
7.883621999999999
 50
213.77213399999999
 51
217.799712
  0
ARC
  5
359
  8
0
 62
     7
 10
132.66420099999999
 20
126.33722400000001
 30
0.0
 40
27.16337
 50
217.27053599999999
 51
232.95613800000001
  0
ARC
  5
35A
  8
0
 62
     7
 10
127.1709989999999
 20
119.41740900000001
 30
0.0
 40
18.332170999999981
 50
233.630787
 51
239.7859289999999
  0
ARC
  5
35B
  8
0
 62
     7
 10
138.799128
 20
138.665042
 30
0.0
 40
40.818295999999989
 50
239.27718899999999
 51
244.04221799999999
  0
ARC
  5
35C
  8
0
 62
     7
 10
150.0868089999999
 20
160.89274499999991
 30
0.0
 40
65.745654000000002
 50
243.67647699999989
 51
248.25270999999989
  0
LINE
  5
35D
  8
0
 62
     7
 10
132.93000000000001
 20
99.826400000000007
 30
0.0
 11
131.63
 21
98.344700000000003
 31
0.0
  0
LINE
  5
35E
  8
0
 62
     7
 10
129.33000000000001
 20
98.344700000000003
 30
0.0
 11
131.63
 21
98.344700000000003
 31
0.0
  0
LINE
  5
35F
  8
0
 62
     7
 10
129.33000000000001
 20
99.826400000000007
 30
0.0
 11
132.93000000000001
 21
99.826400000000007
 31
0.0
  0
LINE
  5
360
  8
0
 62
     7
 10
167.125
 20
95.026300000000006
 30
0.0
 11
134.328
 21
95.026300000000006
 31
0.0
  0
LINE
  5
361
  8
0
 62
     7
 10
125.58
 20
94.037599999999998
 30
0.0
 11
125.58
 21
84.194199999999981
 31
0.0
  0
LINE
  5
362
  8
0
 62
     7
 10
129.33000000000001
 20
95.026300000000006
 30
0.0
 11
125.91200000000001
 21
95.026300000000006
 31
0.0
  0
LINE
  5
363
  8
0
 62
     7
 10
125.58
 20
95.358400000000003
 30
0.0
 11
125.58
 21
96.52630000000002
 31
0.0
  0
ARC
  5
364
  8
0
 62
     7
 10
125.92476499999999
 20
95.371065999999985
 30
0.0
 40
0.34496
 50
182.098614
 51
267.96082000000001
  0
LINE
  5
365
  8
0
 62
     7
 10
150.8959999999999
 20
112.026
 30
0.0
 11
167.2379999999998
 21
112.026
 31
0.0
  0
LINE
  5
366
  8
0
 62
     7
 10
133.08000000000001
 20
94.037599999999998
 30
0.0
 11
133.08000000000001
 21
84.194199999999981
 31
0.0
  0
LINE
  5
367
  8
0
 62
     7
 10
129.33000000000001
 20
95.026300000000006
 30
0.0
 11
132.74799999999991
 21
95.026300000000006
 31
0.0
  0
LINE
  5
368
  8
0
 62
     7
 10
133.08000000000001
 20
95.358400000000003
 30
0.0
 11
133.08000000000001
 21
95.658799999999985
 31
0.0
  0
ARC
  5
369
  8
0
 62
     7
 10
132.73539399999979
 20
95.370987999999997
 30
0.0
 40
0.344891
 50
272.08593100000002
 51
357.91407799999979
  0
LINE
  5
36A
  8
0
 62
     7
 10
158.98699999999991
 20
96.52630000000002
 30
0.0
 11
142.89099999999991
 21
96.52630000000002
 31
0.0
  0
ARC
  5
36B
  8
0
 62
     7
 10
118.66874900000001
 20
96.869431000000006
 30
0.0
 40
0.343237
 50
189.41092199999991
 51
268.395893
  0
ARC
  5
36C
  8
0
 62
     7
 10
115.50639199999991
 20
96.415584999999993
 30
0.0
 40
2.8516119999999989
 50
8.0173320000000015
 51
44.956418999999983
  0
ARC
  5
36D
  8
0
 62
     7
 10
109.54174999999979
 20
110.758416
 30
0.0
 40
1.1543769999999991
 50
197.21931000000001
 51
207.49392900000001
  0
ARC
  5
36E
  8
0
 62
     7
 10
111.230512
 20
111.291004
 30
0.0
 40
2.9251209999999981
 50
189.660549
 51
197.39154500000001
  0
ARC
  5
36F
  8
0
 62
     7
 10
112.4531989999999
 20
111.32172299999991
 30
0.0
 40
4.139320999999998
 50
181.93204800000001
 51
187.238936
  0
ARC
  5
370
  8
0
 62
     7
 10
108.90564000000001
 20
111.157348
 30
0.0
 40
0.5899320000000002
 50
117.82632099999999
 51
177.58845500000001
  0
ARC
  5
371
  8
0
 62
     7
 10
109.465965
 20
110.31523899999991
 30
0.0
 40
1.599504
 50
113.070474
 51
121.498406
  0
ARC
  5
372
  8
0
 62
     7
 10
109.8221239999999
 20
109.88941
 30
0.0
 40
2.1369020000000001
 50
89.585767000000004
 51
117.386235
  0
LINE
  5
373
  8
0
 62
     7
 10
129.33000000000001
 20
112.026
 30
0.0
 11
109.83799999999979
 21
112.026
 31
0.0
  0
LINE
  5
374
  8
0
  6
AIGENLINE002
 62
     7
 10
129.33000000000001
 20
93.243799999999993
 30
0.0
 11
129.33000000000001
 21
114.083
 31
0.0
  0
LINE
  5
375
  8
0
 62
     7
 10
150.33000000000001
 20
123.083
 30
0.0
 11
150.33000000000001
 21
113.039
 31
0.0
  0
LINE
  5
376
  8
0
 62
     7
 10
108.3299999999999
 20
122.78100000000001
 30
0.0
 11
108.3299999999999
 21
113.039
 31
0.0
  0
LINE
  5
377
  8
0
 62
     7
 10
108.3299999999999
 20
121.767
 30
0.0
 11
150.33000000000001
 21
121.767
 31
0.0
  0
LINE
  5
378
  8
0
 62
     7
 10
150.33500000000001
 20
121.767
 30
0.0
 11
147.9349999999998
 21
122.1899999999999
 31
0.0
  0
LINE
  5
379
  8
0
 62
     7
 10
147.9349999999998
 20
122.1899999999999
 30
0.0
 11
147.9349999999998
 21
121.3449999999999
 31
0.0
  0
LINE
  5
37A
  8
0
 62
     7
 10
147.9349999999998
 20
121.3449999999999
 30
0.0
 11
150.33500000000001
 21
121.767
 31
0.0
  0
LINE
  5
37B
  8
0
 62
     7
 10
108.295
 20
121.767
 30
0.0
 11
110.69499999999979
 21
121.3449999999999
 31
0.0
  0
LINE
  5
37C
  8
0
 62
     7
 10
110.69499999999979
 20
121.3449999999999
 30
0.0
 11
110.69499999999979
 21
122.1899999999999
 31
0.0
  0
LINE
  5
37D
  8
0
 62
     7
 10
110.69499999999979
 20
122.1899999999999
 30
0.0
 11
108.295
 21
121.767
 31
0.0
  0
LINE
  5
37E
  8
0
 62
     7
 10
140.33000000000001
 20
95.780799999999985
 30
0.0
 11
140.33000000000001
 21
75.7881
 31
0.0
  0
LINE
  5
37F
  8
0
 62
     7
 10
118.33
 20
95.478700000000003
 30
0.0
 11
118.33
 21
75.7881
 31
0.0
  0
LINE
  5
380
  8
0
 62
     7
 10
45.774799999999999
 20
98.425600000000003
 30
0.0
 11
43.61849999999999
 21
100.5719999999999
 31
0.0
  0
LINE
  5
381
  8
0
 62
     7
 10
37.16279999999999
 20
109.41
 30
0.0
 11
36.7485
 21
110.2249999999998
 31
0.0
  0
ARC
  5
382
  8
0
 62
     7
 10
67.977716000000001
 20
125.0863499999999
 30
0.0
 40
34.573174999999999
 50
206.9636109999999
 51
225.1608469999999
  0
LINE
  5
383
  8
0
 62
     7
 10
69.381699999999995
 20
98.43040000000002
 30
0.0
 11
71.5334
 21
100.5719999999999
 31
0.0
  0
LINE
  5
384
  8
0
 62
     7
 10
77.988999999999976
 20
109.41
 30
0.0
 11
78.403300000000002
 21
110.2249999999998
 31
0.0
  0
ARC
  5
385
  8
0
 62
     7
 10
47.164878000000002
 20
125.092535
 30
0.0
 40
34.584078999999988
 50
314.84280899999987
 51
333.03090099999991
  0
LINE
  5
386
  8
0
 62
     7
 10
57.5762
 20
94.8262
 30
0.0
 11
54.15829999999999
 21
94.8262
 31
0.0
  0
LINE
  5
387
  8
0
 62
     7
 10
53.826000000000001
 20
95.158299999999997
 30
0.0
 11
53.826000000000001
 21
96.52630000000002
 31
0.0
  0
ARC
  5
388
  8
0
 62
     7
 10
54.170718000000008
 20
95.170893000000007
 30
0.0
 40
0.344954
 50
182.0966259999999
 51
267.93311399999982
  0
LINE
  5
389
  8
0
 62
     7
 10
57.575499999999998
 20
96.525999999999996
 30
0.0
 11
68.246700000000004
 21
96.525999999999996
 31
0.0
  0
ARC
  5
38A
  8
0
 62
     7
 10
68.237135999999992
 20
96.869283999999993
 30
0.0
 40
0.343434
 50
271.60234100000002
 51
350.561172
  0
ARC
  5
38B
  8
0
 62
     7
 10
71.394206000000025
 20
96.418187000000003
 30
0.0
 40
2.845800999999998
 50
135.13792499999991
 51
172.0260769999999
  0
ARC
  5
38C
  8
0
 62
     7
 10
77.375869999999964
 20
110.759229
 30
0.0
 40
1.1577850000000001
 50
332.54850399999992
 51
342.78639600000002
  0
ARC
  5
38D
  8
0
 62
     7
 10
75.691540000000003
 20
111.29021
 30
0.0
 40
2.9238189999999991
 50
342.61503399999992
 51
350.35092599999979
  0
ARC
  5
38E
  8
0
 62
     7
 10
74.493753999999981
 20
111.321307
 30
0.0
 40
4.113391
 50
352.72103799999991
 51
358.05947700000002
  0
ARC
  5
38F
  8
0
 62
     7
 10
78.015503000000024
 20
111.1573919999998
 30
0.0
 40
0.589797
 50
2.3931360000000002
 51
62.184804000000007
  0
ARC
  5
390
  8
0
 62
     7
 10
77.455786000000003
 20
110.31635199999999
 30
0.0
 40
1.5981339999999991
 50
58.503933999999987
 51
66.943071000000003
  0
ARC
  5
391
  8
0
 62
     7
 10
77.098041000000023
 20
109.8865429999999
 30
0.0
 40
2.1397699999999991
 50
62.632399000000007
 51
90.417960000000008
  0
LINE
  5
392
  8
0
 62
     7
 10
57.575800000000001
 20
112.026
 30
0.0
 11
77.082400000000007
 21
112.026
 31
0.0
  0
LINE
  5
393
  8
0
 62
     7
 10
57.575800000000001
 20
94.8262
 30
0.0
 11
60.993600000000001
 21
94.8262
 31
0.0
  0
LINE
  5
394
  8
0
 62
     7
 10
61.325800000000001
 20
95.158299999999997
 30
0.0
 11
61.325800000000001
 21
96.52630000000002
 31
0.0
  0
ARC
  5
395
  8
0
 62
     7
 10
60.981151000000011
 20
95.170862999999997
 30
0.0
 40
0.344923
 50
272.06211300000001
 51
357.90818699999983
  0
LINE
  5
396
  8
0
 62
     7
 10
57.5762
 20
96.525999999999996
 30
0.0
 11
46.905099999999983
 21
96.525999999999996
 31
0.0
  0
ARC
  5
397
  8
0
 62
     7
 10
46.914782000000002
 20
96.869579000000016
 30
0.0
 40
0.343731
 50
189.4804839999999
 51
268.38573600000001
  0
ARC
  5
398
  8
0
 62
     7
 10
43.757767999999992
 20
96.418325999999993
 30
0.0
 40
2.8454769999999989
 50
7.9719939999999978
 51
44.991978000000003
  0
ARC
  5
399
  8
0
 62
     7
 10
37.775969000000003
 20
110.759229
 30
0.0
 40
1.1577850000000001
 50
197.21362400000001
 51
207.451516
  0
ARC
  5
39A
  8
0
 62
     7
 10
39.460298999999999
 20
111.29021
 30
0.0
 40
2.9238189999999991
 50
189.64909299999999
 51
197.384986
  0
ARC
  5
39B
  8
0
 62
     7
 10
40.709971999999993
 20
111.32555000000001
 30
0.0
 40
4.1653989999999981
 50
181.9746929999998
 51
187.2464369999999
  0
ARC
  5
39C
  8
0
 62
     7
 10
37.136364999999991
 20
111.157426
 30
0.0
 40
0.5898310000000002
 50
117.8285429999999
 51
177.610331
  0
ARC
  5
39D
  8
0
 62
     7
 10
37.695489999999999
 20
110.317609
 30
0.0
 40
1.596823999999998
 50
113.0616879999999
 51
121.50569399999991
  0
ARC
  5
39E
  8
0
 62
     7
 10
38.054782000000003
 20
109.881727
 30
0.0
 40
2.1445789999999989
 50
89.609259999999963
 51
117.3358659999999
  0
LINE
  5
39F
  8
0
 62
     7
 10
57.575800000000001
 20
112.026
 30
0.0
 11
38.069400000000002
 21
112.026
 31
0.0
  0
LINE
  5
3A0
  8
0
  6
AIGENLINE002
 62
     7
 10
57.576000000000001
 20
89.216800000000006
 30
0.0
 11
57.576000000000001
 21
114.56699999999989
 31
0.0
  0
LINE
  5
3A1
  8
0
  6
AIGENLINE001
 62
     7
 10
137.65700000000001
 20
191.32400000000001
 30
0.0
 11
137.65700000000001
 21
188.37599999999981
 31
0.0
  0
LINE
  5
3A2
  8
0
  6
AIGENLINE001
 62
     7
 10
139.0869999999999
 20
189.8629999999998
 30
0.0
 11
136.36600000000001
 21
189.8629999999998
 31
0.0
  0
LINE
  5
3A3
  8
0
  6
AIGENLINE001
 62
     7
 10
129.55600000000001
 20
194.7639999999999
 30
0.0
 11
129.55600000000001
 21
177.36000000000001
 31
0.0
  0
LINE
  5
3A4
  8
0
 62
     7
 10
128.87399999999991
 20
169.458
 30
0.0
 11
129.874
 21
169.458
 31
0.0
  0
LINE
  5
3A5
  8
0
 62
     7
 10
129.874
 20
169.458
 30
0.0
 11
129.874
 21
165.1459999999999
 31
0.0
  0
LINE
  5
3A6
  8
0
 62
     7
 10
129.874
 20
165.1459999999999
 30
0.0
 11
131.874
 21
165.1459999999999
 31
0.0
  0
LINE
  5
3A7
  8
0
 62
     7
 10
131.874
 20
165.1459999999999
 30
0.0
 11
129.37399999999991
 21
162.25
 31
0.0
  0
LINE
  5
3A8
  8
0
 62
     7
 10
129.37399999999991
 20
162.25
 30
0.0
 11
126.8739999999999
 21
165.1459999999999
 31
0.0
  0
LINE
  5
3A9
  8
0
 62
     7
 10
126.8739999999999
 20
165.1459999999999
 30
0.0
 11
128.87399999999991
 21
165.1459999999999
 31
0.0
  0
LINE
  5
3AA
  8
0
 62
     7
 10
128.87399999999991
 20
165.1459999999999
 30
0.0
 11
128.87399999999991
 21
169.458
 31
0.0
  0
LINE
  5
3AB
  8
0
 62
     7
 10
121.456
 20
199.035
 30
0.0
 11
121.456
 21
191.85299999999981
 31
0.0
  0
LINE
  5
3AC
  8
0
 62
     7
 10
144.1279999999999
 20
187.65199999999999
 30
0.0
 11
143.536
 21
189.8629999999998
 31
0.0
  0
LINE
  5
3AD
  8
0
 62
     7
 10
143.536
 20
189.8629999999998
 30
0.0
 11
142.9429999999999
 21
187.65199999999999
 31
0.0
  0
LINE
  5
3AE
  8
0
 62
     7
 10
142.9429999999999
 20
187.65199999999999
 30
0.0
 11
144.1279999999999
 21
187.65199999999999
 31
0.0
  0
LINE
  5
3AF
  8
0
 62
     7
 10
142.958
 20
187.374
 30
0.0
 11
143.55000000000001
 21
185.1629999999999
 31
0.0
  0
LINE
  5
3B0
  8
0
 62
     7
 10
143.55000000000001
 20
185.1629999999999
 30
0.0
 11
144.1429999999998
 21
187.374
 31
0.0
  0
LINE
  5
3B1
  8
0
 62
     7
 10
144.1429999999998
 20
187.374
 30
0.0
 11
142.958
 21
187.374
 31
0.0
  0
LINE
  5
3B2
  8
0
 62
     7
 10
143.54300000000001
 20
189.8629999999998
 30
0.0
 11
143.54300000000001
 21
185.1629999999999
 31
0.0
  0
LINE
  5
3B3
  8
0
 62
     7
 10
144.232
 20
189.8629999999998
 30
0.0
 11
139.69599999999991
 21
189.8629999999998
 31
0.0
  0
LINE
  5
3B4
  8
0
 62
     7
 10
144.232
 20
185.1629999999999
 30
0.0
 11
136.55799999999999
 21
185.1629999999999
 31
0.0
  0
LINE
  5
3B5
  8
0
 62
     7
 10
131.76699999999991
 20
198.9309999999999
 30
0.0
 11
129.55600000000001
 21
198.339
 31
0.0
  0
LINE
  5
3B6
  8
0
 62
     7
 10
129.55600000000001
 20
198.339
 30
0.0
 11
131.76699999999991
 21
197.74700000000001
 31
0.0
  0
LINE
  5
3B7
  8
0
 62
     7
 10
131.76699999999991
 20
197.74700000000001
 30
0.0
 11
131.76699999999991
 21
198.9309999999999
 31
0.0
  0
LINE
  5
3B8
  8
0
 62
     7
 10
123.6669999999999
 20
198.9309999999999
 30
0.0
 11
121.456
 21
198.339
 31
0.0
  0
LINE
  5
3B9
  8
0
 62
     7
 10
121.456
 20
198.339
 30
0.0
 11
123.6669999999999
 21
197.74700000000001
 31
0.0
  0
LINE
  5
3BA
  8
0
 62
     7
 10
123.6669999999999
 20
197.74700000000001
 30
0.0
 11
123.6669999999999
 21
198.9309999999999
 31
0.0
  0
LINE
  5
3BB
  8
0
 62
     7
 10
127.346
 20
197.761
 30
0.0
 11
129.55600000000001
 21
198.3539999999999
 31
0.0
  0
LINE
  5
3BC
  8
0
 62
     7
 10
129.55600000000001
 20
198.3539999999999
 30
0.0
 11
127.346
 21
198.946
 31
0.0
  0
LINE
  5
3BD
  8
0
 62
     7
 10
127.346
 20
198.946
 30
0.0
 11
127.346
 21
197.761
 31
0.0
  0
LINE
  5
3BE
  8
0
 62
     7
 10
135.44599999999991
 20
197.761
 30
0.0
 11
137.65700000000001
 21
198.3539999999999
 31
0.0
  0
LINE
  5
3BF
  8
0
 62
     7
 10
137.65700000000001
 20
198.3539999999999
 30
0.0
 11
135.44599999999991
 21
198.946
 31
0.0
  0
LINE
  5
3C0
  8
0
 62
     7
 10
135.44599999999991
 20
198.946
 30
0.0
 11
135.44599999999991
 21
197.761
 31
0.0
  0
LINE
  5
3C1
  8
0
 62
     7
 10
121.456
 20
198.3459999999998
 30
0.0
 11
137.65700000000001
 21
198.3459999999998
 31
0.0
  0
LINE
  5
3C2
  8
0
 62
     7
 10
129.55600000000001
 20
199.035
 30
0.0
 11
129.55600000000001
 21
194.499
 31
0.0
  0
LINE
  5
3C3
  8
0
 62
     7
 10
137.65700000000001
 20
198.03599999999989
 30
0.0
 11
137.65700000000001
 21
192.06399999999991
 31
0.0
  0
LINE
  5
3C4
  8
0
 62
     7
 10
124.211
 20
192.6629999999999
 30
0.0
 11
116.64
 21
192.6629999999999
 31
0.0
  0
LINE
  5
3C5
  8
0
 62
     7
 10
124.29900000000001
 20
179.6629999999999
 30
0.0
 11
116.64
 21
179.6629999999999
 31
0.0
  0
LINE
  5
3C6
  8
0
 62
     7
 10
122.3219999999999
 20
185.1629999999999
 30
0.0
 11
116.64
 21
185.1629999999999
 31
0.0
  0
LINE
  5
3C7
  8
0
 62
     7
 10
117.809
 20
182.952
 30
0.0
 11
117.21599999999989
 21
185.1629999999999
 31
0.0
  0
LINE
  5
3C8
  8
0
 62
     7
 10
117.21599999999989
 20
185.1629999999999
 30
0.0
 11
116.6239999999999
 21
182.952
 31
0.0
  0
LINE
  5
3C9
  8
0
 62
     7
 10
116.6239999999999
 20
182.952
 30
0.0
 11
117.809
 21
182.952
 31
0.0
  0
LINE
  5
3CA
  8
0
 62
     7
 10
116.639
 20
181.874
 30
0.0
 11
117.2309999999999
 21
179.6629999999999
 31
0.0
  0
LINE
  5
3CB
  8
0
 62
     7
 10
117.2309999999999
 20
179.6629999999999
 30
0.0
 11
117.82299999999979
 21
181.874
 31
0.0
  0
LINE
  5
3CC
  8
0
 62
     7
 10
117.82299999999979
 20
181.874
 30
0.0
 11
116.639
 21
181.874
 31
0.0
  0
LINE
  5
3CD
  8
0
 62
     7
 10
117.2239999999999
 20
185.1629999999999
 30
0.0
 11
117.2239999999999
 21
179.6629999999999
 31
0.0
  0
LINE
  5
3CE
  8
0
 62
     7
 10
117.809
 20
190.45199999999991
 30
0.0
 11
117.21599999999989
 21
192.6629999999999
 31
0.0
  0
LINE
  5
3CF
  8
0
 62
     7
 10
117.21599999999989
 20
192.6629999999999
 30
0.0
 11
116.6239999999999
 21
190.45199999999991
 31
0.0
  0
LINE
  5
3D0
  8
0
 62
     7
 10
116.6239999999999
 20
190.45199999999991
 30
0.0
 11
117.809
 21
190.45199999999991
 31
0.0
  0
LINE
  5
3D1
  8
0
 62
     7
 10
116.639
 20
187.374
 30
0.0
 11
117.2309999999999
 21
185.1629999999999
 31
0.0
  0
LINE
  5
3D2
  8
0
 62
     7
 10
117.2309999999999
 20
185.1629999999999
 30
0.0
 11
117.82299999999979
 21
187.374
 31
0.0
  0
LINE
  5
3D3
  8
0
 62
     7
 10
117.82299999999979
 20
187.374
 30
0.0
 11
116.639
 21
187.374
 31
0.0
  0
LINE
  5
3D4
  8
0
 62
     7
 10
117.2239999999999
 20
192.6629999999999
 30
0.0
 11
117.2239999999999
 21
185.1629999999999
 31
0.0
  0
LINE
  5
3D5
  8
0
 62
     7
 10
125.0569999999999
 20
178.7709999999999
 30
0.0
 11
125.0569999999999
 21
172.0299999999998
 31
0.0
  0
LINE
  5
3D6
  8
0
 62
     7
 10
134.05600000000001
 20
178.7709999999999
 30
0.0
 11
134.05600000000001
 21
172.0299999999998
 31
0.0
  0
LINE
  5
3D7
  8
0
 62
     7
 10
127.267
 20
173.19900000000001
 30
0.0
 11
125.0569999999999
 21
172.60699999999991
 31
0.0
  0
LINE
  5
3D8
  8
0
 62
     7
 10
125.0569999999999
 20
172.60699999999991
 30
0.0
 11
127.267
 21
172.0149999999999
 31
0.0
  0
LINE
  5
3D9
  8
0
 62
     7
 10
127.267
 20
172.0149999999999
 30
0.0
 11
127.267
 21
173.19900000000001
 31
0.0
  0
LINE
  5
3DA
  8
0
 62
     7
 10
131.8459999999998
 20
172.029
 30
0.0
 11
134.05600000000001
 21
172.6209999999999
 31
0.0
  0
LINE
  5
3DB
  8
0
 62
     7
 10
134.05600000000001
 20
172.6209999999999
 30
0.0
 11
131.8459999999998
 21
173.214
 31
0.0
  0
LINE
  5
3DC
  8
0
 62
     7
 10
131.8459999999998
 20
173.214
 30
0.0
 11
131.8459999999998
 21
172.029
 31
0.0
  0
LINE
  5
3DD
  8
0
 62
     7
 10
125.0569999999999
 20
172.614
 30
0.0
 11
134.05600000000001
 21
172.614
 31
0.0
  0
LINE
  5
3DE
  8
0
  6
AIGENLINE001
 62
     7
 10
140.2619999999998
 20
185.1629999999999
 30
0.0
 11
123.346
 21
185.1629999999999
 31
0.0
  0
LINE
  5
3DF
  8
0
  6
AIGENLINE003
 62
     7
 10
87.612799999999964
 20
92.526200000000003
 30
0.0
 11
37.9375
 21
92.526200000000003
 31
0.0
  0
LINE
  5
3E0
  8
0
  6
AIGENLINE003
 62
     7
 10
44.956899999999983
 20
96.525999999999996
 30
0.0
 11
37.937600000000003
 21
96.525999999999996
 31
0.0
  0
LINE
  5
3E1
  8
0
 62
     7
 10
86.474299999999985
 20
92.526200000000003
 30
0.0
 11
86.474299999999985
 21
96.525999999999996
 31
0.0
  0
LINE
  5
3E2
  8
0
  6
AIGENLINE003
 62
     7
 10
87.378499999999988
 20
96.525999999999996
 30
0.0
 11
70.180499999999995
 21
96.525999999999996
 31
0.0
  0
LINE
  5
3E3
  8
0
  6
AIGENLINE002
 62
     7
 10
59.246000000000002
 20
183.53700000000001
 30
0.0
 11
55.993299999999998
 21
186.7889999999999
 31
0.0
  0
LINE
  5
3E4
  8
0
  6
AIGENLINE002
 62
     7
 10
35.444200000000002
 20
185.1629999999999
 30
0.0
 11
80.145099999999985
 21
185.1629999999999
 31
0.0
  0
LINE
  5
3E5
  8
0
  6
AIGENLINE002
 62
     7
 10
57.576000000000001
 20
162.792
 30
0.0
 11
57.576000000000001
 21
207.9679999999999
 31
0.0
  0
ARC
  5
3E6
  8
0
 62
     7
 10
57.619757999999997
 20
185.16299499999991
 30
0.0
 40
2.2999610000000001
 50
0.00001
 51
89.999979999999994
  0
ARC
  5
3E7
  8
0
 62
     7
 10
57.619672999999999
 20
185.16290900000001
 30
0.0
 40
2.3000470000000002
 50
89.997854000000004
 51
179.99782500000001
  0
ARC
  5
3E8
  8
0
 62
     7
 10
57.619671999999987
 20
185.16308099999981
 30
0.0
 40
2.300046
 50
180.0021549999999
 51
270.00216499999999
  0
ARC
  5
3E9
  8
0
 62
     7
 10
57.619757999999997
 20
185.16299499999991
 30
0.0
 40
2.2999610000000001
 50
270.00002000000001
 51
359.99998999999991
  0
ARC
  5
3EA
  8
0
 62
     7
 10
57.619757999999997
 20
185.162994
 30
0.0
 40
3.599975999999999
 50
0.00001
 51
89.999979999999994
  0
ARC
  5
3EB
  8
0
 62
     7
 10
57.619672999999999
 20
185.16290799999999
 30
0.0
 40
3.600061999999999
 50
89.998628999999994
 51
179.99859900000001
  0
ARC
  5
3EC
  8
0
 62
     7
 10
57.619757999999997
 20
185.162994
 30
0.0
 40
3.6001470000000002
 50
179.99996999999991
 51
270.00002000000001
  0
ARC
  5
3ED
  8
0
 62
     7
 10
57.619671999999987
 20
185.16291000000001
 30
0.0
 40
3.600061999999999
 50
270.00139100000001
 51
0.001361
  0
ARC
  5
3EE
  8
0
 62
     7
 10
57.619841000000001
 20
185.16290599999999
 30
0.0
 40
19.577313
 50
0.000262
 51
90.000232000000025
  0
ARC
  5
3EF
  8
0
 62
     7
 10
57.619675999999998
 20
185.16290599999999
 30
0.0
 40
19.577313
 50
89.999747999999983
 51
179.999718
  0
ARC
  5
3F0
  8
0
 62
     7
 10
57.619841000000001
 20
185.16290599999999
 30
0.0
 40
19.577477999999989
 50
179.999718
 51
269.99976800000002
  0
ARC
  5
3F1
  8
0
 62
     7
 10
57.619669000000002
 20
185.16291200000001
 30
0.0
 40
19.577484999999999
 50
270.000272
 51
0.000242
  0
ARC
  5
3F2
  8
0
 62
     7
 10
57.619755000000012
 20
185.16299099999981
 30
0.0
 40
21.000060000000001
 50
0.00001
 51
89.999979999999994
  0
ARC
  5
3F3
  8
0
 62
     7
 10
57.619762000000001
 20
185.16299099999981
 30
0.0
 40
21.000060000000001
 50
90.0
 51
179.99996999999991
  0
ARC
  5
3F4
  8
0
 62
     7
 10
57.619841000000001
 20
185.16290499999991
 30
0.0
 40
21.000138999999979
 50
179.9997349999999
 51
269.99978499999992
  0
ARC
  5
3F5
  8
0
 62
     7
 10
57.619669000000002
 20
185.16291299999989
 30
0.0
 40
21.000146999999998
 50
270.00025499999992
 51
0.000225
  0
LINE
  5
3F6
  8
0
 62
     7
 10
115.0439999999999
 20
99.826400000000007
 30
0.0
 11
102.898
 21
99.826400000000007
 31
0.0
  0
LINE
  5
3F7
  8
0
 62
     7
 10
166.33000000000001
 20
94.959100000000007
 30
0.0
 11
166.33000000000001
 21
111.8929999999999
 31
0.0
  0
LINE
  5
3F8
  8
0
 62
     7
 10
166.33000000000001
 20
112.026
 30
0.0
 11
165.90700000000001
 21
109.626
 31
0.0
  0
LINE
  5
3F9
  8
0
 62
     7
 10
165.90700000000001
 20
109.626
 30
0.0
 11
166.75399999999991
 21
109.626
 31
0.0
  0
LINE
  5
3FA
  8
0
 62
     7
 10
166.75399999999991
 20
109.626
 30
0.0
 11
166.33000000000001
 21
112.026
 31
0.0
  0
LINE
  5
3FB
  8
0
 62
     7
 10
166.33000000000001
 20
95.026300000000006
 30
0.0
 11
166.75399999999991
 21
97.426199999999994
 31
0.0
  0
LINE
  5
3FC
  8
0
 62
     7
 10
166.75399999999991
 20
97.426199999999994
 30
0.0
 11
165.90700000000001
 21
97.426199999999994
 31
0.0
  0
LINE
  5
3FD
  8
0
 62
     7
 10
165.90700000000001
 20
97.426199999999994
 30
0.0
 11
166.33000000000001
 21
95.026300000000006
 31
0.0
  0
LINE
  5
3FE
  8
0
 62
     7
 10
103.3209999999999
 20
95.047300000000007
 30
0.0
 11
103.3209999999999
 21
90.817800000000005
 31
0.0
  0
LINE
  5
3FF
  8
0
 62
     7
 10
103.3209999999999
 20
95.026300000000006
 30
0.0
 11
102.898
 21
92.626099999999994
 31
0.0
  0
LINE
  5
400
  8
0
 62
     7
 10
102.898
 20
92.626099999999994
 30
0.0
 11
103.7439999999999
 21
92.626099999999994
 31
0.0
  0
LINE
  5
401
  8
0
 62
     7
 10
103.7439999999999
 20
92.626099999999994
 30
0.0
 11
103.3209999999999
 21
95.026300000000006
 31
0.0
  0
LINE
  5
402
  8
0
 62
     7
 10
103.3209999999999
 20
111.9809999999999
 30
0.0
 11
103.3209999999999
 21
100.0739999999999
 31
0.0
  0
LINE
  5
403
  8
0
 62
     7
 10
103.3209999999999
 20
99.826400000000007
 30
0.0
 11
103.7439999999999
 21
102.2259999999999
 31
0.0
  0
LINE
  5
404
  8
0
 62
     7
 10
103.7439999999999
 20
102.2259999999999
 30
0.0
 11
102.898
 21
102.2259999999999
 31
0.0
  0
LINE
  5
405
  8
0
 62
     7
 10
102.898
 20
102.2259999999999
 30
0.0
 11
103.3209999999999
 21
99.826400000000007
 31
0.0
  0
LINE
  5
406
  8
0
 62
     7
 10
103.3209999999999
 20
112.026
 30
0.0
 11
102.898
 21
109.626
 31
0.0
  0
LINE
  5
407
  8
0
 62
     7
 10
102.898
 20
109.626
 30
0.0
 11
103.7439999999999
 21
109.626
 31
0.0
  0
LINE
  5
408
  8
0
 62
     7
 10
103.7439999999999
 20
109.626
 30
0.0
 11
103.3209999999999
 21
112.026
 31
0.0
  0
LINE
  5
409
  8
0
 62
     7
 10
158.33000000000001
 20
96.634900000000016
 30
0.0
 11
158.33000000000001
 21
111.9809999999999
 31
0.0
  0
LINE
  5
40A
  8
0
 62
     7
 10
158.33000000000001
 20
112.026
 30
0.0
 11
157.90700000000001
 21
109.626
 31
0.0
  0
LINE
  5
40B
  8
0
 62
     7
 10
157.90700000000001
 20
109.626
 30
0.0
 11
158.7529999999999
 21
109.626
 31
0.0
  0
LINE
  5
40C
  8
0
 62
     7
 10
158.7529999999999
 20
109.626
 30
0.0
 11
158.33000000000001
 21
112.026
 31
0.0
  0
LINE
  5
40D
  8
0
 62
     7
 10
158.33000000000001
 20
96.52630000000002
 30
0.0
 11
158.7529999999999
 21
98.926199999999994
 31
0.0
  0
LINE
  5
40E
  8
0
 62
     7
 10
158.7529999999999
 20
98.926199999999994
 30
0.0
 11
157.90700000000001
 21
98.926199999999994
 31
0.0
  0
LINE
  5
40F
  8
0
 62
     7
 10
157.90700000000001
 20
98.926199999999994
 30
0.0
 11
158.33000000000001
 21
96.52630000000002
 31
0.0
  0
LINE
  5
410
  8
0
 62
     7
 10
125.685
 20
84.825999999999993
 30
0.0
 11
133.006
 21
84.825999999999993
 31
0.0
  0
LINE
  5
411
  8
0
 62
     7
 10
133.08000000000001
 20
84.825999999999993
 30
0.0
 11
130.68000000000001
 21
85.249399999999994
 31
0.0
  0
LINE
  5
412
  8
0
 62
     7
 10
130.68000000000001
 20
85.249399999999994
 30
0.0
 11
130.68000000000001
 21
84.402999999999977
 31
0.0
  0
LINE
  5
413
  8
0
 62
     7
 10
130.68000000000001
 20
84.402999999999977
 30
0.0
 11
133.08000000000001
 21
84.825999999999993
 31
0.0
  0
LINE
  5
414
  8
0
 62
     7
 10
125.58
 20
84.825999999999993
 30
0.0
 11
127.98
 21
84.402999999999977
 31
0.0
  0
LINE
  5
415
  8
0
 62
     7
 10
127.98
 20
84.402999999999977
 30
0.0
 11
127.98
 21
85.249399999999994
 31
0.0
  0
LINE
  5
416
  8
0
 62
     7
 10
127.98
 20
85.249399999999994
 30
0.0
 11
125.58
 21
84.825999999999993
 31
0.0
  0
LINE
  5
417
  8
0
 62
     7
 10
86.474299999999985
 20
92.577899999999985
 30
0.0
 11
86.474299999999985
 21
87.954899999999995
 31
0.0
  0
LINE
  5
418
  8
0
 62
     7
 10
86.474299999999985
 20
92.526200000000003
 30
0.0
 11
86.051100000000005
 21
90.126000000000005
 31
0.0
  0
LINE
  5
419
  8
0
 62
     7
 10
86.051100000000005
 20
90.126000000000005
 30
0.0
 11
86.897599999999969
 21
90.126000000000005
 31
0.0
  0
LINE
  5
41A
  8
0
 62
     7
 10
86.897599999999969
 20
90.126000000000005
 30
0.0
 11
86.474299999999985
 21
92.526200000000003
 31
0.0
  0
LINE
  5
41B
  8
0
 62
     7
 10
86.474299999999985
 20
96.634900000000016
 30
0.0
 11
86.474299999999985
 21
106.821
 31
0.0
  0
LINE
  5
41C
  8
0
 62
     7
 10
86.474299999999985
 20
96.525999999999996
 30
0.0
 11
86.897599999999969
 21
98.926199999999994
 31
0.0
  0
LINE
  5
41D
  8
0
 62
     7
 10
86.897599999999969
 20
98.926199999999994
 30
0.0
 11
86.051100000000005
 21
98.926199999999994
 31
0.0
  0
LINE
  5
41E
  8
0
 62
     7
 10
86.051100000000005
 20
98.926199999999994
 30
0.0
 11
86.474299999999985
 21
96.525999999999996
 31
0.0
  0
LINE
  5
41F
  8
0
 62
     7
 10
52.1935
 20
190.589
 30
0.0
 11
55.823599999999999
 21
186.90899999999991
 31
0.0
  0
LINE
  5
420
  8
0
 62
     7
 10
55.993299999999998
 20
186.7889999999999
 30
0.0
 11
54.595500000000001
 21
188.7859999999998
 31
0.0
  0
LINE
  5
421
  8
0
 62
     7
 10
54.595500000000001
 20
188.7859999999998
 30
0.0
 11
53.997
 21
188.18700000000001
 31
0.0
  0
LINE
  5
422
  8
0
 62
     7
 10
53.997
 20
188.18700000000001
 30
0.0
 11
55.993299999999998
 21
186.7889999999999
 31
0.0
  0
LINE
  5
423
  8
0
 62
     7
 10
42.7575
 20
170.31499999999991
 30
0.0
 11
72.3523
 21
199.97499999999991
 31
0.0
  0
LINE
  5
424
  8
0
 62
     7
 10
72.469099999999983
 20
200.01199999999989
 30
0.0
 11
70.4726
 21
198.61399999999981
 31
0.0
  0
LINE
  5
425
  8
0
 62
     7
 10
70.4726
 20
198.61399999999981
 30
0.0
 11
71.071200000000005
 21
198.01599999999991
 31
0.0
  0
LINE
  5
426
  8
0
 62
     7
 10
71.071200000000005
 20
198.01599999999991
 30
0.0
 11
72.469099999999983
 21
200.01199999999989
 31
0.0
  0
LINE
  5
427
  8
0
 62
     7
 10
42.770400000000002
 20
170.31399999999991
 30
0.0
 11
44.7667
 21
171.7119999999999
 31
0.0
  0
LINE
  5
428
  8
0
 62
     7
 10
44.7667
 20
171.7119999999999
 30
0.0
 11
44.168300000000002
 21
172.31
 31
0.0
  0
LINE
  5
429
  8
0
 62
     7
 10
44.168300000000002
 20
172.31
 30
0.0
 11
42.770400000000002
 21
170.31399999999991
 31
0.0
  0
LINE
  5
42A
  8
0
 62
     7
 10
66.063400000000001
 20
176.7209999999998
 30
0.0
 11
59.351399999999998
 21
183.4469999999998
 31
0.0
  0
LINE
  5
42B
  8
0
 62
     7
 10
59.246000000000002
 20
183.53700000000001
 30
0.0
 11
60.643900000000002
 21
181.53999999999991
 31
0.0
  0
LINE
  5
42C
  8
0
 62
     7
 10
60.643900000000002
 20
181.53999999999991
 30
0.0
 11
61.2423
 21
182.13900000000001
 31
0.0
  0
LINE
  5
42D
  8
0
 62
     7
 10
61.2423
 20
182.13900000000001
 30
0.0
 11
59.246000000000002
 21
183.53700000000001
 31
0.0
  0
LINE
  5
42E
  8
0
 62
     7
 10
118.3649999999999
 20
76.826099999999983
 30
0.0
 11
140.32599999999991
 21
76.826099999999983
 31
0.0
  0
LINE
  5
42F
  8
0
 62
     7
 10
140.33000000000001
 20
76.826099999999983
 30
0.0
 11
137.93000000000001
 21
77.249200000000002
 31
0.0
  0
LINE
  5
430
  8
0
 62
     7
 10
137.93000000000001
 20
77.249200000000002
 30
0.0
 11
137.93000000000001
 21
76.403099999999981
 31
0.0
  0
LINE
  5
431
  8
0
 62
     7
 10
137.93000000000001
 20
76.403099999999981
 30
0.0
 11
140.33000000000001
 21
76.826099999999983
 31
0.0
  0
LINE
  5
432
  8
0
 62
     7
 10
118.33
 20
76.826099999999983
 30
0.0
 11
120.73
 21
76.403099999999981
 31
0.0
  0
LINE
  5
433
  8
0
 62
     7
 10
120.73
 20
76.403099999999981
 30
0.0
 11
120.73
 21
77.249200000000002
 31
0.0
  0
LINE
  5
434
  8
0
 62
     7
 10
120.73
 20
77.249200000000002
 30
0.0
 11
118.33
 21
76.826099999999983
 31
0.0
  0
LINE
  5
435
  8
_________2
 62
     7
 10
205.30099999999999
 20
127.411
 30
0.0
 11
183.55099999999999
 21
127.411
 31
0.0
  0
LINE
  5
436
  8
_________2
 62
     7
 10
100.2999999999999
 20
-4.0910799999999989
 30
0.0
 11
100.2999999999999
 21
-21.070999999999991
 31
0.0
  0
LINE
  5
437
  8
_________2
 62
     7
 10
100.2999999999999
 20
275.93099999999993
 30
0.0
 11
100.2999999999999
 21
258.911
 31
0.0
  0
LINE
  5
438
  8
_________2
 62
     7
 10
17.049499999999998
 20
127.411
 30
0.0
 11
-4.7008599999999987
 21
127.411
 31
0.0
  0
LINE
  5
439
  8
_________2
 62
     7
 10
76.741
 20
29.8047
 30
0.0
 11
74.554699999999983
 21
29.8047
 31
0.0
  0
LINE
  5
43A
  8
_________2
 62
     7
 10
77.233699999999999
 20
29.8047
 30
0.0
 11
76.981499999999983
 21
29.8047
 31
0.0
  0
LINE
  5
43B
  8
_________2
 62
     7
 10
77.726299999999981
 20
29.8047
 30
0.0
 11
80.651200000000003
 21
29.8047
 31
0.0
  0
LINE
  5
43C
  8
_________2
 62
     7
 10
77.233699999999999
 20
29.8047
 30
0.0
 11
77.485900000000001
 21
29.8047
 31
0.0
  0
LINE
  5
43D
  8
_________2
 62
     7
 10
70.837500000000006
 20
29.8047
 30
0.0
 11
68.650499999999994
 21
29.8047
 31
0.0
  0
LINE
  5
43E
  8
_________2
 62
     7
 10
71.329400000000021
 20
29.8047
 30
0.0
 11
71.0779
 21
29.8047
 31
0.0
  0
LINE
  5
43F
  8
_________2
 62
     7
 10
71.329400000000021
 20
30.2974
 30
0.0
 11
71.329400000000021
 21
32.484400000000001
 31
0.0
  0
LINE
  5
440
  8
_________2
 62
     7
 10
71.329400000000021
 20
29.8047
 30
0.0
 11
71.329400000000021
 21
30.057300000000001
 31
0.0
  0
LINE
  5
441
  8
_________2
 62
     7
 10
71.82210000000002
 20
29.8047
 30
0.0
 11
74.009
 21
29.8047
 31
0.0
  0
LINE
  5
442
  8
_________2
 62
     7
 10
71.329400000000021
 20
29.8047
 30
0.0
 11
71.581599999999995
 21
29.8047
 31
0.0
  0
LINE
  5
443
  8
_________2
 62
     7
 10
71.329400000000021
 20
29.312799999999999
 30
0.0
 11
71.329400000000021
 21
27.126200000000001
 31
0.0
  0
LINE
  5
444
  8
_________2
 62
     7
 10
71.329400000000021
 20
29.8047
 30
0.0
 11
71.329400000000021
 21
29.5532
 31
0.0
  0
LINE
  5
445
  8
_________2
 62
     7
 10
75.04049999999998
 20
28.5852
 30
0.0
 11
80.218500000000006
 21
27.720400000000001
 31
0.0
  0
LINE
  5
446
  8
_________2
 62
     7
 10
75.04049999999998
 20
31.024699999999999
 30
0.0
 11
80.218500000000006
 21
31.8901
 31
0.0
  0
LINE
  5
447
  8
_________2
 62
     7
 10
80.218500000000006
 20
27.720400000000001
 30
0.0
 11
80.218500000000006
 21
31.8901
 31
0.0
  0
LINE
  5
448
  8
_________2
 62
     7
 10
75.04049999999998
 20
28.5852
 30
0.0
 11
75.04049999999998
 21
31.024699999999999
 31
0.0
  0
ARC
  5
449
  8
_________2
 62
     7
 10
71.282845999999964
 20
29.757801000000001
 30
0.0
 40
1.267714
 50
2.1220840000000001
 51
87.894083999999964
  0
ARC
  5
44A
  8
_________2
 62
     7
 10
71.375985
 20
29.758545999999988
 30
0.0
 40
1.2669680000000001
 50
92.105782999999988
 51
177.91037
  0
ARC
  5
44B
  8
_________2
 62
     7
 10
71.376357999999996
 20
29.851671
 30
0.0
 40
1.2673680000000001
 50
182.12203600000001
 51
267.877993
  0
ARC
  5
44C
  8
_________2
 62
     7
 10
71.282541000000023
 20
29.852347999999999
 30
0.0
 40
1.2680439999999991
 50
272.11916400000001
 51
357.84848499999993
  0
ARC
  5
44D
  8
_________2
 62
     7
 10
71.249061999999995
 20
29.724731999999989
 30
0.0
 40
2.1668310000000002
 50
2.116143999999998
 51
87.874379000000005
  0
ARC
  5
44E
  8
_________2
 62
     7
 10
71.409099999999995
 20
29.726146
 30
0.0
 40
2.165392999999999
 50
92.108508999999998
 51
177.91986499999999
  0
ARC
  5
44F
  8
_________2
 62
     7
 10
71.40943900000002
 20
29.884751999999992
 30
0.0
 40
2.1657829999999989
 50
182.117133
 51
267.88289700000001
  0
ARC
  5
450
  8
_________2
 62
     7
 10
71.249459000000002
 20
29.885429999999989
 30
0.0
 40
2.1664590000000001
 50
272.11546800000002
 51
357.86560400000002
  0
TEXT
  5
451
  8
_________2
 62
     7
 10
104.605
 20
1.679489999999999
 30
0.0
 40
3.0923400000000001
  1
図番
 41
0.5
  0
LINE
  5
452
  8
_________2
 62
     7
 10
103.55
 20
5.908719999999998
 30
0.0
 11
183.55099999999999
 21
5.908719999999998
 31
0.0
  0
TEXT
  5
453
  8
_________2
 62
     7
 10
104.605
 20
11.679299999999991
 30
0.0
 40
3.0923400000000001
  1
品番
 41
0.5
  0
TEXT
  5
454
  8
_________2
 62
     7
 10
104.605
 20
31.8184
 30
0.0
 40
3.0923400000000001
  1
名称
 41
0.5
  0
TEXT
  5
455
  8
_________2
 62
     7
 10
91.845058333333341
 20
26.822299999999998
 30
0.0
 40
3.6545800000000002
  1
mm
 41
0.5
 72
     1
 11
93.367800000000003
 21
26.822299999999998
 31
0.0
  0
TEXT
  5
456
  8
_________2
 62
     7
 10
85.643199999999979
 20
31.8184
 30
0.0
 40
3.0923400000000001
  1
単位
 41
0.5
  0
TEXT
  5
457
  8
_________2
 62
     7
 10
85.643199999999979
 20
19.410799999999991
 30
0.0
 40
3.0923400000000001
  1
尺度
 41
0.5
  0
TEXT
  5
458
  8
_________2
 62
     7
 10
90.09193616666667
 20
13.218199999999991
 30
0.0
 40
3.6545800000000002
  1
1 ： 10
 41
0.5
 72
     1
 11
93.959699999999998
 21
13.218199999999991
 31
0.0
  0
TEXT
  5
459
  8
_________2
 62
     7
 10
132.23486249999999
 20
9.1082000000000001
 30
0.0
 40
3.9357000000000002
  1
DV032542S-00
 41
0.5
 72
     1
 11
143.55000000000001
 21
9.1082000000000001
 31
0.0
  0
TEXT
  5
45A
  8
_________2
 62
     7
 10
134.85866250000001
 20
-0.8926299999999999
 30
0.0
 40
3.9357000000000002
  1
DV032542S
 41
0.5
 72
     1
 11
143.55000000000001
 21
-0.8926299999999999
 31
0.0
  0
TEXT
  5
45B
  8
_________2
 62
     7
 10
24.5868
 20
0.707627
 30
0.0
 40
3.9357000000000002
  1
420サイズ、実容量3.3L
 41
0.5
  0
TEXT
  5
45C
  8
_________2
 62
     7
 10
109.179
 20
24.226099999999999
 30
0.0
 40
3.9357000000000002
  1
バキーノ カウンター式洗面器
 41
0.5
  0
TEXT
  5
45D
  8
_________2
 62
     7
 10
39.364390666666658
 20
13.603400000000001
 30
0.0
 40
3.6545800000000002
  1
高橋
 41
0.5
 72
     1
 11
41.313499999999998
 21
13.603400000000001
 31
0.0
  0
TEXT
  5
45E
  8
_________2
 62
     7
 10
20.79039066666666
 20
13.603400000000001
 30
0.0
 40
3.6545800000000002
  1
石原
 41
0.5
 72
     1
 11
22.7395
 21
13.603400000000001
 31
0.0
  0
TEXT
  5
45F
  8
_________2
 62
     7
 10
67.785799999999995
 20
13.218199999999991
 30
0.0
 40
3.6545800000000002
  1
07.05.02
 41
0.5
  0
TEXT
  5
460
  8
_________2
 62
     7
 10
66.593100000000007
 20
19.410799999999991
 30
0.0
 40
3.0923400000000001
  1
日付
 41
0.5
  0
TEXT
  5
461
  8
_________2
 62
     7
 10
29.639399999999998
 20
19.410799999999991
 30
0.0
 40
3.0923400000000001
  1
検図
 41
0.5
  0
TEXT
  5
462
  8
_________2
 62
     7
 10
18.021100000000001
 20
5.21143
 30
0.0
 40
3.0923400000000001
  1
備考
 41
0.5
  0
TEXT
  5
463
  8
_________2
 62
     7
 10
18.021100000000001
 20
19.410799999999991
 30
0.0
 40
3.0923400000000001
  1
製図
 41
0.5
  0
TEXT
  5
464
  8
_________2
 62
     7
 10
23.788465333333338
 20
27.936800000000002
 30
0.0
 40
4.4979399999999981
  1
セラトレーディング株式会社
 41
0.5
 72
     1
 11
41.180500000000002
 21
27.936800000000002
 31
0.0
  0
LINE
  5
465
  8
_________2
 62
     7
 10
183.55099999999999
 20
-4.0910799999999989
 30
0.0
 11
17.049499999999998
 21
-4.0910799999999989
 31
0.0
  0
LINE
  5
466
  8
_________2
 62
     7
 10
17.049499999999998
 20
-4.0910799999999989
 30
0.0
 11
17.049499999999998
 21
258.911
 31
0.0
  0
LINE
  5
467
  8
_________2
 62
     7
 10
17.049499999999998
 20
258.911
 30
0.0
 11
183.55099999999999
 21
258.911
 31
0.0
  0
LINE
  5
468
  8
_________2
 62
     7
 10
183.55099999999999
 20
258.911
 30
0.0
 11
183.55099999999999
 21
-4.0910799999999989
 31
0.0
  0
LINE
  5
469
  8
_________2
 62
     7
 10
65.549899999999994
 20
9.4092999999999982
 30
0.0
 11
65.549899999999994
 21
35.909100000000002
 31
0.0
  0
LINE
  5
46A
  8
_________2
 62
     7
 10
84.549700000000016
 20
9.4092999999999982
 30
0.0
 11
84.549700000000016
 21
35.909100000000002
 31
0.0
  0
LINE
  5
46B
  8
_________2
 62
     7
 10
103.55
 20
-4.0910799999999989
 30
0.0
 11
103.55
 21
35.909100000000002
 31
0.0
  0
LINE
  5
46C
  8
_________2
 62
     7
 10
28.549299999999992
 20
9.4092999999999982
 30
0.0
 11
28.549299999999992
 21
23.409199999999998
 31
0.0
  0
LINE
  5
46D
  8
_________2
 62
     7
 10
17.049499999999998
 20
9.4092999999999982
 30
0.0
 11
103.55
 21
9.4092999999999982
 31
0.0
  0
LINE
  5
46E
  8
_________2
 62
     7
 10
17.049499999999998
 20
23.409199999999998
 30
0.0
 11
103.55
 21
23.409199999999998
 31
0.0
  0
LINE
  5
46F
  8
_________2
 62
     7
 10
103.55
 20
15.9085
 30
0.0
 11
183.55099999999999
 21
15.9085
 31
0.0
  0
LINE
  5
470
  8
_________2
 62
     7
 10
17.049499999999998
 20
35.909100000000002
 30
0.0
 11
183.55099999999999
 21
35.909100000000002
 31
0.0
  0
LINE
  5
49B
  8
0
 62
     7
 10
144.45140329718029
 20
108.03162758946721
 30
0.0
 11
145.61240329718049
 21
109.3226275894672
 31
0.0
  0
LINE
  5
49C
  8
0
 62
     7
 10
144.7384032971805
 20
107.77262758946721
 30
0.0
 11
145.8994032971805
 21
109.0636275894672
 31
0.0
  0
LINE
  5
49D
  8
0
 62
     7
 10
144.45140329718029
 20
108.03162758946721
 30
0.0
 11
144.7384032971805
 21
107.77262758946721
 31
0.0
  0
ARC
  5
49E
  8
0
 62
     7
 10
215.6886112971805
 20
46.027781589467288
 30
0.0
 40
93.390771000000001
 50
138.07635400000021
 51
138.27857800000049
  0
LINE
  5
49F
  8
0
 62
     7
 10
145.55040329718051
 20
108.6756275894672
 30
0.0
 11
145.98640329718029
 21
108.17462758946709
 31
0.0
  0
LINE
  5
4A0
  8
0
 62
     7
 10
145.71740329718051
 20
108.8616275894672
 30
0.0
 11
147.48740329718049
 21
107.26962758946711
 31
0.0
  0
LINE
  5
4A1
  8
0
 62
     7
 10
146.79340329718039
 20
109.07062758946719
 30
0.0
 11
148.34740329718039
 21
108.16562758946721
 31
0.0
  0
LINE
  5
4A2
  8
0
 62
     7
 10
148.48540329718051
 20
108.3186275894672
 30
0.0
 11
148.34740329718039
 21
108.16562758946721
 31
0.0
  0
LINE
  5
4A3
  8
0
 62
     7
 10
146.0814032971804
 20
109.2656275894672
 30
0.0
 11
147.8514032971805
 21
107.6736275894672
 31
0.0
  0
LINE
  5
4A5
  8
0
 62
     7
 10
145.98640329718029
 20
108.17462758946709
 30
0.0
 11
147.0504032971804
 21
106.7236275894672
 31
0.0
  0
ARC
  5
4A6
  8
0
 62
     7
 10
146.83711029718049
 20
106.6400415894672
 30
0.0
 40
0.102484
 50
249.94198399999979
 51
317.117209
  0
LINE
  5
4A7
  8
0
 62
     7
 10
144.81840329718051
 20
107.8616275894672
 30
0.0
 11
145.30740329718051
 21
107.4206275894672
 31
0.0
  0
LINE
  5
4A8
  8
0
 62
     7
 10
145.30740329718051
 20
107.4206275894672
 30
0.0
 11
145.98640329718029
 21
108.17462758946709
 31
0.0
  0
LINE
  5
4A9
  8
0
 62
     7
 10
146.3124032971804
 20
106.73162758946729
 30
0.0
 11
146.80240329718049
 21
106.54362758946721
 31
0.0
  0
ARC
  5
4AA
  8
0
 62
     7
 10
146.12030129718039
 20
107.01355858946729
 30
0.0
 40
0.202792
 50
0.3287040000002182
 51
50.220938000000253
  0
LINE
  5
4AB
  8
0
 62
     7
 10
146.32240329718039
 20
107.00762758946711
 30
0.0
 11
146.32340329718039
 21
107.0146275894672
 31
0.0
  0
LINE
  5
4AC
  8
0
 62
     7
 10
145.57940329718039
 20
107.7216275894672
 30
0.0
 11
146.2504032971805
 21
107.1696275894672
 31
0.0
  0
LINE
  5
4AD
  8
0
 62
     7
 10
146.3124032971804
 20
106.73162758946729
 30
0.0
 11
146.32240329718039
 21
107.00762758946711
 31
0.0
  0
LINE
  5
4AE
  8
0
 62
     7
 10
146.91240329718039
 20
106.57062758946719
 30
0.0
 11
147.0504032971804
 21
106.7236275894672
 31
0.0
  0
LINE
  5
4AF
  8
0
 62
     7
 10
147.8514032971805
 20
107.6736275894672
 30
0.0
 11
147.66940329718051
 21
107.4716275894672
 31
0.0
  0
LINE
  5
4B0
  8
0
 62
     7
 10
147.66940329718051
 20
107.4716275894672
 30
0.0
 11
147.48740329718049
 21
107.26962758946711
 31
0.0
  0
LINE
  5
4B1
  8
0
 62
     7
 10
147.0614032971805
 20
110.3546275894671
 30
0.0
 11
145.8994032971805
 21
109.0636275894672
 31
0.0
  0
LINE
  5
4B2
  8
0
 62
     7
 10
146.77340329718049
 20
110.61262758946719
 30
0.0
 11
147.0614032971805
 21
110.3546275894671
 31
0.0
  0
LINE
  5
4B3
  8
0
 62
     7
 10
147.4714032971805
 20
109.8246275894672
 30
0.0
 11
146.79340329718039
 21
109.07062758946719
 31
0.0
  0
ARC
  5
4B4
  8
0
 62
     7
 10
182.0535492971805
 20
76.378177589467285
 30
0.0
 40
48.085881000000001
 50
137.16410199999979
 51
137.558617
  0
LINE
  5
4B5
  8
0
 62
     7
 10
146.77340329718049
 20
110.61262758946719
 30
0.0
 11
145.61240329718049
 21
109.3226275894672
 31
0.0
  0
LINE
  5
4B6
  8
0
 62
     7
 10
146.24940329718049
 20
109.45162758946719
 30
0.0
 11
146.79340329718039
 21
109.07062758946719
 31
0.0
  0
LINE
  5
4B9
  8
0
 62
     7
 10
146.98140329718049
 20
110.2656275894672
 30
0.0
 11
147.4714032971805
 21
109.8246275894672
 31
0.0
  0
ARC
  5
4BA
  8
0
 62
     7
 10
148.4119492971804
 20
108.3858365894672
 30
0.0
 40
0.099479
 50
0.0242220000002483
 51
27.22976399999936
  0
ARC
  5
4BB
  8
0
 62
     7
 10
148.4091862971805
 20
108.3866435894671
 30
0.0
 40
0.102245
 50
318.35368799999992
 51
359.57129399999951
  0
LINE
  5
4BC
  8
0
 62
     7
 10
148.26240329718041
 20
108.8986275894672
 30
0.0
 11
148.5004032971805
 21
108.4316275894672
 31
0.0
  0
ARC
  5
4BD
  8
0
 62
     7
 10
147.9612292971803
 20
109.0607635894671
 30
0.0
 40
0.203404
 50
225.61782000000019
 51
277.79145699999958
  0
LINE
  5
4BE
  8
0
 62
     7
 10
147.20040329718049
 20
109.5236275894671
 30
0.0
 11
147.82040329718029
 21
108.9146275894672
 31
0.0
  0
LINE
  5
4BF
  8
0
 62
     7
 10
148.26240329718041
 20
108.8986275894672
 30
0.0
 11
147.9884032971805
 21
108.8596275894671
 31
0.0
  0
LINE
  5
4C1
  8
0
  6
CONTINUOUS
 62
     7
 10
146.57412684721339
 20
107.37313616926239
 30
0.0
 11
146.92794833200691
 21
107.7728209818719
 31
0.0
  0
LINE
  5
4C2
  8
0
  6
CONTINUOUS
 62
     7
 10
147.28045466733829
 20
108.1871587864777
 30
0.0
 11
147.61270975338849
 21
108.5934896596935
 31
0.0
  0
LINE
  5
4C4
  8
0
  6
CONTINUOUS
 62
     7
 10
147.91499999999991
 20
108.977
 30
0.0
 11
147.84789223497279
 21
108.8918615541148
 31
0.0
  0
ENDSEC
  0
EOF
