  0
SECTION
  2
HEADER
  9
$ACADVER
  1
AC1009
  9
$INSBASE
 10
0.0
 20
0.0
 30
0.0
  9
$EXTMIN
 10
0.238058
 20
0.4482100000000001
 30
0.0
  9
$EXTMAX
 10
210.24000000000001
 20
297.44999999999987
 30
0.0
  9
$LIMMIN
 10
0.0
 20
0.0
  9
$LIMMAX
 10
12.0
 20
9.0
  9
$ORTHOMODE
 70
     0
  9
$REGENMODE
 70
     1
  9
$FILLMODE
 70
     1
  9
$QTEXTMODE
 70
     0
  9
$MIRRTEXT
 70
     1
  9
$DRAGMODE
 70
     2
  9
$LTSCALE
 40
1.0
  9
$OSMODE
 70
    37
  9
$ATTMODE
 70
     1
  9
$TEXTSIZE
 40
0.0
  9
$TRACEWID
 40
0.05
  9
$TEXTSTYLE
  7
STANDARD
  9
$CLAYER
  8
0
  9
$CELTYPE
  6
CONTINUOUS
  9
$CECOLOR
 62
   256
  9
$DIMSCALE
 40
1.0
  9
$DIMASZ
 40
0.18
  9
$DIMEXO
 40
0.0625
  9
$DIMDLI
 40
0.38
  9
$DIMRND
 40
0.0
  9
$DIMDLE
 40
0.0
  9
$DIMEXE
 40
0.18
  9
$DIMTP
 40
0.0
  9
$DIMTM
 40
0.0
  9
$DIMTXT
 40
0.18
  9
$DIMCEN
 40
0.09
  9
$DIMTSZ
 40
0.0
  9
$DIMTOL
 70
     0
  9
$DIMLIM
 70
     0
  9
$DIMTIH
 70
     1
  9
$DIMTOH
 70
     1
  9
$DIMSE1
 70
     0
  9
$DIMSE2
 70
     0
  9
$DIMTAD
 70
     0
  9
$DIMZIN
 70
     0
  9
$DIMBLK
  1

  9
$DIMASO
 70
     1
  9
$DIMSHO
 70
     1
  9
$DIMPOST
  1

  9
$DIMAPOST
  1

  9
$DIMALT
 70
     0
  9
$DIMALTD
 70
     2
  9
$DIMALTF
 40
25.399999999999999
  9
$DIMLFAC
 40
1.0
  9
$DIMTOFL
 70
     0
  9
$DIMTVP
 40
0.0
  9
$DIMTIX
 70
     0
  9
$DIMSOXD
 70
     0
  9
$DIMSAH
 70
     0
  9
$DIMBLK1
  1

  9
$DIMBLK2
  1

  9
$DIMSTYLE
  2
STANDARD
  9
$DIMCLRD
 70
     0
  9
$DIMCLRE
 70
     0
  9
$DIMCLRT
 70
     0
  9
$DIMTFAC
 40
1.0
  9
$DIMGAP
 40
0.09
  9
$LUNITS
 70
     2
  9
$LUPREC
 70
     4
  9
$SKETCHINC
 40
0.1
  9
$FILLETRAD
 40
0.0
  9
$AUNITS
 70
     0
  9
$AUPREC
 70
     0
  9
$MENU
  1
.
  9
$ELEVATION
 40
0.0
  9
$PELEVATION
 40
0.0
  9
$THICKNESS
 40
0.0
  9
$LIMCHECK
 70
     0
  9
$BLIPMODE
 70
     0
  9
$CHAMFERA
 40
0.0
  9
$CHAMFERB
 40
0.0
  9
$SKPOLY
 70
     0
  9
$TDCREATE
 40
2444972.375
  9
$TDUPDATE
 40
2455965.366176215
  9
$TDINDWG
 40
0.0000082523
  9
$TDUSRTIMER
 40
0.0000082523
  9
$USRTIMER
 70
     1
  9
$ANGBASE
 50
0.0
  9
$ANGDIR
 70
     0
  9
$PDMODE
 70
     0
  9
$PDSIZE
 40
0.0
  9
$PLINEWID
 40
0.0
  9
$COORDS
 70
     1
  9
$SPLFRAME
 70
     0
  9
$SPLINETYPE
 70
     6
  9
$SPLINESEGS
 70
     8
  9
$ATTDIA
 70
     0
  9
$ATTREQ
 70
     1
  9
$HANDLING
 70
     1
  9
$HANDSEED
  5
1E3
  9
$SURFTAB1
 70
     6
  9
$SURFTAB2
 70
     6
  9
$SURFTYPE
 70
     6
  9
$SURFU
 70
     6
  9
$SURFV
 70
     6
  9
$UCSNAME
  2

  9
$UCSORG
 10
0.0
 20
0.0
 30
0.0
  9
$UCSXDIR
 10
1.0
 20
0.0
 30
0.0
  9
$UCSYDIR
 10
0.0
 20
1.0
 30
0.0
  9
$PUCSNAME
  2

  9
$PUCSORG
 10
0.0
 20
0.0
 30
0.0
  9
$PUCSXDIR
 10
1.0
 20
0.0
 30
0.0
  9
$PUCSYDIR
 10
0.0
 20
1.0
 30
0.0
  9
$USERI1
 70
     0
  9
$USERI2
 70
     0
  9
$USERI3
 70
     0
  9
$USERI4
 70
     0
  9
$USERI5
 70
     0
  9
$USERR1
 40
0.0
  9
$USERR2
 40
0.0
  9
$USERR3
 40
0.0
  9
$USERR4
 40
0.0
  9
$USERR5
 40
0.0
  9
$WORLDVIEW
 70
     1
  9
$SHADEDGE
 70
     3
  9
$SHADEDIF
 70
    70
  9
$TILEMODE
 70
     1
  9
$MAXACTVP
 70
    48
  9
$PLIMCHECK
 70
     0
  9
$PEXTMIN
 10
1.0000000000000000E+020
 20
1.0000000000000000E+020
 30
1.0000000000000000E+020
  9
$PEXTMAX
 10
-1.0000000000000000E+020
 20
-1.0000000000000000E+020
 30
-1.0000000000000000E+020
  9
$PLIMMIN
 10
0.0
 20
0.0
  9
$PLIMMAX
 10
12.0
 20
9.0
  9
$UNITMODE
 70
     0
  9
$VISRETAIN
 70
     1
  9
$PLINEGEN
 70
     0
  9
$PSLTSCALE
 70
     1
  0
ENDSEC
  0
SECTION
  2
TABLES
  0
TABLE
  2
VPORT
 70
     2
  0
VPORT
  2
*ACTIVE
 70
     0
 10
0.0
 20
0.0
 11
1.0
 21
1.0
 12
210.2887023820887
 22
148.72499999999991
 13
0.0
 23
0.0
 14
1.0
 24
1.0
 15
0.0
 25
0.0
 16
0.0
 26
0.0
 36
1.0
 17
0.0
 27
0.0
 37
0.0
 40
299.69773299748101
 41
2.2894736842105261
 42
50.0
 43
0.0
 44
0.0
 50
0.0
 51
0.0
 71
     0
 72
   100
 73
     1
 74
     1
 75
     0
 76
     0
 77
     0
 78
     0
  0
ENDTAB
  0
TABLE
  2
LTYPE
 70
     4
  0
LTYPE
  2
CONTINUOUS
 70
     0
  3
Solid line
 72
    65
 73
     0
 40
0.0
  0
LTYPE
  2
AIGENLINE001
 70
     0
  3
generate AI->DXF Converter
 72
    65
 73
     2
 40
0.9999879999999999
 49
0.499994
 49
-0.499994
  0
LTYPE
  2
AIGENLINE002
 70
     0
  3
generate AI->DXF Converter
 72
    65
 73
     4
 40
5.8561449999999988
 49
3.5278
 49
-0.776115
 49
0.776115
 49
-0.776115
  0
LTYPE
  2
AIGENLINE003
 70
     0
  3
generate AI->DXF Converter
 72
    65
 73
     4
 40
4.8283550000000002
 49
2.5000100000000001
 49
-0.776115
 49
0.776115
 49
-0.776115
  0
ENDTAB
  0
TABLE
  2
LAYER
 70
     2
  0
LAYER
  2
0
 70
     0
 62
     7
  6
CONTINUOUS
  0
LAYER
  2
_________2
 70
     0
 62
     7
  6
CONTINUOUS
  0
ENDTAB
  0
TABLE
  2
STYLE
 70
     1
  0
STYLE
  2
STANDARD
 70
     0
 40
0.0
 41
0.0
 50
0.0
 71
     0
 42
0.0
  3
TXT
  4
EXTFONT.SHX
  0
ENDTAB
  0
TABLE
  2
VIEW
 70
     0
  0
ENDTAB
  0
TABLE
  2
UCS
 70
     0
  0
ENDTAB
  0
TABLE
  2
APPID
 70
     1
  0
APPID
  2
ACAD
 70
     0
  0
ENDTAB
  0
TABLE
  2
DIMSTYLE
 70
     1
  0
DIMSTYLE
  2
STANDARD
 70
     0
  3

  4

  5

  6

  7

 40
1.0
 41
0.18
 42
0.0625
 43
0.38
 44
0.18
 45
0.0
 46
0.0
 47
0.0
 48
0.0
140
0.18
141
0.09
142
0.0
143
25.399999999999999
144
1.0
145
0.0
146
1.0
147
0.09
 71
     0
 72
     0
 73
     1
 74
     1
 75
     0
 76
     0
 77
     0
 78
     0
170
     0
171
     2
172
     0
173
     0
174
     0
175
     0
176
     0
177
     0
178
     0
  0
ENDTAB
  0
ENDSEC
  0
SECTION
  2
BLOCKS
  0
BLOCK
  8
0
  2
$MODEL_SPACE
 70
     0
 10
0.0
 20
0.0
 30
0.0
  3
$MODEL_SPACE
  1

  0
ENDBLK
  5
1A
  8
0
  0
BLOCK
 67
     1
  8
0
  2
$PAPER_SPACE
 70
     0
 10
0.0
 20
0.0
 30
0.0
  3
$PAPER_SPACE
  1

  0
ENDBLK
  5
17
 67
     1
  8
0
  0
ENDSEC
  0
SECTION
  2
ENTITIES
  0
TEXT
  5
24
  8
0
 62
     7
 10
86.136379999999988
 20
231.02799999999999
 30
0.0
 40
3.0923400000000001
  1
%%c35
 41
0.5
 72
     2
 11
90.259499999999989
 21
231.02799999999999
 31
0.0
  0
TEXT
  5
25
  8
0
 62
     7
 10
75.898029999999991
 20
233.142
 30
0.0
 40
3.0923400000000001
  1
100
 41
0.5
 72
     1
 11
77.444199999999995
 21
233.142
 31
0.0
  0
TEXT
  5
26
  8
0
 62
     7
 10
67.565330000000003
 20
233.142
 30
0.0
 40
3.0923400000000001
  1
100
 41
0.5
 72
     1
 11
69.111500000000007
 21
233.142
 31
0.0
  0
TEXT
  5
27
  8
0
 62
     7
 10
70.111199999999997
 20
120.8988299999999
 30
0.0
 40
3.0923400000000001
  1
115
 50
90.0
 41
0.5
 72
     1
 11
70.111199999999997
 21
122.44499999999999
 31
0.0
  0
TEXT
  5
28
  8
0
 62
     7
 10
130.90399999999991
 20
118.1419825
 30
0.0
 40
3.0923400000000001
  1
170
 50
90.0
 41
0.5
 72
     1
 11
130.90399999999991
 21
119.81699999999999
 31
0.0
  0
TEXT
  5
29
  8
0
 62
     7
 10
124.29000000000001
 20
119.6419825
 30
0.0
 40
3.0923400000000001
  1
130
 50
90.0
 41
0.5
 72
     1
 11
124.29000000000001
 21
121.31699999999999
 31
0.0
  0
TEXT
  5
2A
  8
0
 62
     7
 10
109.114
 20
130.716745
 30
0.0
 40
3.0923400000000001
  1
50
 50
90.0
 41
0.5
 72
     2
 11
109.114
 21
133.03599999999989
 31
0.0
  0
TEXT
  5
2B
  8
0
 62
     7
 10
124.28700000000001
 20
177.5259999999999
 30
0.0
 40
3.0923400000000001
  1
35
 50
90.0
 41
0.5
  0
TEXT
  5
2C
  8
0
 62
     7
 10
130.90399999999991
 20
201.5532874999999
 30
0.0
 40
3.0923400000000001
  1
490
 50
90.0
 41
0.5
 72
     1
 11
130.90399999999991
 21
203.48599999999999
 31
0.0
  0
TEXT
  5
2D
  8
0
 62
     7
 10
124.28700000000001
 20
217.410135
 30
0.0
 40
3.0923400000000001
  1
125
 50
90.0
 41
0.5
 72
     1
 11
124.28700000000001
 21
219.214
 31
0.0
  0
TEXT
  5
2E
  8
0
 62
     7
 10
124.28700000000001
 20
198.7922874999999
 30
0.0
 40
3.0923400000000001
  1
330
 50
90.0
 41
0.5
 72
     1
 11
124.28700000000001
 21
200.72499999999991
 31
0.0
  0
TEXT
  5
2F
  8
0
 62
     7
 10
65.626599999999996
 20
202.17400000000001
 30
0.0
 40
3.0923400000000001
  1
%%c46
 50
45.0
 41
0.5
  0
TEXT
  5
30
  8
0
 62
     7
 10
92.027499999999989
 20
220.78052500000001
 30
0.0
 40
3.0923400000000001
  1
65
 50
90.0
 41
0.5
 72
     1
 11
92.027499999999989
 21
222.06899999999999
 31
0.0
  0
TEXT
  5
31
  8
0
 62
     7
 10
56.502499999999991
 20
215.7609824999999
 30
0.0
 40
3.0923400000000001
  1
190
 50
90.0
 41
0.5
 72
     1
 11
56.502499999999991
 21
217.43599999999989
 31
0.0
  0
TEXT
  5
32
  8
0
 62
     7
 10
38.333640000000003
 20
174.696
 30
0.0
 40
3.0923400000000001
  1
255
 41
0.5
 72
     1
 11
40.395200000000003
 21
174.696
 31
0.0
  0
TEXT
  5
33
  8
0
 62
     7
 10
104.48044
 20
174.696
 30
0.0
 40
3.0923400000000001
  1
255
 41
0.5
 72
     1
 11
106.542
 21
174.696
 31
0.0
  0
TEXT
  5
34
  8
0
 62
     7
 10
51.456987499999997
 20
136.15399999999991
 30
0.0
 40
3.0923400000000001
  1
205
 41
0.5
 72
     1
 11
53.389699999999991
 21
136.15399999999991
 31
0.0
  0
TEXT
  5
35
  8
0
 62
     7
 10
170.21298250000001
 20
106.9039999999999
 30
0.0
 40
3.0923400000000001
  1
190
 41
0.5
 72
     1
 11
171.88800000000001
 21
106.9039999999999
 31
0.0
  0
TEXT
  5
36
  8
0
 62
     7
 10
91.879587499999985
 20
136.15399999999991
 30
0.0
 40
3.0923400000000001
  1
205
 41
0.5
 72
     1
 11
93.812299999999993
 21
136.15399999999991
 31
0.0
  0
TEXT
  5
37
  8
0
 62
     7
 10
71.5212875
 20
136.15399999999991
 30
0.0
 40
3.0923400000000001
  1
280
 41
0.5
 72
     1
 11
73.453999999999994
 21
136.15399999999991
 31
0.0
  0
TEXT
  5
38
  8
0
 62
     7
 10
71.5212875
 20
174.696
 30
0.0
 40
3.0923400000000001
  1
540
 41
0.5
 72
     1
 11
73.453999999999994
 21
174.696
 31
0.0
  0
TEXT
  5
39
  8
0
 62
     7
 10
71.134744999999995
 20
241.9309999999999
 30
0.0
 40
3.0923400000000001
  1
1050
 41
0.5
 72
     1
 11
73.453999999999994
 21
241.9309999999999
 31
0.0
  0
LINE
  5
3A
  8
0
 62
     7
 10
75.664900000000003
 20
232.7949999999999
 30
0.0
 11
73.453199999999995
 21
232.203
 31
0.0
  0
LINE
  5
3B
  8
0
 62
     7
 10
73.453199999999995
 20
232.203
 30
0.0
 11
75.664900000000003
 21
231.61000000000001
 31
0.0
  0
LINE
  5
3C
  8
0
 62
     7
 10
75.664900000000003
 20
231.61000000000001
 30
0.0
 11
75.664900000000003
 21
232.7949999999999
 31
0.0
  0
LINE
  5
3D
  8
0
 62
     7
 10
79.576000000000008
 20
231.62200000000001
 30
0.0
 11
81.787800000000004
 21
232.215
 31
0.0
  0
LINE
  5
3E
  8
0
 62
     7
 10
81.787800000000004
 20
232.215
 30
0.0
 11
79.576000000000008
 21
232.80699999999999
 31
0.0
  0
LINE
  5
3F
  8
0
 62
     7
 10
79.576000000000008
 20
232.80699999999999
 30
0.0
 11
79.576000000000008
 21
231.62200000000001
 31
0.0
  0
LINE
  5
40
  8
0
 62
     7
 10
73.453999999999994
 20
232.209
 30
0.0
 11
81.786600000000007
 21
232.209
 31
0.0
  0
LINE
  5
41
  8
0
 62
     7
 10
81.786600000000007
 20
222.65299999999991
 30
0.0
 11
81.786600000000007
 21
232.792
 31
0.0
  0
LINE
  5
42
  8
0
 62
     7
 10
65.121300000000005
 20
222.65299999999991
 30
0.0
 11
65.121300000000005
 21
232.792
 31
0.0
  0
LINE
  5
43
  8
0
 62
     7
 10
67.3322
 20
232.7949999999999
 30
0.0
 11
65.120500000000007
 21
232.203
 31
0.0
  0
LINE
  5
44
  8
0
 62
     7
 10
65.120500000000007
 20
232.203
 30
0.0
 11
67.3322
 21
231.61000000000001
 31
0.0
  0
LINE
  5
45
  8
0
 62
     7
 10
67.3322
 20
231.61000000000001
 30
0.0
 11
67.3322
 21
232.7949999999999
 31
0.0
  0
LINE
  5
46
  8
0
 62
     7
 10
71.243300000000005
 20
231.62200000000001
 30
0.0
 11
73.455100000000002
 21
232.215
 31
0.0
  0
LINE
  5
47
  8
0
 62
     7
 10
73.455100000000002
 20
232.215
 30
0.0
 11
71.243300000000005
 21
232.80699999999999
 31
0.0
  0
LINE
  5
48
  8
0
 62
     7
 10
71.243300000000005
 20
232.80699999999999
 30
0.0
 11
71.243300000000005
 21
231.62200000000001
 31
0.0
  0
LINE
  5
49
  8
0
 62
     7
 10
65.121300000000005
 20
232.209
 30
0.0
 11
73.453999999999994
 21
232.209
 31
0.0
  0
LINE
  5
4A
  8
0
 62
     7
 10
73.453999999999994
 20
222.65299999999991
 30
0.0
 11
73.453999999999994
 21
232.792
 31
0.0
  0
ARC
  5
4B
  8
0
  6
AIGENLINE001
 62
     7
 10
223.894024
 20
113.20330199999999
 30
0.0
 40
55.543635000000002
 50
167.38473500000001
 51
174.68853799999991
  0
ARC
  5
4C
  8
0
  6
AIGENLINE001
 62
     7
 10
199.254728
 20
118.516553
 30
0.0
 40
30.339369999999999
 50
164.31248600000001
 51
167.0139969999999
  0
ARC
  5
4D
  8
0
 62
     7
 10
190.97522699999999
 20
110.901481
 30
0.0
 40
23.148081999999999
 50
167.12583699999999
 51
173.13972699999999
  0
ARC
  5
4E
  8
0
  6
AIGENLINE001
 62
     7
 10
160.7056509999999
 20
241.91591299999999
 30
0.0
 40
123.3160009999999
 50
261.92282599999987
 51
264.2791049999999
  0
ARC
  5
4F
  8
0
  6
AIGENLINE001
 62
     7
 10
-40.953409000000001
 20
-1787.4960000000001
 30
0.0
 40
1916.0909999999999
 50
84.080356999999992
 51
84.328210999999996
  0
ARC
  5
50
  8
0
  6
AIGENLINE001
 62
     7
 10
151.25522699999999
 20
74.32055600000001
 30
0.0
 40
44.386778999999997
 50
78.916491000000008
 51
83.006579000000002
  0
ARC
  5
51
  8
0
  6
AIGENLINE001
 62
     7
 10
155.643562
 20
97.766199
 30
0.0
 40
20.535810999999999
 50
75.570394999999991
 51
78.356544999999997
  0
LINE
  5
52
  8
0
 62
     7
 10
125.458
 20
181.63599999999991
 30
0.0
 11
124.86499999999999
 21
183.84700000000001
 31
0.0
  0
LINE
  5
53
  8
0
 62
     7
 10
124.86499999999999
 20
183.84700000000001
 30
0.0
 11
124.2729999999999
 21
181.63599999999991
 31
0.0
  0
LINE
  5
54
  8
0
 62
     7
 10
124.2729999999999
 20
181.63599999999991
 30
0.0
 11
125.458
 21
181.63599999999991
 31
0.0
  0
LINE
  5
55
  8
0
 62
     7
 10
124.871
 20
177.5259999999999
 30
0.0
 11
124.871
 21
183.84700000000001
 31
0.0
  0
LINE
  5
56
  8
0
 62
     7
 10
110.4249999999999
 20
120.8609999999999
 30
0.0
 11
109.833
 21
123.072
 31
0.0
  0
LINE
  5
57
  8
0
 62
     7
 10
109.833
 20
123.072
 30
0.0
 11
109.23999999999999
 21
120.8609999999999
 31
0.0
  0
LINE
  5
58
  8
0
 62
     7
 10
109.23999999999999
 20
120.8609999999999
 30
0.0
 11
110.4249999999999
 21
120.8609999999999
 31
0.0
  0
LINE
  5
59
  8
0
 62
     7
 10
109.8389999999999
 20
119.9379999999999
 30
0.0
 11
109.8389999999999
 21
123.0709999999999
 31
0.0
  0
LINE
  5
5A
  8
0
 62
     7
 10
109.252
 20
129.4489999999999
 30
0.0
 11
109.8449999999999
 21
127.23699999999999
 31
0.0
  0
LINE
  5
5B
  8
0
 62
     7
 10
109.8449999999999
 20
127.23699999999999
 30
0.0
 11
110.4379999999999
 21
129.4489999999999
 31
0.0
  0
LINE
  5
5C
  8
0
 62
     7
 10
110.4379999999999
 20
129.4489999999999
 30
0.0
 11
109.252
 21
129.4489999999999
 31
0.0
  0
LINE
  5
5D
  8
0
 62
     7
 10
109.8389999999999
 20
127.23699999999999
 30
0.0
 11
109.8389999999999
 21
132.89500000000001
 31
0.0
  0
LINE
  5
5E
  8
0
 62
     7
 10
179.71899999999999
 20
126.404
 30
0.0
 11
179.71899999999999
 21
117.2379999999999
 31
0.0
  0
LINE
  5
5F
  8
0
 62
     7
 10
178.88599999999991
 20
127.23699999999999
 30
0.0
 11
170.66099999999989
 21
127.23699999999999
 31
0.0
  0
ARC
  5
60
  8
0
 62
     7
 10
178.85464899999991
 20
126.37274099999991
 30
0.0
 40
0.8652969999999999
 50
2.1003080000000001
 51
87.947054000000009
  0
LINE
  5
61
  8
0
 62
     7
 10
139.71899999999991
 20
116.4039999999999
 30
0.0
 11
178.88599999999991
 21
116.4039999999999
 31
0.0
  0
ARC
  5
62
  8
0
 62
     7
 10
178.85398699999999
 20
117.26970300000001
 30
0.0
 40
0.86597
 50
272.09521000000001
 51
357.88111900000001
  0
LINE
  5
63
  8
0
 62
     7
 10
138.88599999999991
 20
126.404
 30
0.0
 11
138.88599999999991
 21
117.2379999999999
 31
0.0
  0
ARC
  5
64
  8
0
 62
     7
 10
139.75079999999991
 20
117.2693289999999
 30
0.0
 40
0.86561
 50
182.09506799999991
 51
267.88127099999991
  0
LINE
  5
65
  8
0
 62
     7
 10
139.71899999999991
 20
127.23699999999999
 30
0.0
 11
141.80199999999999
 21
127.23699999999999
 31
0.0
  0
ARC
  5
66
  8
0
 62
     7
 10
139.750461
 20
126.3727899999999
 30
0.0
 40
0.8652719999999998
 50
92.097110999999984
 51
177.90285900000001
  0
LINE
  5
67
  8
0
 62
     7
 10
166.80199999999999
 20
113.321
 30
0.0
 11
167.58199999999991
 21
113.321
 31
0.0
  0
ARC
  5
68
  8
0
 62
     7
 10
167.57092599999999
 20
113.7511429999999
 30
0.0
 40
0.4303600000000001
 50
271.50347900000003
 51
348.65392700000001
  0
ARC
  5
69
  8
0
 62
     7
 10
168.83099699999991
 20
115.974012
 30
0.0
 40
0.430448
 50
91.503482000000005
 51
168.59757699999989
  0
LINE
  5
6A
  8
0
 62
     7
 10
166.80199999999999
 20
113.071
 30
0.0
 11
166.80199999999999
 21
113.321
 31
0.0
  0
LINE
  5
6B
  8
0
 62
     7
 10
163.886
 20
113.071
 30
0.0
 11
166.80199999999999
 21
113.071
 31
0.0
  0
LINE
  5
6C
  8
0
  6
AIGENLINE002
 62
     7
 10
163.886
 20
128.55799999999991
 30
0.0
 11
163.886
 21
111.77500000000001
 31
0.0
  0
LINE
  5
6D
  8
0
  6
AIGENLINE001
 62
     7
 10
163.886
 20
117.6539999999999
 30
0.0
 11
167.768
 21
117.6539999999999
 31
0.0
  0
LINE
  5
6E
  8
0
  6
AIGENLINE001
 62
     7
 10
166.053
 20
116.6959999999999
 30
0.0
 11
163.886
 21
116.6959999999999
 31
0.0
  0
LINE
  5
6F
  8
0
  6
AIGENLINE001
 62
     7
 10
166.053
 20
116.6959999999999
 30
0.0
 11
167.00999999999991
 21
117.6539999999999
 31
0.0
  0
LINE
  5
70
  8
0
  6
AIGENLINE001
 62
     7
 10
166.053
 20
116.6959999999999
 30
0.0
 11
166.053
 21
113.071
 31
0.0
  0
LINE
  5
71
  8
0
 62
     7
 10
170.66099999999989
 20
127.23699999999999
 30
0.0
 11
163.886
 21
127.23699999999999
 31
0.0
  0
ARC
  5
72
  8
0
  6
AIGENLINE001
 62
     7
 10
167.74537399999991
 20
118.514219
 30
0.0
 40
0.8603239999999999
 50
271.52394800000002
 51
348.65269000000001
  0
ARC
  5
73
  8
0
  6
AIGENLINE001
 62
     7
 10
170.678584
 20
126.591734
 30
0.0
 40
0.6459760000000001
 50
91.518749000000014
 51
168.54474699999989
  0
LINE
  5
74
  8
0
 62
     7
 10
155.96899999999991
 20
127.23699999999999
 30
0.0
 11
163.886
 21
127.23699999999999
 31
0.0
  0
LINE
  5
75
  8
0
 62
     7
 10
151.80199999999999
 20
127.23699999999999
 30
0.0
 11
155.96899999999991
 21
127.23699999999999
 31
0.0
  0
LINE
  5
76
  8
0
  6
AIGENLINE001
 62
     7
 10
161.71899999999991
 20
116.6959999999999
 30
0.0
 11
163.886
 21
116.6959999999999
 31
0.0
  0
LINE
  5
77
  8
0
  6
AIGENLINE001
 62
     7
 10
160.761
 20
117.6539999999999
 30
0.0
 11
163.886
 21
117.6539999999999
 31
0.0
  0
LINE
  5
78
  8
0
  6
AIGENLINE001
 62
     7
 10
161.71899999999991
 20
116.6959999999999
 30
0.0
 11
160.761
 21
117.6539999999999
 31
0.0
  0
LINE
  5
79
  8
0
 62
     7
 10
160.13499999999999
 20
116.047
 30
0.0
 11
160.56399999999999
 21
113.071
 31
0.0
  0
ARC
  5
7A
  8
0
 62
     7
 10
159.710531
 20
115.973422
 30
0.0
 40
0.4310560000000001
 50
9.8351650000000017
 51
88.405283999999995
  0
LINE
  5
7B
  8
0
  6
AIGENLINE001
 62
     7
 10
161.71899999999991
 20
116.6959999999999
 30
0.0
 11
161.71899999999991
 21
113.071
 31
0.0
  0
LINE
  5
7C
  8
0
 62
     7
 10
160.56399999999999
 20
113.071
 30
0.0
 11
163.886
 21
113.071
 31
0.0
  0
LINE
  5
7D
  8
0
  6
AIGENLINE001
 62
     7
 10
71.287199999999999
 20
116.6959999999999
 30
0.0
 11
73.453999999999994
 21
116.6959999999999
 31
0.0
  0
LINE
  5
7E
  8
0
  6
AIGENLINE001
 62
     7
 10
70.328999999999994
 20
117.6539999999999
 30
0.0
 11
73.453999999999994
 21
117.6539999999999
 31
0.0
  0
LINE
  5
7F
  8
0
  6
AIGENLINE001
 62
     7
 10
73.453999999999994
 20
117.6539999999999
 30
0.0
 11
76.578900000000004
 21
117.6539999999999
 31
0.0
  0
LINE
  5
80
  8
0
  6
AIGENLINE001
 62
     7
 10
93.793099999999995
 20
119.029
 30
0.0
 11
76.578900000000004
 21
117.6539999999999
 31
0.0
  0
LINE
  5
81
  8
0
  6
AIGENLINE001
 62
     7
 10
95.858699999999985
 20
126.72799999999989
 30
0.0
 11
94.547600000000003
 21
119.706
 31
0.0
  0
ARC
  5
82
  8
0
  6
AIGENLINE001
 62
     7
 10
93.708037000000004
 20
119.88239400000001
 30
0.0
 40
0.8578249999999998
 50
275.69390899999991
 51
348.16478599999988
  0
ARC
  5
83
  8
0
  6
AIGENLINE001
 62
     7
 10
96.489924000000002
 20
126.59205300000001
 30
0.0
 40
0.6456490000000001
 50
91.492992999999984
 51
167.88072099999991
  0
LINE
  5
84
  8
0
  6
AIGENLINE001
 62
     7
 10
53.114899999999999
 20
119.029
 30
0.0
 11
70.328999999999994
 21
117.6539999999999
 31
0.0
  0
LINE
  5
85
  8
0
  6
AIGENLINE001
 62
     7
 10
51.04890000000001
 20
126.72799999999989
 30
0.0
 11
52.360399999999998
 21
119.706
 31
0.0
  0
ARC
  5
86
  8
0
  6
AIGENLINE001
 62
     7
 10
53.199762
 20
119.882094
 30
0.0
 40
0.8574989999999999
 50
191.81929599999989
 51
264.322048
  0
LINE
  5
87
  8
0
 62
     7
 10
50.434600000000003
 20
127.23699999999999
 30
0.0
 11
73.453999999999994
 21
127.23699999999999
 31
0.0
  0
LINE
  5
88
  8
0
 62
     7
 10
30.536999999999999
 20
127.23699999999999
 30
0.0
 11
50.434600000000003
 21
127.23699999999999
 31
0.0
  0
ARC
  5
89
  8
0
  6
AIGENLINE001
 62
     7
 10
50.418346
 20
126.59292499999989
 30
0.0
 40
0.6447630000000001
 50
12.056921000000001
 51
88.553535999999994
  0
LINE
  5
8A
  8
0
  6
AIGENLINE003
 62
     7
 10
71.385800000000003
 20
124.3209999999999
 30
0.0
 11
75.452699999999993
 21
124.3209999999999
 31
0.0
  0
LINE
  5
8B
  8
0
  6
AIGENLINE001
 62
     7
 10
71.287199999999999
 20
116.6959999999999
 30
0.0
 11
70.328999999999994
 21
117.6539999999999
 31
0.0
  0
LINE
  5
8C
  8
0
  6
AIGENLINE001
 62
     7
 10
75.620699999999999
 20
116.6959999999999
 30
0.0
 11
76.578900000000004
 21
117.6539999999999
 31
0.0
  0
LINE
  5
8D
  8
0
  6
AIGENLINE001
 62
     7
 10
75.620699999999999
 20
116.6959999999999
 30
0.0
 11
75.620699999999999
 21
113.071
 31
0.0
  0
LINE
  5
8E
  8
0
  6
AIGENLINE001
 62
     7
 10
73.453999999999994
 20
116.6959999999999
 30
0.0
 11
75.620699999999999
 21
116.6959999999999
 31
0.0
  0
LINE
  5
8F
  8
0
 62
     7
 10
76.77600000000001
 20
113.071
 30
0.0
 11
77.204599999999999
 21
116.047
 31
0.0
  0
LINE
  5
90
  8
0
 62
     7
 10
30.536999999999999
 20
116.4039999999999
 30
0.0
 11
116.371
 21
116.4039999999999
 31
0.0
  0
ARC
  5
91
  8
0
 62
     7
 10
77.628792000000004
 20
115.974006
 30
0.0
 40
0.430473
 50
91.600343000000009
 51
170.2302169999999
  0
LINE
  5
92
  8
0
 62
     7
 10
69.703199999999995
 20
116.047
 30
0.0
 11
70.132099999999994
 21
113.071
 31
0.0
  0
ARC
  5
93
  8
0
 62
     7
 10
69.278598000000002
 20
115.9736139999999
 30
0.0
 40
0.43087
 50
9.8135580000000004
 51
88.379536000000002
  0
LINE
  5
94
  8
0
  6
AIGENLINE001
 62
     7
 10
71.287199999999999
 20
116.6959999999999
 30
0.0
 11
71.287199999999999
 21
113.071
 31
0.0
  0
LINE
  5
95
  8
0
 62
     7
 10
77.359200000000001
 20
113.071
 30
0.0
 11
132.071
 21
113.071
 31
0.0
  0
LINE
  5
96
  8
0
 62
     7
 10
130.90100000000001
 20
115.282
 30
0.0
 11
131.49399999999989
 21
113.06999999999999
 31
0.0
  0
LINE
  5
97
  8
0
 62
     7
 10
131.49399999999989
 20
113.06999999999999
 30
0.0
 11
132.08600000000001
 21
115.282
 31
0.0
  0
LINE
  5
98
  8
0
 62
     7
 10
132.08600000000001
 20
115.282
 30
0.0
 11
130.90100000000001
 21
115.282
 31
0.0
  0
LINE
  5
99
  8
0
 62
     7
 10
132.0739999999999
 20
125.0269999999999
 30
0.0
 11
131.482
 21
127.2389999999999
 31
0.0
  0
LINE
  5
9A
  8
0
 62
     7
 10
131.482
 20
127.2389999999999
 30
0.0
 11
130.88900000000001
 21
125.0269999999999
 31
0.0
  0
LINE
  5
9B
  8
0
 62
     7
 10
130.88900000000001
 20
125.0269999999999
 30
0.0
 11
132.0739999999999
 21
125.0269999999999
 31
0.0
  0
LINE
  5
9C
  8
0
 62
     7
 10
131.488
 20
113.071
 30
0.0
 11
131.488
 21
127.23699999999999
 31
0.0
  0
LINE
  5
9D
  8
0
 62
     7
 10
117.788
 20
127.23699999999999
 30
0.0
 11
132.071
 21
127.23699999999999
 31
0.0
  0
LINE
  5
9E
  8
0
  6
AIGENLINE003
 62
     7
 10
44.703699999999991
 20
125.221
 30
0.0
 11
44.703699999999991
 21
120.9929999999999
 31
0.0
  0
LINE
  5
9F
  8
0
  6
AIGENLINE003
 62
     7
 10
41.990000000000002
 20
123.0709999999999
 30
0.0
 11
47.567100000000003
 21
123.0709999999999
 31
0.0
  0
LINE
  5
A0
  8
0
  6
AIGENLINE001
 62
     7
 10
44.286999999999999
 20
122.238
 30
0.0
 11
45.1205
 21
122.238
 31
0.0
  0
LINE
  5
A1
  8
0
  6
AIGENLINE001
 62
     7
 10
44.286999999999999
 20
123.9049999999999
 30
0.0
 11
45.1205
 21
123.9049999999999
 31
0.0
  0
ARC
  5
A2
  8
0
  6
AIGENLINE001
 62
     7
 10
45.08887
 20
123.102616
 30
0.0
 40
0.865267
 50
272.09683699999999
 51
357.90317299999998
  0
ARC
  5
A3
  8
0
  6
AIGENLINE001
 62
     7
 10
45.087784999999997
 20
123.03892999999999
 30
0.0
 40
0.8663649999999998
 50
2.118573
 51
87.834046000000001
  0
ARC
  5
A4
  8
0
  6
AIGENLINE001
 62
     7
 10
44.318684999999988
 20
123.03961199999991
 30
0.0
 40
0.8656439999999999
 50
92.098828999999995
 51
177.92482200000001
  0
ARC
  5
A5
  8
0
  6
AIGENLINE001
 62
     7
 10
44.318705000000001
 20
123.1030379999999
 30
0.0
 40
0.8656909999999999
 50
182.12371899999991
 51
267.90000199999997
  0
LINE
  5
A6
  8
0
 62
     7
 10
44.703699999999991
 20
125.804
 30
0.0
 11
44.703699999999991
 21
136.15399999999991
 31
0.0
  0
LINE
  5
A7
  8
0
  6
AIGENLINE003
 62
     7
 10
61.787100000000002
 20
125.221
 30
0.0
 11
61.787100000000002
 21
120.9929999999999
 31
0.0
  0
LINE
  5
A8
  8
0
  6
AIGENLINE003
 62
     7
 10
59.073300000000003
 20
123.0709999999999
 30
0.0
 11
64.650599999999997
 21
123.0709999999999
 31
0.0
  0
LINE
  5
A9
  8
0
  6
AIGENLINE001
 62
     7
 10
61.3705
 20
122.238
 30
0.0
 11
62.203999999999994
 21
122.238
 31
0.0
  0
LINE
  5
AA
  8
0
  6
AIGENLINE001
 62
     7
 10
61.3705
 20
123.9049999999999
 30
0.0
 11
62.203999999999994
 21
123.9049999999999
 31
0.0
  0
ARC
  5
AB
  8
0
  6
AIGENLINE001
 62
     7
 10
62.172340000000013
 20
123.102621
 30
0.0
 40
0.865273
 50
272.097148
 51
357.90286200000003
  0
ARC
  5
AC
  8
0
  6
AIGENLINE001
 62
     7
 10
62.171261000000001
 20
123.03892999999999
 30
0.0
 40
0.8663649999999998
 50
2.118573
 51
87.834046000000001
  0
ARC
  5
AD
  8
0
  6
AIGENLINE001
 62
     7
 10
61.402160999999992
 20
123.03961199999991
 30
0.0
 40
0.8656439999999999
 50
92.098828999999995
 51
177.92482200000001
  0
ARC
  5
AE
  8
0
  6
AIGENLINE001
 62
     7
 10
61.402180000000001
 20
123.1030379999999
 30
0.0
 40
0.8656909999999999
 50
182.12371899999991
 51
267.90000199999997
  0
LINE
  5
AF
  8
0
 62
     7
 10
61.787100000000002
 20
125.804
 30
0.0
 11
61.787100000000002
 21
136.15399999999991
 31
0.0
  0
LINE
  5
B0
  8
0
  6
AIGENLINE003
 62
     7
 10
85.120599999999996
 20
125.221
 30
0.0
 11
85.120599999999996
 21
120.9929999999999
 31
0.0
  0
LINE
  5
B1
  8
0
  6
AIGENLINE003
 62
     7
 10
82.407000000000025
 20
123.0709999999999
 30
0.0
 11
87.983999999999995
 21
123.0709999999999
 31
0.0
  0
LINE
  5
B2
  8
0
  6
AIGENLINE001
 62
     7
 10
84.704099999999997
 20
122.238
 30
0.0
 11
85.537400000000005
 21
122.238
 31
0.0
  0
LINE
  5
B3
  8
0
  6
AIGENLINE001
 62
     7
 10
84.704099999999997
 20
123.9049999999999
 30
0.0
 11
85.537400000000005
 21
123.9049999999999
 31
0.0
  0
ARC
  5
B4
  8
0
  6
AIGENLINE001
 62
     7
 10
85.505783999999991
 20
123.1027909999999
 30
0.0
 40
0.865441
 50
272.09611100000001
 51
357.89205199999998
  0
ARC
  5
B5
  8
0
  6
AIGENLINE001
 62
     7
 10
85.504861999999989
 20
123.0389179999999
 30
0.0
 40
0.8663709999999998
 50
2.119364
 51
87.845101
  0
ARC
  5
B6
  8
0
  6
AIGENLINE001
 62
     7
 10
84.735757999999976
 20
123.03944300000001
 30
0.0
 40
0.8658129999999999
 50
92.097792000000013
 51
177.91401699999989
  0
ARC
  5
B7
  8
0
  6
AIGENLINE001
 62
     7
 10
84.735619999999983
 20
123.1030499999999
 30
0.0
 40
0.8656969999999999
 50
182.1245099999999
 51
267.91105199999998
  0
LINE
  5
B8
  8
0
 62
     7
 10
85.120599999999996
 20
125.804
 30
0.0
 11
85.120599999999996
 21
136.15399999999991
 31
0.0
  0
LINE
  5
B9
  8
0
  6
AIGENLINE003
 62
     7
 10
102.20399999999999
 20
125.221
 30
0.0
 11
102.20399999999999
 21
120.9929999999999
 31
0.0
  0
LINE
  5
BA
  8
0
  6
AIGENLINE003
 62
     7
 10
99.490200000000002
 20
123.0709999999999
 30
0.0
 11
105.06699999999989
 21
123.0709999999999
 31
0.0
  0
LINE
  5
BB
  8
0
  6
AIGENLINE001
 62
     7
 10
101.7879999999999
 20
122.238
 30
0.0
 11
102.621
 21
122.238
 31
0.0
  0
LINE
  5
BC
  8
0
  6
AIGENLINE001
 62
     7
 10
101.7879999999999
 20
123.9049999999999
 30
0.0
 11
102.621
 21
123.9049999999999
 31
0.0
  0
ARC
  5
BD
  8
0
  6
AIGENLINE001
 62
     7
 10
102.58892899999999
 20
123.103134
 30
0.0
 40
0.865784
 50
272.0943509999999
 51
357.87012700000002
  0
ARC
  5
BE
  8
0
  6
AIGENLINE001
 62
     7
 10
102.588718
 20
123.039286
 30
0.0
 40
0.865976
 50
2.0959910000000002
 51
87.892160000000004
  0
ARC
  5
BF
  8
0
  6
AIGENLINE001
 62
     7
 10
101.819228
 20
123.03944799999989
 30
0.0
 40
0.8658079999999999
 50
92.097481000000002
 51
177.91432800000001
  0
ARC
  5
C0
  8
0
  6
AIGENLINE001
 62
     7
 10
101.8187039999999
 20
123.10265699999999
 30
0.0
 40
0.865291
 50
182.09951799999999
 51
267.93604399999992
  0
LINE
  5
C1
  8
0
 62
     7
 10
105.651
 20
123.0709999999999
 30
0.0
 11
110.416
 21
123.0709999999999
 31
0.0
  0
LINE
  5
C2
  8
0
 62
     7
 10
117.20399999999989
 20
126.404
 30
0.0
 11
117.20399999999989
 21
117.2379999999999
 31
0.0
  0
ARC
  5
C3
  8
0
 62
     7
 10
116.33955
 20
117.2690149999999
 30
0.0
 40
0.865285
 50
272.09873299999992
 51
357.92496799999998
  0
LINE
  5
C4
  8
0
 62
     7
 10
73.453999999999994
 20
127.23699999999999
 30
0.0
 11
116.371
 21
127.23699999999999
 31
0.0
  0
ARC
  5
C5
  8
0
 62
     7
 10
116.339574
 20
126.3727889999999
 30
0.0
 40
0.865273
 50
2.0971380000000002
 51
87.902851999999996
  0
LINE
  5
C6
  8
0
 62
     7
 10
29.703600000000002
 20
126.404
 30
0.0
 11
29.703600000000002
 21
117.2379999999999
 31
0.0
  0
ARC
  5
C7
  8
0
 62
     7
 10
30.537002999999999
 20
117.237685
 30
0.0
 40
0.8333739999999998
 50
179.99996999999991
 51
270.00002000000001
  0
ARC
  5
C8
  8
0
 62
     7
 10
30.568652
 20
126.3724459999999
 30
0.0
 40
0.8656149999999998
 50
92.095348999999985
 51
177.88092999999989
  0
LINE
  5
C9
  8
0
 62
     7
 10
95.954099999999997
 20
173.53
 30
0.0
 11
95.954099999999997
 21
186.18000000000001
 31
0.0
  0
LINE
  5
CA
  8
0
 62
     7
 10
51.786999999999999
 20
186.76400000000001
 30
0.0
 11
95.120500000000007
 21
186.76400000000001
 31
0.0
  0
LINE
  5
CB
  8
0
 62
     7
 10
95.954099999999997
 20
187.59700000000001
 30
0.0
 11
95.954099999999997
 21
213.43000000000001
 31
0.0
  0
ARC
  5
CC
  8
0
 62
     7
 10
95.088897000000003
 20
187.62880799999999
 30
0.0
 40
0.86579
 50
272.09514299999989
 51
357.88118199999991
  0
LINE
  5
CD
  8
0
 62
     7
 10
50.953600000000002
 20
187.59700000000001
 30
0.0
 11
50.953600000000002
 21
213.43000000000001
 31
0.0
  0
ARC
  5
CE
  8
0
 62
     7
 10
51.818899000000002
 20
187.62887399999991
 30
0.0
 40
0.8658649999999999
 50
182.12299399999989
 51
267.88887999999992
  0
LINE
  5
CF
  8
0
 62
     7
 10
51.786999999999999
 20
214.26400000000001
 30
0.0
 11
95.120500000000007
 21
214.26400000000001
 31
0.0
  0
ARC
  5
D0
  8
0
 62
     7
 10
95.088863000000003
 20
213.39849599999991
 30
0.0
 40
0.8658129999999999
 50
2.0973380000000001
 51
87.902652000000003
  0
ARC
  5
D1
  8
0
 62
     7
 10
51.818692999999989
 20
213.39867000000001
 30
0.0
 40
0.8656379999999998
 50
92.098037000000005
 51
177.9137749999999
  0
LINE
  5
D2
  8
0
 62
     7
 10
117.20399999999989
 20
224.26400000000001
 30
0.0
 11
117.20399999999989
 21
184.26400000000001
 31
0.0
  0
LINE
  5
D3
  8
0
 62
     7
 10
30.1205
 20
224.67999999999989
 30
0.0
 11
116.78700000000001
 21
224.67999999999989
 31
0.0
  0
ARC
  5
D4
  8
0
 62
     7
 10
116.7718
 20
224.24791099999999
 30
0.0
 40
0.4327550000000001
 50
2.0906169999999991
 51
87.933053999999984
  0
LINE
  5
D5
  8
0
 62
     7
 10
30.1205
 20
183.84700000000001
 30
0.0
 11
116.78700000000001
 21
183.84700000000001
 31
0.0
  0
ARC
  5
D6
  8
0
 62
     7
 10
116.7717659999999
 20
184.27929
 30
0.0
 40
0.4327840000000001
 50
272.07133700000003
 51
357.928673
  0
LINE
  5
D7
  8
0
 62
     7
 10
29.703600000000002
 20
224.26400000000001
 30
0.0
 11
29.703600000000002
 21
184.26400000000001
 31
0.0
  0
ARC
  5
D8
  8
0
 62
     7
 10
30.13638499999999
 20
184.2795439999999
 30
0.0
 40
0.433048
 50
182.103748
 51
267.89628199999993
  0
ARC
  5
D9
  8
0
 62
     7
 10
30.13625
 20
224.24775699999989
 30
0.0
 40
0.432915
 50
92.086539000000016
 51
177.88974999999999
  0
LINE
  5
DA
  8
0
  6
AIGENLINE001
 62
     7
 10
142.42699999999999
 20
126.6129999999999
 30
0.0
 11
142.63499999999999
 21
120.652
 31
0.0
  0
ARC
  5
DB
  8
0
  6
AIGENLINE001
 62
     7
 10
143.49740399999999
 20
120.6774139999999
 30
0.0
 40
0.8623509999999999
 50
181.70233799999991
 51
262.10077899999987
  0
ARC
  5
DC
  8
0
  6
AIGENLINE001
 62
     7
 10
141.77852999999999
 20
126.5886629999999
 30
0.0
 40
0.6492580000000001
 50
2.1073680000000001
 51
87.892623
  0
LINE
  5
DD
  8
0
 62
     7
 10
166.09599999999989
 20
106.9079999999999
 30
0.0
 11
163.88399999999999
 21
106.315
 31
0.0
  0
LINE
  5
DE
  8
0
 62
     7
 10
163.88399999999999
 20
106.315
 30
0.0
 11
166.09599999999989
 21
105.72199999999999
 31
0.0
  0
LINE
  5
DF
  8
0
 62
     7
 10
166.09599999999989
 20
105.72199999999999
 30
0.0
 11
166.09599999999989
 21
106.9079999999999
 31
0.0
  0
LINE
  5
E0
  8
0
 62
     7
 10
177.5079999999999
 20
105.7339999999999
 30
0.0
 11
179.72
 21
106.327
 31
0.0
  0
LINE
  5
E1
  8
0
 62
     7
 10
179.72
 20
106.327
 30
0.0
 11
177.5079999999999
 21
106.919
 31
0.0
  0
LINE
  5
E2
  8
0
 62
     7
 10
177.5079999999999
 20
106.919
 30
0.0
 11
177.5079999999999
 21
105.7339999999999
 31
0.0
  0
LINE
  5
E3
  8
0
 62
     7
 10
163.886
 20
106.3209999999999
 30
0.0
 11
179.71899999999999
 21
106.3209999999999
 31
0.0
  0
LINE
  5
E4
  8
0
 62
     7
 10
179.71899999999999
 20
115.8209999999999
 30
0.0
 11
179.71899999999999
 21
105.73699999999999
 31
0.0
  0
LINE
  5
E5
  8
0
 62
     7
 10
163.886
 20
111.19199999999999
 30
0.0
 11
163.886
 21
105.73699999999999
 31
0.0
  0
LINE
  5
E6
  8
0
 62
     7
 10
141.80199999999999
 20
127.23699999999999
 30
0.0
 11
151.80199999999999
 21
127.23699999999999
 31
0.0
  0
LINE
  5
E7
  8
0
  6
AIGENLINE003
 62
     7
 10
174.30199999999999
 20
128.3429999999999
 30
0.0
 11
174.30199999999999
 21
125.547
 31
0.0
  0
LINE
  5
E8
  8
0
  6
AIGENLINE003
 62
     7
 10
178.029
 20
123.0709999999999
 30
0.0
 11
181.29799999999989
 21
123.0709999999999
 31
0.0
  0
LINE
  5
E9
  8
0
 62
     7
 10
70.132099999999994
 20
113.071
 30
0.0
 11
76.77600000000001
 21
113.071
 31
0.0
  0
LINE
  5
EA
  8
0
 62
     7
 10
71.631200000000007
 20
125.0269999999999
 30
0.0
 11
71.038700000000006
 21
127.2389999999999
 31
0.0
  0
LINE
  5
EB
  8
0
 62
     7
 10
71.038700000000006
 20
127.2389999999999
 30
0.0
 11
70.445800000000006
 21
125.0269999999999
 31
0.0
  0
LINE
  5
EC
  8
0
 62
     7
 10
70.445800000000006
 20
125.0269999999999
 30
0.0
 11
71.631200000000007
 21
125.0269999999999
 31
0.0
  0
LINE
  5
ED
  8
0
 62
     7
 10
70.458200000000005
 20
119.866
 30
0.0
 11
71.050700000000006
 21
117.6539999999999
 31
0.0
  0
LINE
  5
EE
  8
0
 62
     7
 10
71.050700000000006
 20
117.6539999999999
 30
0.0
 11
71.643299999999996
 21
119.866
 31
0.0
  0
LINE
  5
EF
  8
0
 62
     7
 10
71.643299999999996
 20
119.866
 30
0.0
 11
70.458200000000005
 21
119.866
 31
0.0
  0
LINE
  5
F0
  8
0
 62
     7
 10
71.044700000000006
 20
127.23699999999999
 30
0.0
 11
71.044700000000006
 21
117.6549999999999
 31
0.0
  0
LINE
  5
F1
  8
0
 62
     7
 10
124.28399999999991
 20
118.61499999999999
 30
0.0
 11
124.877
 21
116.40299999999991
 31
0.0
  0
LINE
  5
F2
  8
0
 62
     7
 10
124.877
 20
116.40299999999991
 30
0.0
 11
125.46899999999989
 21
118.61499999999999
 31
0.0
  0
LINE
  5
F3
  8
0
 62
     7
 10
125.46899999999989
 20
118.61499999999999
 30
0.0
 11
124.28399999999991
 21
118.61499999999999
 31
0.0
  0
LINE
  5
F4
  8
0
 62
     7
 10
125.458
 20
125.0269999999999
 30
0.0
 11
124.86499999999999
 21
127.2389999999999
 31
0.0
  0
LINE
  5
F5
  8
0
 62
     7
 10
124.86499999999999
 20
127.2389999999999
 30
0.0
 11
124.2729999999999
 21
125.0269999999999
 31
0.0
  0
LINE
  5
F6
  8
0
 62
     7
 10
124.2729999999999
 20
125.0269999999999
 30
0.0
 11
125.458
 21
125.0269999999999
 31
0.0
  0
LINE
  5
F7
  8
0
 62
     7
 10
124.871
 20
116.4039999999999
 30
0.0
 11
124.871
 21
127.23699999999999
 31
0.0
  0
LINE
  5
F8
  8
0
 62
     7
 10
117.78399999999991
 20
116.4039999999999
 30
0.0
 11
125.455
 21
116.4039999999999
 31
0.0
  0
LINE
  5
F9
  8
0
 62
     7
 10
63.997999999999998
 20
136.1579999999999
 30
0.0
 11
61.786299999999997
 21
135.565
 31
0.0
  0
LINE
  5
FA
  8
0
 62
     7
 10
61.786299999999997
 20
135.565
 30
0.0
 11
63.997999999999998
 21
134.97200000000001
 31
0.0
  0
LINE
  5
FB
  8
0
 62
     7
 10
63.997999999999998
 20
134.97200000000001
 30
0.0
 11
63.997999999999998
 21
136.1579999999999
 31
0.0
  0
LINE
  5
FC
  8
0
 62
     7
 10
82.909699999999987
 20
134.98500000000001
 30
0.0
 11
85.121399999999994
 21
135.57699999999991
 31
0.0
  0
LINE
  5
FD
  8
0
 62
     7
 10
85.121399999999994
 20
135.57699999999991
 30
0.0
 11
82.909699999999987
 21
136.1699999999999
 31
0.0
  0
LINE
  5
FE
  8
0
 62
     7
 10
82.909699999999987
 20
136.1699999999999
 30
0.0
 11
82.909699999999987
 21
134.98500000000001
 31
0.0
  0
LINE
  5
FF
  8
0
 62
     7
 10
61.787100000000002
 20
135.57099999999991
 30
0.0
 11
85.120599999999996
 21
135.57099999999991
 31
0.0
  0
LINE
  5
100
  8
0
 62
     7
 10
46.9146
 20
136.1579999999999
 30
0.0
 11
44.702800000000003
 21
135.565
 31
0.0
  0
LINE
  5
101
  8
0
 62
     7
 10
44.702800000000003
 20
135.565
 30
0.0
 11
46.9146
 21
134.97200000000001
 31
0.0
  0
LINE
  5
102
  8
0
 62
     7
 10
46.9146
 20
134.97200000000001
 30
0.0
 11
46.9146
 21
136.1579999999999
 31
0.0
  0
LINE
  5
103
  8
0
 62
     7
 10
59.5762
 20
134.98500000000001
 30
0.0
 11
61.787999999999997
 21
135.57699999999991
 31
0.0
  0
LINE
  5
104
  8
0
 62
     7
 10
61.787999999999997
 20
135.57699999999991
 30
0.0
 11
59.5762
 21
136.1699999999999
 31
0.0
  0
LINE
  5
105
  8
0
 62
     7
 10
59.5762
 20
136.1699999999999
 30
0.0
 11
59.5762
 21
134.98500000000001
 31
0.0
  0
LINE
  5
106
  8
0
 62
     7
 10
44.703699999999991
 20
135.57099999999991
 30
0.0
 11
61.787100000000002
 21
135.57099999999991
 31
0.0
  0
LINE
  5
107
  8
0
 62
     7
 10
87.331500000000005
 20
136.1579999999999
 30
0.0
 11
85.119699999999995
 21
135.565
 31
0.0
  0
LINE
  5
108
  8
0
 62
     7
 10
85.119699999999995
 20
135.565
 30
0.0
 11
87.331500000000005
 21
134.97200000000001
 31
0.0
  0
LINE
  5
109
  8
0
 62
     7
 10
87.331500000000005
 20
134.97200000000001
 30
0.0
 11
87.331500000000005
 21
136.1579999999999
 31
0.0
  0
LINE
  5
10A
  8
0
 62
     7
 10
99.993499999999983
 20
134.98500000000001
 30
0.0
 11
102.2049999999999
 21
135.57699999999991
 31
0.0
  0
LINE
  5
10B
  8
0
 62
     7
 10
102.2049999999999
 20
135.57699999999991
 30
0.0
 11
99.993499999999983
 21
136.1699999999999
 31
0.0
  0
LINE
  5
10C
  8
0
 62
     7
 10
99.993499999999983
 20
136.1699999999999
 30
0.0
 11
99.993499999999983
 21
134.98500000000001
 31
0.0
  0
LINE
  5
10D
  8
0
 62
     7
 10
85.120599999999996
 20
135.57099999999991
 30
0.0
 11
102.20399999999999
 21
135.57099999999991
 31
0.0
  0
LINE
  5
10E
  8
0
 62
     7
 10
109.8389999999999
 20
123.0709999999999
 30
0.0
 11
109.8389999999999
 21
127.23699999999999
 31
0.0
  0
ARC
  5
10F
  8
0
  6
AIGENLINE001
 62
     7
 10
73.412716000000003
 20
124.2798719999999
 30
0.0
 40
1.1252219999999991
 50
2.1044
 51
87.895589999999999
  0
ARC
  5
110
  8
0
  6
AIGENLINE001
 62
     7
 10
73.495343999999989
 20
124.279523
 30
0.0
 40
1.12557
 50
92.103274999999996
 51
177.87847400000001
  0
ARC
  5
111
  8
0
  6
AIGENLINE001
 62
     7
 10
73.454033999999993
 20
124.3211899999999
 30
0.0
 40
1.083488999999999
 50
179.99996999999991
 51
270.00002000000001
  0
ARC
  5
112
  8
0
  6
AIGENLINE001
 62
     7
 10
73.453862000000001
 20
124.32101899999989
 30
0.0
 40
1.0833170000000001
 50
270.00912999999991
 51
0.009101
  0
LINE
  5
113
  8
0
 62
     7
 10
102.20399999999999
 20
125.804
 30
0.0
 11
102.20399999999999
 21
136.15399999999991
 31
0.0
  0
LINE
  5
114
  8
0
  6
AIGENLINE002
 62
     7
 10
73.453999999999994
 20
111.76000000000001
 30
0.0
 11
73.453999999999994
 21
129.1879999999999
 31
0.0
  0
LINE
  5
115
  8
0
 62
     7
 10
125.455
 20
183.84700000000001
 30
0.0
 11
117.788
 21
183.84700000000001
 31
0.0
  0
LINE
  5
116
  8
0
 62
     7
 10
124.871
 20
183.84700000000001
 30
0.0
 11
124.871
 21
186.76400000000001
 31
0.0
  0
LINE
  5
117
  8
0
 62
     7
 10
96.537700000000015
 20
186.76400000000001
 30
0.0
 11
125.455
 21
186.76400000000001
 31
0.0
  0
LINE
  5
118
  8
0
 62
     7
 10
124.28399999999991
 20
188.97499999999999
 30
0.0
 11
124.877
 21
186.76300000000001
 31
0.0
  0
LINE
  5
119
  8
0
 62
     7
 10
124.877
 20
186.76300000000001
 30
0.0
 11
125.46899999999989
 21
188.97499999999999
 31
0.0
  0
LINE
  5
11A
  8
0
 62
     7
 10
125.46899999999989
 20
188.97499999999999
 30
0.0
 11
124.28399999999991
 21
188.97499999999999
 31
0.0
  0
LINE
  5
11B
  8
0
 62
     7
 10
125.458
 20
212.053
 30
0.0
 11
124.86499999999999
 21
214.26400000000001
 31
0.0
  0
LINE
  5
11C
  8
0
 62
     7
 10
124.86499999999999
 20
214.26400000000001
 30
0.0
 11
124.2729999999999
 21
212.053
 31
0.0
  0
LINE
  5
11D
  8
0
 62
     7
 10
124.2729999999999
 20
212.053
 30
0.0
 11
125.458
 21
212.053
 31
0.0
  0
LINE
  5
11E
  8
0
 62
     7
 10
124.871
 20
186.76400000000001
 30
0.0
 11
124.871
 21
214.26400000000001
 31
0.0
  0
LINE
  5
11F
  8
0
 62
     7
 10
124.28399999999991
 20
216.47499999999999
 30
0.0
 11
124.877
 21
214.26300000000001
 31
0.0
  0
LINE
  5
120
  8
0
 62
     7
 10
124.877
 20
214.26300000000001
 30
0.0
 11
125.46899999999989
 21
216.47499999999999
 31
0.0
  0
LINE
  5
121
  8
0
 62
     7
 10
125.46899999999989
 20
216.47499999999999
 30
0.0
 11
124.28399999999991
 21
216.47499999999999
 31
0.0
  0
LINE
  5
122
  8
0
 62
     7
 10
125.458
 20
222.46899999999999
 30
0.0
 11
124.86499999999999
 21
224.6809999999999
 31
0.0
  0
LINE
  5
123
  8
0
 62
     7
 10
124.86499999999999
 20
224.6809999999999
 30
0.0
 11
124.2729999999999
 21
222.46899999999999
 31
0.0
  0
LINE
  5
124
  8
0
 62
     7
 10
124.2729999999999
 20
222.46899999999999
 30
0.0
 11
125.458
 21
222.46899999999999
 31
0.0
  0
LINE
  5
125
  8
0
 62
     7
 10
124.871
 20
214.26400000000001
 30
0.0
 11
124.871
 21
224.67999999999989
 31
0.0
  0
LINE
  5
126
  8
0
 62
     7
 10
117.788
 20
224.67999999999989
 30
0.0
 11
125.455
 21
224.67999999999989
 31
0.0
  0
LINE
  5
127
  8
0
 62
     7
 10
96.537700000000015
 20
214.26400000000001
 30
0.0
 11
125.455
 21
214.26400000000001
 31
0.0
  0
LINE
  5
128
  8
0
  6
AIGENLINE002
 62
     7
 10
69.508700000000005
 20
208.84700000000001
 30
0.0
 11
77.281199999999998
 21
208.84700000000001
 31
0.0
  0
LINE
  5
129
  8
0
 62
     7
 10
93.743399999999994
 20
173.52699999999999
 30
0.0
 11
95.955100000000002
 21
174.119
 31
0.0
  0
LINE
  5
12A
  8
0
 62
     7
 10
95.955100000000002
 20
174.119
 30
0.0
 11
93.743399999999994
 21
174.71199999999999
 31
0.0
  0
LINE
  5
12B
  8
0
 62
     7
 10
93.743399999999994
 20
174.71199999999999
 30
0.0
 11
93.743399999999994
 21
173.52699999999999
 31
0.0
  0
LINE
  5
12C
  8
0
 62
     7
 10
53.16449999999999
 20
174.69900000000001
 30
0.0
 11
50.952800000000003
 21
174.107
 31
0.0
  0
LINE
  5
12D
  8
0
 62
     7
 10
50.952800000000003
 20
174.107
 30
0.0
 11
53.16449999999999
 21
173.51400000000001
 31
0.0
  0
LINE
  5
12E
  8
0
 62
     7
 10
53.16449999999999
 20
173.51400000000001
 30
0.0
 11
53.16449999999999
 21
174.69900000000001
 31
0.0
  0
LINE
  5
12F
  8
0
 62
     7
 10
95.954099999999997
 20
174.113
 30
0.0
 11
50.953600000000002
 21
174.113
 31
0.0
  0
LINE
  5
130
  8
0
 62
     7
 10
114.9939999999999
 20
173.52699999999999
 30
0.0
 11
117.206
 21
174.119
 31
0.0
  0
LINE
  5
131
  8
0
 62
     7
 10
117.206
 20
174.119
 30
0.0
 11
114.9939999999999
 21
174.71199999999999
 31
0.0
  0
LINE
  5
132
  8
0
 62
     7
 10
114.9939999999999
 20
174.71199999999999
 30
0.0
 11
114.9939999999999
 21
173.52699999999999
 31
0.0
  0
LINE
  5
133
  8
0
 62
     7
 10
98.164699999999996
 20
174.69900000000001
 30
0.0
 11
95.9529
 21
174.107
 31
0.0
  0
LINE
  5
134
  8
0
 62
     7
 10
95.9529
 20
174.107
 30
0.0
 11
98.164699999999996
 21
173.51400000000001
 31
0.0
  0
LINE
  5
135
  8
0
 62
     7
 10
98.164699999999996
 20
173.51400000000001
 30
0.0
 11
98.164699999999996
 21
174.69900000000001
 31
0.0
  0
LINE
  5
136
  8
0
 62
     7
 10
117.20399999999989
 20
174.113
 30
0.0
 11
95.954099999999997
 21
174.113
 31
0.0
  0
LINE
  5
137
  8
0
 62
     7
 10
117.20399999999989
 20
183.26299999999989
 30
0.0
 11
117.20399999999989
 21
173.53
 31
0.0
  0
LINE
  5
138
  8
0
 62
     7
 10
50.953600000000002
 20
173.53
 30
0.0
 11
50.953600000000002
 21
186.18000000000001
 31
0.0
  0
LINE
  5
139
  8
0
 62
     7
 10
31.9145
 20
174.69900000000001
 30
0.0
 11
29.7028
 21
174.107
 31
0.0
  0
LINE
  5
13A
  8
0
 62
     7
 10
29.7028
 20
174.107
 30
0.0
 11
31.9145
 21
173.51400000000001
 31
0.0
  0
LINE
  5
13B
  8
0
 62
     7
 10
31.9145
 20
173.51400000000001
 30
0.0
 11
31.9145
 21
174.69900000000001
 31
0.0
  0
LINE
  5
13C
  8
0
 62
     7
 10
48.742699999999999
 20
173.52699999999999
 30
0.0
 11
50.954500000000003
 21
174.119
 31
0.0
  0
LINE
  5
13D
  8
0
 62
     7
 10
50.954500000000003
 20
174.119
 30
0.0
 11
48.742699999999999
 21
174.71199999999999
 31
0.0
  0
LINE
  5
13E
  8
0
 62
     7
 10
48.742699999999999
 20
174.71199999999999
 30
0.0
 11
48.742699999999999
 21
173.52699999999999
 31
0.0
  0
LINE
  5
13F
  8
0
 62
     7
 10
29.703600000000002
 20
174.113
 30
0.0
 11
50.953600000000002
 21
174.113
 31
0.0
  0
LINE
  5
140
  8
0
 62
     7
 10
29.703600000000002
 20
183.26299999999989
 30
0.0
 11
29.703600000000002
 21
173.53
 31
0.0
  0
LINE
  5
141
  8
0
 62
     7
 10
130.90100000000001
 20
186.05799999999991
 30
0.0
 11
131.49399999999989
 21
183.84599999999989
 31
0.0
  0
LINE
  5
142
  8
0
 62
     7
 10
131.49399999999989
 20
183.84599999999989
 30
0.0
 11
132.08600000000001
 21
186.05799999999991
 31
0.0
  0
LINE
  5
143
  8
0
 62
     7
 10
132.08600000000001
 20
186.05799999999991
 30
0.0
 11
130.90100000000001
 21
186.05799999999991
 31
0.0
  0
LINE
  5
144
  8
0
 62
     7
 10
132.0739999999999
 20
222.46899999999999
 30
0.0
 11
131.482
 21
224.6809999999999
 31
0.0
  0
LINE
  5
145
  8
0
 62
     7
 10
131.482
 20
224.6809999999999
 30
0.0
 11
130.88900000000001
 21
222.46899999999999
 31
0.0
  0
LINE
  5
146
  8
0
 62
     7
 10
130.88900000000001
 20
222.46899999999999
 30
0.0
 11
132.0739999999999
 21
222.46899999999999
 31
0.0
  0
LINE
  5
147
  8
0
 62
     7
 10
131.488
 20
183.84700000000001
 30
0.0
 11
131.488
 21
224.67999999999989
 31
0.0
  0
LINE
  5
148
  8
0
 62
     7
 10
125.455
 20
183.84700000000001
 30
0.0
 11
132.071
 21
183.84700000000001
 31
0.0
  0
LINE
  5
149
  8
0
 62
     7
 10
125.455
 20
224.67999999999989
 30
0.0
 11
132.071
 21
224.67999999999989
 31
0.0
  0
LINE
  5
14A
  8
0
 62
     7
 10
114.9939999999999
 20
240.761
 30
0.0
 11
117.206
 21
241.35400000000001
 31
0.0
  0
LINE
  5
14B
  8
0
 62
     7
 10
117.206
 20
241.35400000000001
 30
0.0
 11
114.9939999999999
 21
241.94599999999991
 31
0.0
  0
LINE
  5
14C
  8
0
 62
     7
 10
114.9939999999999
 20
241.94599999999991
 30
0.0
 11
114.9939999999999
 21
240.761
 31
0.0
  0
LINE
  5
14D
  8
0
 62
     7
 10
31.9145
 20
241.934
 30
0.0
 11
29.7028
 21
241.34099999999989
 31
0.0
  0
LINE
  5
14E
  8
0
 62
     7
 10
29.7028
 20
241.34099999999989
 30
0.0
 11
31.9145
 21
240.749
 31
0.0
  0
LINE
  5
14F
  8
0
 62
     7
 10
31.9145
 20
240.749
 30
0.0
 11
31.9145
 21
241.934
 31
0.0
  0
LINE
  5
150
  8
0
 62
     7
 10
117.20399999999989
 20
241.3479999999999
 30
0.0
 11
29.703600000000002
 21
241.3479999999999
 31
0.0
  0
LINE
  5
151
  8
0
 62
     7
 10
29.703600000000002
 20
225.2639999999999
 30
0.0
 11
29.703600000000002
 21
241.9309999999999
 31
0.0
  0
LINE
  5
152
  8
0
 62
     7
 10
117.20399999999989
 20
225.2639999999999
 30
0.0
 11
117.20399999999989
 21
241.9309999999999
 31
0.0
  0
LINE
  5
153
  8
0
  6
AIGENLINE002
 62
     7
 10
62.358699999999999
 20
219.26400000000001
 30
0.0
 11
67.769800000000004
 21
219.26400000000001
 31
0.0
  0
LINE
  5
154
  8
0
 62
     7
 10
65.120500000000007
 20
216.773
 30
0.0
 11
65.120500000000007
 21
221.93700000000001
 31
0.0
  0
LINE
  5
155
  8
0
  6
AIGENLINE002
 62
     7
 10
79.025300000000001
 20
219.26400000000001
 30
0.0
 11
84.436700000000002
 21
219.26400000000001
 31
0.0
  0
LINE
  5
156
  8
0
 62
     7
 10
81.787400000000005
 20
216.773
 30
0.0
 11
81.787400000000005
 21
221.93700000000001
 31
0.0
  0
LINE
  5
157
  8
0
  6
AIGENLINE002
 62
     7
 10
70.8001
 20
219.26400000000001
 30
0.0
 11
76.211500000000001
 21
219.26400000000001
 31
0.0
  0
LINE
  5
158
  8
0
 62
     7
 10
93.413799999999995
 20
221.47499999999991
 30
0.0
 11
92.821299999999994
 21
219.26300000000001
 31
0.0
  0
LINE
  5
159
  8
0
 62
     7
 10
92.821299999999994
 20
219.26300000000001
 30
0.0
 11
92.228700000000003
 21
221.47499999999991
 31
0.0
  0
LINE
  5
15A
  8
0
 62
     7
 10
92.228700000000003
 20
221.47499999999991
 30
0.0
 11
93.413799999999995
 21
221.47499999999991
 31
0.0
  0
LINE
  5
15B
  8
0
 62
     7
 10
92.240799999999979
 20
222.46899999999999
 30
0.0
 11
92.833299999999994
 21
224.6809999999999
 31
0.0
  0
LINE
  5
15C
  8
0
 62
     7
 10
92.833299999999994
 20
224.6809999999999
 30
0.0
 11
93.425899999999984
 21
222.46899999999999
 31
0.0
  0
LINE
  5
15D
  8
0
 62
     7
 10
93.425899999999984
 20
222.46899999999999
 30
0.0
 11
92.240799999999979
 21
222.46899999999999
 31
0.0
  0
LINE
  5
15E
  8
0
 62
     7
 10
92.827299999999994
 20
219.26400000000001
 30
0.0
 11
92.827299999999994
 21
224.67999999999989
 31
0.0
  0
LINE
  5
15F
  8
0
 62
     7
 10
84.518500000000003
 20
230.32799999999989
 30
0.0
 11
90.259499999999989
 21
230.32799999999989
 31
0.0
  0
LINE
  5
160
  8
0
 62
     7
 10
85.311800000000005
 20
219.26400000000001
 30
0.0
 11
93.410700000000006
 21
219.26400000000001
 31
0.0
  0
LINE
  5
161
  8
0
 62
     7
 10
56.569299999999998
 20
211.05799999999999
 30
0.0
 11
57.161900000000003
 21
208.84599999999989
 31
0.0
  0
LINE
  5
162
  8
0
 62
     7
 10
57.161900000000003
 20
208.84599999999989
 30
0.0
 11
57.754300000000001
 21
211.05799999999999
 31
0.0
  0
LINE
  5
163
  8
0
 62
     7
 10
57.754300000000001
 20
211.05799999999999
 30
0.0
 11
56.569299999999998
 21
211.05799999999999
 31
0.0
  0
LINE
  5
164
  8
0
 62
     7
 10
57.74219999999999
 20
222.46899999999999
 30
0.0
 11
57.149799999999999
 21
224.6809999999999
 31
0.0
  0
LINE
  5
165
  8
0
 62
     7
 10
57.149799999999999
 20
224.6809999999999
 30
0.0
 11
56.557299999999998
 21
222.46899999999999
 31
0.0
  0
LINE
  5
166
  8
0
 62
     7
 10
56.557299999999998
 20
222.46899999999999
 30
0.0
 11
57.74219999999999
 21
222.46899999999999
 31
0.0
  0
LINE
  5
167
  8
0
 62
     7
 10
57.155900000000003
 20
208.84700000000001
 30
0.0
 11
57.155900000000003
 21
224.67999999999989
 31
0.0
  0
LINE
  5
168
  8
0
 62
     7
 10
68.925399999999996
 20
208.84700000000001
 30
0.0
 11
56.572400000000002
 21
208.84700000000001
 31
0.0
  0
LINE
  5
169
  8
0
 62
     7
 10
71.277799999999999
 20
216.25
 30
0.0
 11
72.422600000000003
 21
218.23299999999989
 31
0.0
  0
LINE
  5
16A
  8
0
 62
     7
 10
72.422600000000003
 20
218.23299999999989
 30
0.0
 11
70.439599999999999
 21
217.08799999999991
 31
0.0
  0
LINE
  5
16B
  8
0
 62
     7
 10
70.439599999999999
 20
217.08799999999991
 30
0.0
 11
71.277799999999999
 21
216.25
 31
0.0
  0
LINE
  5
16C
  8
0
 62
     7
 10
69.572199999999995
 20
215.3829999999999
 30
0.0
 11
84.518500000000003
 21
230.32799999999989
 31
0.0
  0
LINE
  5
16D
  8
0
 62
     7
 10
75.629599999999996
 20
222.27799999999991
 30
0.0
 11
74.485200000000006
 21
220.2949999999999
 31
0.0
  0
LINE
  5
16E
  8
0
 62
     7
 10
74.485200000000006
 20
220.2949999999999
 30
0.0
 11
76.467799999999997
 21
221.43999999999991
 31
0.0
  0
LINE
  5
16F
  8
0
 62
     7
 10
76.467799999999997
 20
221.43999999999991
 30
0.0
 11
75.629599999999996
 21
222.27799999999991
 31
0.0
  0
LINE
  5
170
  8
0
 62
     7
 10
70.953699999999984
 20
205.50899999999999
 30
0.0
 11
72.098600000000005
 21
207.49199999999999
 31
0.0
  0
LINE
  5
171
  8
0
 62
     7
 10
72.098600000000005
 20
207.49199999999999
 30
0.0
 11
70.115499999999983
 21
206.34700000000001
 31
0.0
  0
LINE
  5
172
  8
0
 62
     7
 10
70.115499999999983
 20
206.34700000000001
 30
0.0
 11
70.953699999999984
 21
205.50899999999999
 31
0.0
  0
LINE
  5
173
  8
0
 62
     7
 10
66.089200000000005
 20
201.48199999999991
 30
0.0
 11
72.098600000000005
 21
207.49199999999999
 31
0.0
  0
LINE
  5
174
  8
0
 62
     7
 10
72.098600000000005
 20
207.49199999999999
 30
0.0
 11
74.809299999999993
 21
210.20199999999991
 31
0.0
  0
LINE
  5
175
  8
0
 62
     7
 10
75.953800000000001
 20
212.185
 30
0.0
 11
74.809299999999993
 21
210.20199999999991
 31
0.0
  0
LINE
  5
176
  8
0
 62
     7
 10
74.809299999999993
 20
210.20199999999991
 30
0.0
 11
76.792000000000002
 21
211.34699999999989
 31
0.0
  0
LINE
  5
177
  8
0
 62
     7
 10
76.792000000000002
 20
211.34699999999989
 30
0.0
 11
75.953800000000001
 21
212.185
 31
0.0
  0
LINE
  5
178
  8
0
 62
     7
 10
74.809299999999993
 20
210.20199999999991
 30
0.0
 11
76.981499999999997
 21
212.375
 31
0.0
  0
LINE
  5
179
  8
0
  6
AIGENLINE002
 62
     7
 10
73.453999999999994
 20
181.95500000000001
 30
0.0
 11
73.453999999999994
 21
222.06999999999991
 31
0.0
  0
LINE
  5
17A
  8
0
  6
AIGENLINE002
 62
     7
 10
44.703699999999991
 20
221.59699999999989
 30
0.0
 11
44.703699999999991
 21
229.01599999999991
 31
0.0
  0
LINE
  5
17B
  8
0
  6
AIGENLINE002
 62
     7
 10
102.20399999999999
 20
221.845
 30
0.0
 11
102.20399999999999
 21
228.78099999999989
 31
0.0
  0
LINE
  5
17C
  8
0
  6
AIGENLINE002
 62
     7
 10
61.787100000000002
 20
221.845
 30
0.0
 11
61.787100000000002
 21
229.01599999999991
 31
0.0
  0
LINE
  5
17D
  8
0
  6
AIGENLINE002
 62
     7
 10
85.120599999999996
 20
222.154
 30
0.0
 11
85.120599999999996
 21
228.78099999999989
 31
0.0
  0
ARC
  5
17E
  8
0
 62
     7
 10
73.454033999999993
 20
208.84714199999991
 30
0.0
 40
3.124893999999999
 50
0.00001
 51
89.999980000000008
  0
ARC
  5
17F
  8
0
 62
     7
 10
73.453948999999994
 20
208.84705600000001
 30
0.0
 40
3.124979999999999
 50
89.998420999999993
 51
179.99839099999991
  0
ARC
  5
180
  8
0
 62
     7
 10
73.454033999999993
 20
208.84714199999991
 30
0.0
 40
3.1250650000000002
 50
179.99996999999991
 51
270.00002000000001
  0
ARC
  5
181
  8
0
 62
     7
 10
73.453947999999997
 20
208.84705700000001
 30
0.0
 40
3.124979999999999
 50
270.001599
 51
0.001569
  0
ARC
  5
182
  8
0
 62
     7
 10
73.454033999999993
 20
208.84714199999991
 30
0.0
 40
1.916518999999999
 50
0.00001
 51
89.999980000000008
  0
ARC
  5
183
  8
0
 62
     7
 10
73.453947999999997
 20
208.84705600000001
 30
0.0
 40
1.916604999999999
 50
89.997425000000007
 51
179.9973949999999
  0
ARC
  5
184
  8
0
 62
     7
 10
73.454205999999999
 20
208.84697
 30
0.0
 40
1.916863
 50
179.994821
 51
269.99487099999999
  0
ARC
  5
185
  8
0
 62
     7
 10
73.453776000000005
 20
208.84688499999999
 30
0.0
 40
1.9167769999999991
 50
270.00774299999989
 51
0.007714
  0
ARC
  5
186
  8
0
 62
     7
 10
65.064633999999998
 20
219.2077929999999
 30
0.0
 40
1.515353
 50
2.1115629999999999
 51
87.888427000000007
  0
ARC
  5
187
  8
0
 62
     7
 10
65.120553999999998
 20
219.263713
 30
0.0
 40
1.4584049999999991
 50
90.003383999999997
 51
180.0033939999999
  0
ARC
  5
188
  8
0
 62
     7
 10
65.120381000000009
 20
219.263713
 30
0.0
 40
1.4582319999999991
 50
180.0033939999999
 51
270.00340399999988
  0
ARC
  5
189
  8
0
 62
     7
 10
65.063879
 20
219.32057399999999
 30
0.0
 40
1.5161489999999991
 50
272.13902899999988
 51
357.84744499999988
  0
ARC
  5
18A
  8
0
 62
     7
 10
81.787255999999985
 20
219.26379900000001
 30
0.0
 40
1.458318
 50
359.99324200000001
 51
89.993212
  0
ARC
  5
18B
  8
0
 62
     7
 10
81.844031000000001
 20
219.20702399999999
 30
0.0
 40
1.5161500000000001
 50
92.139533
 51
177.8604379999999
  0
ARC
  5
18C
  8
0
 62
     7
 10
81.842912999999996
 20
219.31946899999991
 30
0.0
 40
1.515004999999999
 50
182.11239399999991
 51
267.90117099999992
  0
ARC
  5
18D
  8
0
 62
     7
 10
81.787428000000006
 20
219.26362700000001
 30
0.0
 40
1.4581459999999991
 50
270.00002000000001
 51
359.99998999999991
  0
ARC
  5
18E
  8
0
 62
     7
 10
73.453862000000001
 20
219.26379900000001
 30
0.0
 40
1.458318
 50
359.99324200000001
 51
89.993212
  0
ARC
  5
18F
  8
0
 62
     7
 10
73.510637000000003
 20
219.20702399999999
 30
0.0
 40
1.5161500000000001
 50
92.139533
 51
177.8604379999999
  0
ARC
  5
190
  8
0
 62
     7
 10
73.509518999999997
 20
219.31946899999991
 30
0.0
 40
1.515004999999999
 50
182.11239399999991
 51
267.90117099999992
  0
ARC
  5
191
  8
0
 62
     7
 10
73.454033999999993
 20
219.26362700000001
 30
0.0
 40
1.4581459999999991
 50
270.00002000000001
 51
359.99998999999991
  0
TEXT
  5
192
  8
_________2
 62
     7
 10
29.525700000000001
 20
22.226900000000001
 30
0.0
 40
3.9357000000000002
  1
実容量：12L、重量39kg、オーバーフロー付
 41
0.5
  0
LINE
  5
193
  8
_________2
 62
     7
 10
210.24000000000001
 20
148.93100000000001
 30
0.0
 11
188.49000000000001
 21
148.93100000000001
 31
0.0
  0
LINE
  5
194
  8
_________2
 62
     7
 10
105.2389999999999
 20
17.428499999999989
 30
0.0
 11
105.2389999999999
 21
0.4482100000000001
 31
0.0
  0
LINE
  5
195
  8
_________2
 62
     7
 10
105.2389999999999
 20
297.44999999999987
 30
0.0
 11
105.2389999999999
 21
280.42999999999989
 31
0.0
  0
LINE
  5
196
  8
_________2
 62
     7
 10
21.988499999999991
 20
148.93100000000001
 30
0.0
 11
0.238058
 21
148.93100000000001
 31
0.0
  0
LINE
  5
197
  8
_________2
 62
     7
 10
81.679900000000004
 20
51.324300000000001
 30
0.0
 11
79.493700000000004
 21
51.324300000000001
 31
0.0
  0
LINE
  5
198
  8
_________2
 62
     7
 10
82.172600000000017
 20
51.324300000000001
 30
0.0
 11
81.920400000000001
 21
51.324300000000001
 31
0.0
  0
LINE
  5
199
  8
_________2
 62
     7
 10
82.665199999999984
 20
51.324300000000001
 30
0.0
 11
85.590100000000007
 21
51.324300000000001
 31
0.0
  0
LINE
  5
19A
  8
_________2
 62
     7
 10
82.172600000000017
 20
51.324300000000001
 30
0.0
 11
82.424800000000005
 21
51.324300000000001
 31
0.0
  0
LINE
  5
19B
  8
_________2
 62
     7
 10
75.776399999999995
 20
51.324300000000001
 30
0.0
 11
73.589399999999998
 21
51.324300000000001
 31
0.0
  0
LINE
  5
19C
  8
_________2
 62
     7
 10
76.2684
 20
51.324300000000001
 30
0.0
 11
76.016900000000007
 21
51.324300000000001
 31
0.0
  0
LINE
  5
19D
  8
_________2
 62
     7
 10
76.2684
 20
51.817
 30
0.0
 11
76.2684
 21
54.003900000000002
 31
0.0
  0
LINE
  5
19E
  8
_________2
 62
     7
 10
76.2684
 20
51.324300000000001
 30
0.0
 11
76.2684
 21
51.576500000000003
 31
0.0
  0
LINE
  5
19F
  8
_________2
 62
     7
 10
76.76100000000001
 20
51.324300000000001
 30
0.0
 11
78.947999999999993
 21
51.324300000000001
 31
0.0
  0
LINE
  5
1A0
  8
_________2
 62
     7
 10
76.2684
 20
51.324300000000001
 30
0.0
 11
76.520499999999998
 21
51.324300000000001
 31
0.0
  0
LINE
  5
1A1
  8
_________2
 62
     7
 10
76.2684
 20
50.832399999999993
 30
0.0
 11
76.2684
 21
48.645400000000002
 31
0.0
  0
LINE
  5
1A2
  8
_________2
 62
     7
 10
76.2684
 20
51.324300000000001
 30
0.0
 11
76.2684
 21
51.072800000000001
 31
0.0
  0
LINE
  5
1A3
  8
_________2
 62
     7
 10
79.979399999999984
 20
50.104799999999997
 30
0.0
 11
85.157399999999996
 21
49.240000000000002
 31
0.0
  0
LINE
  5
1A4
  8
_________2
 62
     7
 10
79.979399999999984
 20
52.543900000000001
 30
0.0
 11
85.157399999999996
 21
53.409300000000002
 31
0.0
  0
LINE
  5
1A5
  8
_________2
 62
     7
 10
85.157399999999996
 20
49.240000000000002
 30
0.0
 11
85.157399999999996
 21
53.409300000000002
 31
0.0
  0
LINE
  5
1A6
  8
_________2
 62
     7
 10
79.979399999999984
 20
50.104799999999997
 30
0.0
 11
79.979399999999984
 21
52.543900000000001
 31
0.0
  0
ARC
  5
1A7
  8
_________2
 62
     7
 10
76.222110000000001
 20
51.277366999999991
 30
0.0
 40
1.2673709999999989
 50
2.1232950000000002
 51
87.909056000000007
  0
ARC
  5
1A8
  8
_________2
 62
     7
 10
76.315273000000005
 20
51.277400999999998
 30
0.0
 40
1.267363
 50
92.121785999999986
 51
177.878185
  0
ARC
  5
1A9
  8
_________2
 62
     7
 10
76.315273000000005
 20
51.371245999999992
 30
0.0
 40
1.267363
 50
182.12181499999991
 51
267.87821400000001
  0
ARC
  5
1AA
  8
_________2
 62
     7
 10
76.221461000000005
 20
51.371928999999987
 30
0.0
 40
1.2680439999999991
 50
272.11916400000001
 51
357.84848499999993
  0
ARC
  5
1AB
  8
_________2
 62
     7
 10
76.268349999999984
 20
51.324323
 30
0.0
 40
2.0849849999999992
 50
0.00001
 51
89.999980000000008
  0
ARC
  5
1AC
  8
_________2
 62
     7
 10
76.348388
 20
51.245001999999992
 30
0.0
 40
2.1657860000000002
 50
92.117855000000034
 51
177.90105299999991
  0
ARC
  5
1AD
  8
_________2
 62
     7
 10
76.348354
 20
51.404327000000002
 30
0.0
 40
2.1657779999999991
 50
182.11700400000001
 51
267.88302499999992
  0
ARC
  5
1AE
  8
_________2
 62
     7
 10
76.188378999999983
 20
51.405009999999997
 30
0.0
 40
2.1664590000000001
 50
272.11546800000002
 51
357.86560400000002
  0
TEXT
  5
1AF
  8
_________2
 62
     7
 10
109.5439999999999
 20
23.199100000000001
 30
0.0
 40
3.0923400000000001
  1
図番
 41
0.5
  0
LINE
  5
1B0
  8
_________2
 62
     7
 10
108.4889999999999
 20
27.4283
 30
0.0
 11
188.49000000000001
 21
27.4283
 31
0.0
  0
TEXT
  5
1B1
  8
_________2
 62
     7
 10
109.5439999999999
 20
33.198900000000002
 30
0.0
 40
3.0923400000000001
  1
品番
 41
0.5
  0
TEXT
  5
1B2
  8
_________2
 62
     7
 10
109.5439999999999
 20
53.337699999999998
 30
0.0
 40
3.0923400000000001
  1
名称
 41
0.5
  0
TEXT
  5
1B3
  8
_________2
 62
     7
 10
96.784058333333334
 20
48.341500000000011
 30
0.0
 40
3.6545800000000002
  1
mm
 41
0.5
 72
     1
 11
98.306799999999996
 21
48.341500000000011
 31
0.0
  0
TEXT
  5
1B4
  8
_________2
 62
     7
 10
90.582099999999997
 20
53.337699999999998
 30
0.0
 40
3.0923400000000001
  1
単位
 41
0.5
  0
TEXT
  5
1B5
  8
_________2
 62
     7
 10
90.582099999999997
 20
40.930399999999999
 30
0.0
 40
3.0923400000000001
  1
尺度
 41
0.5
  0
TEXT
  5
1B6
  8
_________2
 62
     7
 10
94.878562000000016
 20
34.73749999999999
 30
0.0
 40
3.6545800000000002
  1
1 ： 12
 41
0.5
 72
     1
 11
98.898600000000002
 21
34.73749999999999
 31
0.0
  0
TEXT
  5
1B7
  8
_________2
 62
     7
 10
137.66582500000001
 20
30.627400000000002
 30
0.0
 40
3.9357000000000002
  1
DV032910N-00
 41
0.5
 72
     1
 11
148.489
 21
30.627400000000002
 31
0.0
  0
TEXT
  5
1B8
  8
_________2
 62
     7
 10
140.28962499999989
 20
20.626999999999988
 30
0.0
 40
3.9357000000000002
  1
DV032910N
 41
0.5
 72
     1
 11
148.489
 21
20.626999999999988
 31
0.0
  0
TEXT
  5
1B9
  8
_________2
 62
     7
 10
25.3642
 20
61.0092
 30
0.0
 40
4.2168199999999993
  1
※壁取付部には厚さ30mm以上の補強木を入れてください。
 41
0.5
  0
TEXT
  5
1BA
  8
_________2
 62
     7
 10
114.11799999999999
 20
45.7453
 30
0.0
 40
3.9357000000000002
  1
ヴェーロ　洗面器
 41
0.5
  0
TEXT
  5
1BB
  8
_________2
 62
     7
 10
44.303290666666669
 20
35.122599999999991
 30
0.0
 40
3.6545800000000002
  1
石原
 41
0.5
 72
     1
 11
46.252400000000002
 21
35.122599999999991
 31
0.0
  0
TEXT
  5
1BC
  8
_________2
 62
     7
 10
25.729290666666671
 20
35.122599999999991
 30
0.0
 40
3.6545800000000002
  1
菅原
 41
0.5
 72
     1
 11
27.6784
 21
35.122599999999991
 31
0.0
  0
TEXT
  5
1BD
  8
_________2
 62
     7
 10
72.724699999999999
 20
34.73749999999999
 30
0.0
 40
3.6545800000000002
  1
11.11.07
 41
0.5
  0
TEXT
  5
1BE
  8
_________2
 62
     7
 10
71.531999999999996
 20
40.930399999999999
 30
0.0
 40
3.0923400000000001
  1
日付
 41
0.5
  0
TEXT
  5
1BF
  8
_________2
 62
     7
 10
34.578299999999992
 20
40.930399999999999
 30
0.0
 40
3.0923400000000001
  1
検図
 41
0.5
  0
TEXT
  5
1C0
  8
_________2
 62
     7
 10
22.960000000000001
 20
26.730999999999991
 30
0.0
 40
3.0923400000000001
  1
備考
 41
0.5
  0
TEXT
  5
1C1
  8
_________2
 62
     7
 10
22.960000000000001
 20
40.930399999999999
 30
0.0
 40
3.0923400000000001
  1
製図
 41
0.5
  0
TEXT
  5
1C2
  8
_________2
 62
     7
 10
28.727365333333339
 20
49.456400000000002
 30
0.0
 40
4.4979399999999989
  1
セラトレーディング株式会社
 41
0.5
 72
     1
 11
46.119399999999992
 21
49.456400000000002
 31
0.0
  0
LINE
  5
1C3
  8
_________2
 62
     7
 10
188.49000000000001
 20
17.428499999999989
 30
0.0
 11
21.988499999999991
 21
17.428499999999989
 31
0.0
  0
LINE
  5
1C4
  8
_________2
 62
     7
 10
21.988499999999991
 20
17.428499999999989
 30
0.0
 11
21.988499999999991
 21
280.42999999999989
 31
0.0
  0
LINE
  5
1C5
  8
_________2
 62
     7
 10
21.988499999999991
 20
280.42999999999989
 30
0.0
 11
188.49000000000001
 21
280.42999999999989
 31
0.0
  0
LINE
  5
1C6
  8
_________2
 62
     7
 10
188.49000000000001
 20
280.42999999999989
 30
0.0
 11
188.49000000000001
 21
17.428499999999989
 31
0.0
  0
LINE
  5
1C7
  8
_________2
 62
     7
 10
70.488799999999998
 20
30.9285
 30
0.0
 11
70.488799999999998
 21
57.428400000000011
 31
0.0
  0
LINE
  5
1C8
  8
_________2
 62
     7
 10
89.488600000000005
 20
30.9285
 30
0.0
 11
89.488600000000005
 21
57.428400000000011
 31
0.0
  0
LINE
  5
1C9
  8
_________2
 62
     7
 10
108.4889999999999
 20
17.428499999999989
 30
0.0
 11
108.4889999999999
 21
57.428400000000011
 31
0.0
  0
LINE
  5
1CA
  8
_________2
 62
     7
 10
33.488300000000002
 20
30.9285
 30
0.0
 11
33.488300000000002
 21
44.928800000000003
 31
0.0
  0
LINE
  5
1CB
  8
_________2
 62
     7
 10
21.988499999999991
 20
30.9285
 30
0.0
 11
108.4889999999999
 21
30.9285
 31
0.0
  0
LINE
  5
1CC
  8
_________2
 62
     7
 10
21.988499999999991
 20
44.928800000000003
 30
0.0
 11
108.4889999999999
 21
44.928800000000003
 31
0.0
  0
LINE
  5
1CD
  8
_________2
 62
     7
 10
108.4889999999999
 20
37.428100000000001
 30
0.0
 11
188.49000000000001
 21
37.428100000000001
 31
0.0
  0
LINE
  5
1CE
  8
_________2
 62
     7
 10
21.988499999999991
 20
57.428400000000011
 30
0.0
 11
188.49000000000001
 21
57.428400000000011
 31
0.0
  0
ENDSEC
  0
EOF
