  0
SECTION
  2
HEADER
  9
$ACADVER
  1
AC1009
  9
$INSBASE
 10
0.0
 20
0.0
 30
0.0
  9
$EXTMIN
 10
-4.70052
 20
-21.071400000000001
 30
0.0
  9
$EXTMAX
 10
205.30099999999999
 20
275.93099999999993
 30
0.0
  9
$LIMMIN
 10
0.0
 20
0.0
  9
$LIMMAX
 10
12.0
 20
9.0
  9
$ORTHOMODE
 70
     0
  9
$REGENMODE
 70
     1
  9
$FILLMODE
 70
     1
  9
$QTEXTMODE
 70
     0
  9
$MIRRTEXT
 70
     1
  9
$DRAGMODE
 70
     2
  9
$LTSCALE
 40
1.0
  9
$OSMODE
 70
    37
  9
$ATTMODE
 70
     1
  9
$TEXTSIZE
 40
0.0
  9
$TRACEWID
 40
0.05
  9
$TEXTSTYLE
  7
STANDARD
  9
$CLAYER
  8
0
  9
$CELTYPE
  6
CONTINUOUS
  9
$CECOLOR
 62
   256
  9
$DIMSCALE
 40
1.0
  9
$DIMASZ
 40
0.18
  9
$DIMEXO
 40
0.0625
  9
$DIMDLI
 40
0.38
  9
$DIMRND
 40
0.0
  9
$DIMDLE
 40
0.0
  9
$DIMEXE
 40
0.18
  9
$DIMTP
 40
0.0
  9
$DIMTM
 40
0.0
  9
$DIMTXT
 40
0.18
  9
$DIMCEN
 40
0.09
  9
$DIMTSZ
 40
0.0
  9
$DIMTOL
 70
     0
  9
$DIMLIM
 70
     0
  9
$DIMTIH
 70
     1
  9
$DIMTOH
 70
     1
  9
$DIMSE1
 70
     0
  9
$DIMSE2
 70
     0
  9
$DIMTAD
 70
     0
  9
$DIMZIN
 70
     0
  9
$DIMBLK
  1

  9
$DIMASO
 70
     1
  9
$DIMSHO
 70
     1
  9
$DIMPOST
  1

  9
$DIMAPOST
  1

  9
$DIMALT
 70
     0
  9
$DIMALTD
 70
     2
  9
$DIMALTF
 40
25.399999999999999
  9
$DIMLFAC
 40
1.0
  9
$DIMTOFL
 70
     0
  9
$DIMTVP
 40
0.0
  9
$DIMTIX
 70
     0
  9
$DIMSOXD
 70
     0
  9
$DIMSAH
 70
     0
  9
$DIMBLK1
  1

  9
$DIMBLK2
  1

  9
$DIMSTYLE
  2
STANDARD
  9
$DIMCLRD
 70
     0
  9
$DIMCLRE
 70
     0
  9
$DIMCLRT
 70
     0
  9
$DIMTFAC
 40
1.0
  9
$DIMGAP
 40
0.09
  9
$LUNITS
 70
     2
  9
$LUPREC
 70
     4
  9
$SKETCHINC
 40
0.1
  9
$FILLETRAD
 40
0.0
  9
$AUNITS
 70
     0
  9
$AUPREC
 70
     0
  9
$MENU
  1
.
  9
$ELEVATION
 40
0.0
  9
$PELEVATION
 40
0.0
  9
$THICKNESS
 40
0.0
  9
$LIMCHECK
 70
     0
  9
$BLIPMODE
 70
     0
  9
$CHAMFERA
 40
0.0
  9
$CHAMFERB
 40
0.0
  9
$SKPOLY
 70
     0
  9
$TDCREATE
 40
2444972.375
  9
$TDUPDATE
 40
2454590.281560509
  9
$TDINDWG
 40
0.0000076042
  9
$TDUSRTIMER
 40
0.0000076042
  9
$USRTIMER
 70
     1
  9
$ANGBASE
 50
0.0
  9
$ANGDIR
 70
     0
  9
$PDMODE
 70
     0
  9
$PDSIZE
 40
0.0
  9
$PLINEWID
 40
0.0
  9
$COORDS
 70
     1
  9
$SPLFRAME
 70
     0
  9
$SPLINETYPE
 70
     6
  9
$SPLINESEGS
 70
     8
  9
$ATTDIA
 70
     0
  9
$ATTREQ
 70
     1
  9
$HANDLING
 70
     1
  9
$HANDSEED
  5
1FF
  9
$SURFTAB1
 70
     6
  9
$SURFTAB2
 70
     6
  9
$SURFTYPE
 70
     6
  9
$SURFU
 70
     6
  9
$SURFV
 70
     6
  9
$UCSNAME
  2

  9
$UCSORG
 10
0.0
 20
0.0
 30
0.0
  9
$UCSXDIR
 10
1.0
 20
0.0
 30
0.0
  9
$UCSYDIR
 10
0.0
 20
1.0
 30
0.0
  9
$PUCSNAME
  2

  9
$PUCSORG
 10
0.0
 20
0.0
 30
0.0
  9
$PUCSXDIR
 10
1.0
 20
0.0
 30
0.0
  9
$PUCSYDIR
 10
0.0
 20
1.0
 30
0.0
  9
$USERI1
 70
     0
  9
$USERI2
 70
     0
  9
$USERI3
 70
     0
  9
$USERI4
 70
     0
  9
$USERI5
 70
     0
  9
$USERR1
 40
0.0
  9
$USERR2
 40
0.0
  9
$USERR3
 40
0.0
  9
$USERR4
 40
0.0
  9
$USERR5
 40
0.0
  9
$WORLDVIEW
 70
     1
  9
$SHADEDGE
 70
     3
  9
$SHADEDIF
 70
    70
  9
$TILEMODE
 70
     1
  9
$MAXACTVP
 70
    48
  9
$PLIMCHECK
 70
     0
  9
$PEXTMIN
 10
1.0000000000000000E+020
 20
1.0000000000000000E+020
 30
1.0000000000000000E+020
  9
$PEXTMAX
 10
-1.0000000000000000E+020
 20
-1.0000000000000000E+020
 30
-1.0000000000000000E+020
  9
$PLIMMIN
 10
0.0
 20
0.0
  9
$PLIMMAX
 10
12.0
 20
9.0
  9
$UNITMODE
 70
     0
  9
$VISRETAIN
 70
     1
  9
$PLINEGEN
 70
     0
  9
$PSLTSCALE
 70
     1
  0
ENDSEC
  0
SECTION
  2
TABLES
  0
TABLE
  2
VPORT
 70
     2
  0
VPORT
  2
*ACTIVE
 70
     0
 10
0.0
 20
0.0
 11
1.0
 21
1.0
 12
195.35172167095331
 22
127.4297999999999
 13
0.0
 23
0.0
 14
1.0
 24
1.0
 15
0.0
 25
0.0
 16
0.0
 26
0.0
 36
1.0
 17
0.0
 27
0.0
 37
0.0
 40
299.3410015748031
 41
2.2894736842105261
 42
50.0
 43
0.0
 44
0.0
 50
0.0
 51
0.0
 71
     0
 72
   100
 73
     1
 74
     1
 75
     0
 76
     0
 77
     0
 78
     0
  0
ENDTAB
  0
TABLE
  2
LTYPE
 70
     4
  0
LTYPE
  2
CONTINUOUS
 70
     0
  3
Solid line
 72
    65
 73
     0
 40
0.0
  0
LTYPE
  2
AIGENLINE001
 70
     0
  3
generate AI->DXF Converter
 72
    65
 73
     4
 40
5.8561449999999988
 49
3.5278
 49
-0.776115
 49
0.776115
 49
-0.776115
  0
LTYPE
  2
AIGENLINE002
 70
     0
  3
generate AI->DXF Converter
 72
    65
 73
     2
 40
1.5522299999999991
 49
0.776115
 49
-0.776115
  0
LTYPE
  2
AIGENLINE003
 70
     0
  3
generate AI->DXF Converter
 72
    65
 73
     6
 40
7.4083750000000004
 49
3.5278
 49
-0.776115
 49
0.776115
 49
-0.776115
 49
0.776115
 49
-0.776115
  0
ENDTAB
  0
TABLE
  2
LAYER
 70
     2
  0
LAYER
  2
0
 70
     0
 62
     7
  6
CONTINUOUS
  0
LAYER
  2
_________2
 70
     0
 62
     7
  6
CONTINUOUS
  0
ENDTAB
  0
TABLE
  2
STYLE
 70
     1
  0
STYLE
  2
STANDARD
 70
     0
 40
0.0
 41
0.0
 50
0.0
 71
     0
 42
0.0
  3
TXT
  4
EXTFONT.SHX
  0
ENDTAB
  0
TABLE
  2
VIEW
 70
     0
  0
ENDTAB
  0
TABLE
  2
UCS
 70
     0
  0
ENDTAB
  0
TABLE
  2
APPID
 70
     1
  0
APPID
  2
ACAD
 70
     0
  0
ENDTAB
  0
TABLE
  2
DIMSTYLE
 70
     1
  0
DIMSTYLE
  2
STANDARD
 70
     0
  3

  4

  5

  6

  7

 40
1.0
 41
0.18
 42
0.0625
 43
0.38
 44
0.18
 45
0.0
 46
0.0
 47
0.0
 48
0.0
140
0.18
141
0.09
142
0.0
143
25.399999999999999
144
1.0
145
0.0
146
1.0
147
0.09
 71
     0
 72
     0
 73
     1
 74
     1
 75
     0
 76
     0
 77
     0
 78
     0
170
     0
171
     2
172
     0
173
     0
174
     0
175
     0
176
     0
177
     0
178
     0
  0
ENDTAB
  0
ENDSEC
  0
SECTION
  2
BLOCKS
  0
BLOCK
  8
0
  2
$MODEL_SPACE
 70
     0
 10
0.0
 20
0.0
 30
0.0
  3
$MODEL_SPACE
  1

  0
ENDBLK
  5
1A
  8
0
  0
BLOCK
 67
     1
  8
0
  2
$PAPER_SPACE
 70
     0
 10
0.0
 20
0.0
 30
0.0
  3
$PAPER_SPACE
  1

  0
ENDBLK
  5
17
 67
     1
  8
0
  0
ENDSEC
  0
SECTION
  2
ENTITIES
  0
TEXT
  5
24
  8
0
 62
     7
 10
135.05500000000001
 20
55.740600000000001
 30
0.0
 40
3.0923400000000001
  1
〈付属品〉
 41
0.5
  0
TEXT
  5
25
  8
0
 62
     7
 10
135.05500000000001
 20
51.8752
 30
0.0
 40
3.0923400000000001
  1
洗面器固定金具×4
 41
0.5
  0
TEXT
  5
26
  8
0
 62
     7
 10
135.05500000000001
 20
48.009799999999998
 30
0.0
 40
3.0923400000000001
  1
%%c5×25SUSねじ付
 41
0.5
  0
TEXT
  5
27
  8
0
 62
     7
 10
135.05500000000001
 20
44.14439999999999
 30
0.0
 40
3.0923400000000001
  1
（尺度 1：3）
 41
0.5
  0
TEXT
  5
28
  8
0
 62
     7
 10
156.3755249999999
 20
97.024500000000003
 30
0.0
 40
3.0923400000000001
  1
%%c7
 41
0.5
 72
     1
 11
157.6639999999999
 21
97.024500000000003
 31
0.0
  0
TEXT
  5
29
  8
0
 62
     7
 10
140.9705249999999
 20
78.444599999999994
 30
0.0
 40
3.0923400000000001
  1
34
 41
0.5
 72
     1
 11
142.2589999999999
 21
78.444599999999994
 31
0.0
  0
TEXT
  5
2A
  8
0
 62
     7
 10
145.908525
 20
72.329899999999995
 30
0.0
 40
3.0923400000000001
  1
64
 41
0.5
 72
     1
 11
147.19699999999989
 21
72.329899999999995
 31
0.0
  0
TEXT
  5
2B
  8
0
 62
     7
 10
151.8003724999999
 20
78.444599999999994
 30
0.0
 40
3.0923400000000001
  1
30
 41
0.5
 72
     1
 11
152.96000000000001
 21
78.444599999999994
 31
0.0
  0
TEXT
  5
2C
  8
0
 62
     7
 10
166.80500000000001
 20
87.498072500000006
 30
0.0
 40
3.0923400000000001
  1
30
 50
90.0
 41
0.5
 72
     1
 11
166.80500000000001
 21
88.657700000000006
 31
0.0
  0
TEXT
  5
2D
  8
0
 62
     7
 10
123.7632875
 20
202.65899999999999
 30
0.0
 40
3.0923400000000001
  1
R20
 41
0.5
 72
     1
 11
125.696
 21
202.65899999999999
 31
0.0
  0
TEXT
  5
2E
  8
0
 62
     7
 10
125.5982875
 20
221.59599999999989
 30
0.0
 40
3.0923400000000001
  1
R20
 41
0.5
 72
     1
 11
127.53100000000001
 21
221.59599999999989
 31
0.0
  0
TEXT
  5
2F
  8
0
 62
     7
 10
107.1779999999999
 20
161.18700000000001
 30
0.0
 40
3.0923400000000001
  1
（t24～30）
 41
0.5
  0
TEXT
  5
30
  8
0
 62
     7
 10
107.1779999999999
 20
165.46899999999999
 30
0.0
 40
3.0923400000000001
  1
カウンター裏補強木
 41
0.5
  0
TEXT
  5
31
  8
0
 62
     7
 10
112.422483
 20
170.92699999999999
 30
0.0
 40
3.0923400000000001
  1
洗面器固定用
 41
0.5
 72
     1
 11
117.73099999999999
 21
170.92699999999999
 31
0.0
  0
TEXT
  5
32
  8
0
 62
     7
 10
132.38875999999991
 20
180.63999999999999
 30
0.0
 40
3.0923400000000001
  1
カウンター切込寸法
 41
0.5
 72
     1
 11
140.63499999999991
 21
180.63999999999999
 31
0.0
  0
TEXT
  5
33
  8
0
 62
     7
 10
138.57344000000001
 20
189.792
 30
0.0
 40
3.0923400000000001
  1
465
 41
0.5
 72
     1
 11
140.63499999999991
 21
189.792
 31
0.0
  0
TEXT
  5
34
  8
0
 62
     7
 10
35.389272499999997
 20
177.69200000000001
 30
0.0
 40
3.0923400000000001
  1
20
 41
0.5
 72
     1
 11
36.548900000000003
 21
177.69200000000001
 31
0.0
  0
TEXT
  5
35
  8
0
 62
     7
 10
96.946972500000001
 20
177.69200000000001
 30
0.0
 40
3.0923400000000001
  1
20
 41
0.5
 72
     1
 11
98.1066
 21
177.69200000000001
 31
0.0
  0
TEXT
  5
36
  8
0
 62
     7
 10
152.91637249999999
 20
111.8989999999999
 30
0.0
 40
3.0923400000000001
  1
90
 41
0.5
 72
     1
 11
154.07599999999991
 21
111.8989999999999
 31
0.0
  0
TEXT
  5
37
  8
0
 62
     7
 10
65.113787500000001
 20
170.9129999999999
 30
0.0
 40
3.0923400000000001
  1
520
 41
0.5
 72
     1
 11
67.046499999999995
 21
170.9129999999999
 31
0.0
  0
TEXT
  5
38
  8
0
 62
     7
 10
65.113787500000001
 20
177.81
 30
0.0
 40
3.0923400000000001
  1
480
 41
0.5
 72
     1
 11
67.046499999999995
 21
177.81
 31
0.0
  0
TEXT
  5
39
  8
0
 62
     7
 10
65.886872499999996
 20
185.64899999999989
 30
0.0
 40
3.0923400000000001
  1
60
 41
0.5
 72
     1
 11
67.046499999999995
 21
185.64899999999989
 31
0.0
  0
TEXT
  5
3A
  8
0
 62
     7
 10
150.33799999999991
 20
215.04743999999991
 30
0.0
 40
3.0923400000000001
  1
295
 50
90.0
 41
0.5
 72
     1
 11
150.33799999999991
 21
217.1089999999999
 31
0.0
  0
TEXT
  5
3B
  8
0
 62
     7
 10
152.4762874999999
 20
237.23699999999999
 30
0.0
 40
3.0923400000000001
  1
270
 41
0.5
 72
     1
 11
154.40899999999991
 21
237.23699999999999
 31
0.0
  0
TEXT
  5
3C
  8
0
 62
     7
 10
125.5782875
 20
237.23699999999999
 30
0.0
 40
3.0923400000000001
  1
270
 41
0.5
 72
     1
 11
127.511
 21
237.23699999999999
 31
0.0
  0
TEXT
  5
3D
  8
0
 62
     7
 10
166.9574294999999
 20
237.8249999999999
 30
0.0
 40
3.0923400000000001
  1
50以上
 41
0.5
 72
     1
 11
170.02399999999989
 21
237.8249999999999
 31
0.0
  0
TEXT
  5
3E
  8
0
 62
     7
 10
108.0674295
 20
237.8249999999999
 30
0.0
 40
3.0923400000000001
  1
50以上
 41
0.5
 72
     1
 11
111.1339999999999
 21
237.8249999999999
 31
0.0
  0
TEXT
  5
3F
  8
0
 62
     7
 10
73.624939999999995
 20
216.74700000000001
 30
0.0
 40
3.0923400000000001
  1
%%c46
 41
0.5
 72
     1
 11
75.686499999999995
 21
216.74700000000001
 31
0.0
  0
TEXT
  5
40
  8
0
 62
     7
 10
33.857599999999991
 20
188.25937250000001
 30
0.0
 40
3.0923400000000001
  1
20
 50
90.0
 41
0.5
 72
     1
 11
33.857599999999991
 21
189.41900000000001
 31
0.0
  0
TEXT
  5
41
  8
0
 62
     7
 10
33.857599999999991
 20
233.60837249999989
 30
0.0
 40
3.0923400000000001
  1
20
 50
90.0
 41
0.5
 72
     1
 11
33.857599999999991
 21
234.76799999999989
 31
0.0
  0
TEXT
  5
42
  8
0
 62
     7
 10
114.65000000000001
 20
124.6959825
 30
0.0
 40
3.0923400000000001
  1
160
 50
90.0
 41
0.5
 72
     1
 11
114.65000000000001
 21
126.371
 31
0.0
  0
TEXT
  5
43
  8
0
 62
     7
 10
25.679899999999989
 20
124.6959825
 30
0.0
 40
3.0923400000000001
  1
160
 50
90.0
 41
0.5
 72
     1
 11
25.679899999999989
 21
126.371
 31
0.0
  0
TEXT
  5
44
  8
0
 62
     7
 10
32.971200000000003
 20
130.8465249999999
 30
0.0
 40
3.0923400000000001
  1
35
 50
90.0
 41
0.5
 72
     1
 11
32.971200000000003
 21
132.13499999999999
 31
0.0
  0
TEXT
  5
45
  8
0
 62
     7
 10
27.984999999999999
 20
209.7732874999999
 30
0.0
 40
3.0923400000000001
  1
350
 50
90.0
 41
0.5
 72
     1
 11
27.984999999999999
 21
211.7059999999999
 31
0.0
  0
TEXT
  5
46
  8
0
 62
     7
 10
33.857599999999991
 20
210.33098249999989
 30
0.0
 40
3.0923400000000001
  1
310
 50
90.0
 41
0.5
 72
     1
 11
33.857599999999991
 21
212.00599999999989
 31
0.0
  0
TEXT
  5
47
  8
0
 62
     7
 10
57.396700000000003
 20
186.94821999999999
 30
0.0
 40
3.0923400000000001
  1
15
 50
90.0
 41
0.5
 72
     1
 11
57.396700000000003
 21
187.97900000000001
 31
0.0
  0
TEXT
  5
48
  8
0
 62
     7
 10
98.310199999999995
 20
224.03037249999991
 30
0.0
 40
3.0923400000000001
  1
90
 50
90.0
 41
0.5
 72
     1
 11
98.310199999999995
 21
225.19
 31
0.0
  0
LINE
  5
49
  8
0
 62
     7
 10
149.6989999999999
 20
91.353099999999998
 30
0.0
 11
148.554
 21
89.370500000000007
 31
0.0
  0
LINE
  5
4A
  8
0
 62
     7
 10
148.554
 20
89.370500000000007
 30
0.0
 11
150.53700000000001
 21
90.514899999999983
 31
0.0
  0
LINE
  5
4B
  8
0
 62
     7
 10
150.53700000000001
 20
90.514899999999983
 30
0.0
 11
149.6989999999999
 21
91.353099999999998
 31
0.0
  0
LINE
  5
4C
  8
0
 62
     7
 10
145.76400000000001
 20
85.752099999999999
 30
0.0
 11
146.9079999999999
 21
87.734700000000004
 31
0.0
  0
LINE
  5
4D
  8
0
 62
     7
 10
146.9079999999999
 20
87.734700000000004
 30
0.0
 11
144.92500000000001
 21
86.590299999999985
 31
0.0
  0
LINE
  5
4E
  8
0
 62
     7
 10
144.92500000000001
 20
86.590299999999985
 30
0.0
 11
145.76400000000001
 21
85.752099999999999
 31
0.0
  0
LINE
  5
4F
  8
0
 62
     7
 10
143.934
 20
84.750600000000006
 30
0.0
 11
155.04300000000001
 21
95.859399999999994
 31
0.0
  0
LINE
  5
50
  8
0
 62
     7
 10
149.94499999999991
 20
78.0929
 30
0.0
 11
147.73400000000001
 21
77.500299999999996
 31
0.0
  0
LINE
  5
51
  8
0
 62
     7
 10
147.73400000000001
 20
77.500299999999996
 30
0.0
 11
149.94499999999991
 21
76.907799999999995
 31
0.0
  0
LINE
  5
52
  8
0
 62
     7
 10
149.94499999999991
 20
76.907799999999995
 30
0.0
 11
149.94499999999991
 21
78.0929
 31
0.0
  0
LINE
  5
53
  8
0
 62
     7
 10
138.61199999999999
 20
78.0929
 30
0.0
 11
136.40000000000001
 21
77.500299999999996
 31
0.0
  0
LINE
  5
54
  8
0
 62
     7
 10
136.40000000000001
 20
77.500299999999996
 30
0.0
 11
138.61199999999999
 21
76.907799999999995
 31
0.0
  0
LINE
  5
55
  8
0
 62
     7
 10
138.61199999999999
 20
76.907799999999995
 30
0.0
 11
138.61199999999999
 21
78.0929
 31
0.0
  0
LINE
  5
56
  8
0
 62
     7
 10
145.52199999999999
 20
76.907799999999995
 30
0.0
 11
147.73400000000001
 21
77.500299999999996
 31
0.0
  0
LINE
  5
57
  8
0
 62
     7
 10
147.73400000000001
 20
77.500299999999996
 30
0.0
 11
145.52199999999999
 21
78.0929
 31
0.0
  0
LINE
  5
58
  8
0
 62
     7
 10
145.52199999999999
 20
78.0929
 30
0.0
 11
145.52199999999999
 21
76.907799999999995
 31
0.0
  0
LINE
  5
59
  8
0
 62
     7
 10
155.52299999999991
 20
76.922200000000004
 30
0.0
 11
157.73400000000001
 21
77.514799999999994
 31
0.0
  0
LINE
  5
5A
  8
0
 62
     7
 10
157.73400000000001
 20
77.514799999999994
 30
0.0
 11
155.52299999999991
 21
78.107399999999998
 31
0.0
  0
LINE
  5
5B
  8
0
 62
     7
 10
155.52299999999991
 20
78.107399999999998
 30
0.0
 11
155.52299999999991
 21
76.922200000000004
 31
0.0
  0
LINE
  5
5C
  8
0
 62
     7
 10
136.40000000000001
 20
77.500299999999996
 30
0.0
 11
157.73400000000001
 21
77.500299999999996
 31
0.0
  0
LINE
  5
5D
  8
0
 62
     7
 10
138.61199999999999
 20
72.085599999999999
 30
0.0
 11
136.40000000000001
 21
71.493099999999984
 31
0.0
  0
LINE
  5
5E
  8
0
 62
     7
 10
136.40000000000001
 20
71.493099999999984
 30
0.0
 11
138.61199999999999
 21
70.900499999999994
 31
0.0
  0
LINE
  5
5F
  8
0
 62
     7
 10
138.61199999999999
 20
70.900499999999994
 30
0.0
 11
138.61199999999999
 21
72.085599999999999
 31
0.0
  0
LINE
  5
60
  8
0
 62
     7
 10
155.52299999999991
 20
70.915000000000006
 30
0.0
 11
157.73400000000001
 21
71.507499999999993
 31
0.0
  0
LINE
  5
61
  8
0
 62
     7
 10
157.73400000000001
 20
71.507499999999993
 30
0.0
 11
155.52299999999991
 21
72.100099999999998
 31
0.0
  0
LINE
  5
62
  8
0
 62
     7
 10
155.52299999999991
 20
72.100099999999998
 30
0.0
 11
155.52299999999991
 21
70.915000000000006
 31
0.0
  0
LINE
  5
63
  8
0
 62
     7
 10
136.40000000000001
 20
71.493099999999984
 30
0.0
 11
157.73400000000001
 21
71.493099999999984
 31
0.0
  0
LINE
  5
64
  8
0
 62
     7
 10
168.33799999999991
 20
91.338699999999989
 30
0.0
 11
167.745
 21
93.5501
 31
0.0
  0
LINE
  5
65
  8
0
 62
     7
 10
167.745
 20
93.5501
 30
0.0
 11
167.15299999999991
 21
91.338699999999989
 31
0.0
  0
LINE
  5
66
  8
0
 62
     7
 10
167.15299999999991
 20
91.338699999999989
 30
0.0
 11
168.33799999999991
 21
91.338699999999989
 31
0.0
  0
LINE
  5
67
  8
0
 62
     7
 10
167.16699999999989
 20
85.761399999999995
 30
0.0
 11
167.75999999999991
 21
83.549999999999997
 31
0.0
  0
LINE
  5
68
  8
0
 62
     7
 10
167.75999999999991
 20
83.549999999999997
 30
0.0
 11
168.352
 21
85.761399999999995
 31
0.0
  0
LINE
  5
69
  8
0
 62
     7
 10
168.352
 20
85.761399999999995
 30
0.0
 11
167.16699999999989
 21
85.761399999999995
 31
0.0
  0
LINE
  5
6A
  8
0
 62
     7
 10
167.745
 20
93.5501
 30
0.0
 11
167.745
 21
83.549999999999997
 31
0.0
  0
LINE
  5
6B
  8
0
 62
     7
 10
141.73299999999989
 20
63.436999999999998
 30
0.0
 11
144.5379999999999
 21
65.703199999999995
 31
0.0
  0
LINE
  5
6C
  8
0
 62
     7
 10
140.958
 20
63.372199999999999
 30
0.0
 11
136.64500000000001
 21
65.794799999999995
 31
0.0
  0
ARC
  5
6D
  8
0
 62
     7
 10
141.29607799999991
 20
63.99709399999999
 30
0.0
 40
0.710445
 50
241.584688
 51
307.96790299999992
  0
LINE
  5
6E
  8
0
 62
     7
 10
142.05899999999991
 20
63.05769999999999
 30
0.0
 11
144.88
 21
65.335999999999984
 31
0.0
  0
LINE
  5
6F
  8
0
 62
     7
 10
140.6999999999999
 20
62.9437
 30
0.0
 11
136.40000000000001
 21
65.359399999999994
 31
0.0
  0
ARC
  5
70
  8
0
 62
     7
 10
141.29259400000001
 20
64.038456000000011
 30
0.0
 40
1.244729999999999
 50
241.58647899999991
 51
308.00814600000001
  0
LINE
  5
71
  8
0
 62
     7
 10
145.721
 20
65.5685
 30
0.0
 11
149.81100000000001
 21
64.988699999999994
 31
0.0
  0
ARC
  5
72
  8
0
 62
     7
 10
145.57230799999999
 20
64.46916800000001
 30
0.0
 40
1.1093779999999991
 50
82.285619999999994
 51
128.61731399999999
  0
LINE
  5
73
  8
0
 62
     7
 10
145.82599999999991
 20
66.058700000000002
 30
0.0
 11
149.87799999999999
 21
65.484099999999998
 31
0.0
  0
ARC
  5
74
  8
0
 62
     7
 10
145.59730400000001
 20
64.376941000000002
 30
0.0
 40
1.6972769999999999
 50
82.257712999999995
 51
128.61016100000001
  0
LINE
  5
75
  8
0
 62
     7
 10
150.6879999999999
 20
65.087900000000005
 30
0.0
 11
153.53399999999991
 21
66.176599999999993
 31
0.0
  0
ARC
  5
76
  8
0
 62
     7
 10
150.05651499999991
 20
66.744236999999998
 30
0.0
 40
1.77264
 50
262.03635099999991
 51
290.871239
  0
LINE
  5
77
  8
0
 62
     7
 10
150.51199999999989
 20
65.555800000000005
 30
0.0
 11
153.24700000000001
 21
66.601699999999994
 31
0.0
  0
ARC
  5
78
  8
0
 62
     7
 10
150.0558969999999
 20
66.749601999999996
 30
0.0
 40
1.2778819999999991
 50
262.01804099999998
 51
290.89496400000002
  0
LINE
  5
79
  8
0
 62
     7
 10
154.15700000000001
 20
66.049099999999996
 30
0.0
 11
157.38599999999991
 21
62.923000000000002
 31
0.0
  0
ARC
  5
7A
  8
0
 62
     7
 10
153.74247
 20
65.609930000000006
 30
0.0
 40
0.60363
 50
46.681136000000002
 51
110.1625999999999
  0
LINE
  5
7B
  8
0
 62
     7
 10
154.58799999999991
 20
66.327500000000001
 30
0.0
 11
157.73400000000001
 21
63.282299999999999
 31
0.0
  0
ARC
  5
7C
  8
0
 62
     7
 10
153.695199
 20
65.377631999999991
 30
0.0
 40
1.3035099999999991
 50
46.775235999999992
 51
110.10705400000001
  0
LINE
  5
7D
  8
0
  6
AIGENLINE001
 62
     7
 10
147.73400000000001
 20
90.680999999999983
 30
0.0
 11
147.73400000000001
 21
86.638499999999993
 31
0.0
  0
LINE
  5
7E
  8
0
  6
AIGENLINE001
 62
     7
 10
149.642
 20
88.549800000000005
 30
0.0
 11
145.82699999999991
 21
88.549800000000005
 31
0.0
  0
ARC
  5
7F
  8
0
 62
     7
 10
147.67763899999991
 20
88.505826999999996
 30
0.0
 40
1.212170999999999
 50
2.0812289999999991
 51
87.357792000000003
  0
ARC
  5
80
  8
0
 62
     7
 10
147.7788149999999
 20
88.517370999999983
 30
0.0
 40
1.2001949999999999
 50
92.162887999999995
 51
178.44932
  0
ARC
  5
81
  8
0
 62
     7
 10
147.79005599999991
 20
88.593806999999998
 30
0.0
 40
1.211794
 50
182.07886799999989
 51
267.32584199999991
  0
ARC
  5
82
  8
0
 62
     7
 10
147.68828400000001
 20
88.583683999999991
 30
0.0
 40
1.201203
 50
272.15813799999989
 51
358.38592299999988
  0
LINE
  5
83
  8
0
  6
AIGENLINE001
 62
     7
 10
147.4079999999999
 20
63.488
 30
0.0
 11
148.03399999999991
 21
67.905299999999997
 31
0.0
  0
LINE
  5
84
  8
0
 62
     7
 10
136.64500000000001
 20
93.5501
 30
0.0
 11
136.64500000000001
 21
83.549999999999997
 31
0.0
  0
LINE
  5
85
  8
0
 62
     7
 10
141.40299999999991
 20
93.049899999999994
 30
0.0
 11
141.40299999999991
 21
84.049800000000005
 31
0.0
  0
LINE
  5
86
  8
0
 62
     7
 10
145.21799999999999
 20
93.049899999999994
 30
0.0
 11
145.21799999999999
 21
84.049800000000005
 31
0.0
  0
LINE
  5
87
  8
0
 62
     7
 10
150.1039999999999
 20
93.049899999999994
 30
0.0
 11
150.1039999999999
 21
84.049800000000005
 31
0.0
  0
LINE
  5
88
  8
0
 62
     7
 10
153.733
 20
93.049899999999994
 30
0.0
 11
153.733
 21
84.049800000000005
 31
0.0
  0
LINE
  5
89
  8
0
 62
     7
 10
157.73400000000001
 20
63.282299999999999
 30
0.0
 11
157.38599999999991
 21
62.923000000000002
 31
0.0
  0
LINE
  5
8A
  8
0
 62
     7
 10
136.40000000000001
 20
65.359399999999994
 30
0.0
 11
136.64500000000001
 21
65.794799999999995
 31
0.0
  0
LINE
  5
8B
  8
0
 62
     7
 10
168.727
 20
83.549999999999997
 30
0.0
 11
158.786
 21
83.549999999999997
 31
0.0
  0
LINE
  5
8C
  8
0
 62
     7
 10
159.59999999999999
 20
95.859399999999994
 30
0.0
 11
155.04300000000001
 21
95.859399999999994
 31
0.0
  0
LINE
  5
8D
  8
0
 62
     7
 10
168.727
 20
93.5501
 30
0.0
 11
158.786
 21
93.5501
 31
0.0
  0
LINE
  5
8E
  8
0
 62
     7
 10
157.73400000000001
 20
83.549999999999997
 30
0.0
 11
136.40000000000001
 21
83.549999999999997
 31
0.0
  0
LINE
  5
8F
  8
0
 62
     7
 10
157.73400000000001
 20
93.5501
 30
0.0
 11
136.40000000000001
 21
93.5501
 31
0.0
  0
LINE
  5
90
  8
0
 62
     7
 10
157.73400000000001
 20
82.7607
 30
0.0
 11
157.73400000000001
 21
70.954599999999999
 31
0.0
  0
LINE
  5
91
  8
0
 62
     7
 10
147.73400000000001
 20
85.903299999999987
 30
0.0
 11
147.73400000000001
 21
76.900199999999998
 31
0.0
  0
LINE
  5
92
  8
0
 62
     7
 10
136.40000000000001
 20
82.7607
 30
0.0
 11
136.40000000000001
 21
70.954599999999999
 31
0.0
  0
LINE
  5
93
  8
0
 62
     7
 10
157.73400000000001
 20
93.5501
 30
0.0
 11
157.73400000000001
 21
83.549999999999997
 31
0.0
  0
LINE
  5
94
  8
0
 62
     7
 10
136.40000000000001
 20
93.5501
 30
0.0
 11
136.40000000000001
 21
83.549999999999997
 31
0.0
  0
ARC
  5
95
  8
0
 62
     7
 10
46.345956999999999
 20
199.87554
 30
0.0
 40
0.9999450000000001
 50
179.99996999999991
 51
270.00002000000001
  0
ARC
  5
96
  8
0
 62
     7
 10
46.345956999999999
 20
224.27592799999999
 30
0.0
 40
0.9999450000000001
 50
90.0
 51
179.99996999999991
  0
LINE
  5
97
  8
0
 62
     7
 10
45.345999999999997
 20
224.27600000000001
 30
0.0
 11
45.345999999999997
 21
199.87599999999989
 31
0.0
  0
ARC
  5
98
  8
0
 62
     7
 10
87.746619999999993
 20
199.875541
 30
0.0
 40
0.9999450000000001
 50
270.00002000000001
 51
359.99998999999991
  0
ARC
  5
99
  8
0
 62
     7
 10
87.746619999999993
 20
224.27592799999999
 30
0.0
 40
0.9999450000000001
 50
0.00001
 51
89.999980000000008
  0
ARC
  5
9A
  8
0
 62
     7
 10
161.88494
 20
199.3254419999999
 30
0.0
 40
1.9999769999999999
 50
270.00248699999997
 51
0.002457
  0
ARC
  5
9B
  8
0
 62
     7
 10
119.38476799999989
 20
199.3254409999999
 30
0.0
 40
1.9999759999999991
 50
179.99750299999991
 51
269.99755199999993
  0
ARC
  5
9C
  8
0
 62
     7
 10
161.88494
 20
224.82568199999989
 30
0.0
 40
1.9999769999999999
 50
359.99754300000001
 51
89.997512999999984
  0
ARC
  5
9D
  8
0
 62
     7
 10
119.38476899999991
 20
224.82568199999989
 30
0.0
 40
1.9999769999999999
 50
90.00246700000001
 51
180.002477
  0
LINE
  5
9E
  8
0
 62
     7
 10
156.30299999999991
 20
110.331
 30
0.0
 11
158.51400000000001
 21
110.9229999999999
 31
0.0
  0
LINE
  5
9F
  8
0
 62
     7
 10
158.51400000000001
 20
110.9229999999999
 30
0.0
 11
156.30299999999991
 21
111.515
 31
0.0
  0
LINE
  5
A0
  8
0
 62
     7
 10
156.30299999999991
 20
111.515
 30
0.0
 11
156.30299999999991
 21
110.331
 31
0.0
  0
LINE
  5
A1
  8
0
 62
     7
 10
151.7239999999999
 20
111.501
 30
0.0
 11
149.51400000000001
 21
110.90899999999991
 31
0.0
  0
LINE
  5
A2
  8
0
 62
     7
 10
149.51400000000001
 20
110.90899999999991
 30
0.0
 11
151.7239999999999
 21
110.316
 31
0.0
  0
LINE
  5
A3
  8
0
 62
     7
 10
151.7239999999999
 20
110.316
 30
0.0
 11
151.7239999999999
 21
111.501
 31
0.0
  0
LINE
  5
A4
  8
0
 62
     7
 10
158.51400000000001
 20
110.9159999999999
 30
0.0
 11
149.51400000000001
 21
110.9159999999999
 31
0.0
  0
LINE
  5
A5
  8
0
 62
     7
 10
158.51400000000001
 20
109.9159999999999
 30
0.0
 11
158.51400000000001
 21
131.197
 31
0.0
  0
LINE
  5
A6
  8
0
 62
     7
 10
149.51400000000001
 20
109.9159999999999
 30
0.0
 11
149.51400000000001
 21
116.771
 31
0.0
  0
LINE
  5
A7
  8
0
 62
     7
 10
155.77199999999999
 20
123.82899999999989
 30
0.0
 11
157.21299999999999
 21
131.03700000000001
 31
0.0
  0
LINE
  5
A8
  8
0
 62
     7
 10
127.339
 20
124.45999999999989
 30
0.0
 11
154.19900000000001
 21
122.627
 31
0.0
  0
ARC
  5
A9
  8
0
 62
     7
 10
154.259399
 20
124.177211
 30
0.0
 40
1.551863999999999
 50
267.75563299999988
 51
347.02900399999999
  0
LINE
  5
AA
  8
0
 62
     7
 10
145.51300000000001
 20
118.90600000000001
 30
0.0
 11
145.51300000000001
 21
118.53700000000001
 31
0.0
  0
LINE
  5
AB
  8
0
 62
     7
 10
145.08699999999999
 20
119.40000000000001
 30
0.0
 11
126.172
 21
122.21599999999999
 31
0.0
  0
ARC
  5
AC
  8
0
 62
     7
 10
144.9969649999999
 20
118.8913639999999
 30
0.0
 40
0.5167220000000001
 50
1.6021549999999991
 51
79.967682999999994
  0
LINE
  5
AD
  8
0
 62
     7
 10
123.6539999999999
 20
124.6899999999999
 30
0.0
 11
122.01299999999991
 21
134.53700000000001
 31
0.0
  0
ARC
  5
AE
  8
0
 62
     7
 10
126.684579
 20
125.2553519999999
 30
0.0
 40
3.0827459999999989
 50
190.577393
 51
260.42703699999998
  0
LINE
  5
AF
  8
0
 62
     7
 10
124.8129999999999
 20
131.03700000000001
 30
0.0
 11
125.97499999999989
 21
125.64100000000001
 31
0.0
  0
ARC
  5
B0
  8
0
 62
     7
 10
127.4766419999999
 20
125.996657
 30
0.0
 40
1.542738999999999
 50
193.34121799999991
 51
264.89840099999992
  0
LINE
  5
B1
  8
0
 62
     7
 10
124.01299999999991
 20
131.03700000000001
 30
0.0
 11
123.51299999999991
 21
134.53700000000001
 31
0.0
  0
LINE
  5
B2
  8
0
 62
     7
 10
124.01299999999991
 20
131.03700000000001
 30
0.0
 11
158.01300000000001
 21
131.03700000000001
 31
0.0
  0
LINE
  5
B3
  8
0
 62
     7
 10
153.51300000000001
 20
122.6729999999999
 30
0.0
 11
153.51300000000001
 21
118.53700000000001
 31
0.0
  0
LINE
  5
B4
  8
0
  6
AIGENLINE001
 62
     7
 10
149.51400000000001
 20
124.2739999999999
 30
0.0
 11
149.51400000000001
 21
117.4079999999999
 31
0.0
  0
LINE
  5
B5
  8
0
 62
     7
 10
158.51300000000001
 20
134.53700000000001
 30
0.0
 11
158.01300000000001
 21
131.03700000000001
 31
0.0
  0
LINE
  5
B6
  8
0
 62
     7
 10
145.51300000000001
 20
118.53700000000001
 30
0.0
 11
153.51300000000001
 21
118.53700000000001
 31
0.0
  0
LINE
  5
B7
  8
0
 62
     7
 10
122.01299999999991
 20
134.53700000000001
 30
0.0
 11
158.51300000000001
 21
134.53700000000001
 31
0.0
  0
LINE
  5
B8
  8
0
 62
     7
 10
98.678799999999995
 20
222.78599999999989
 30
0.0
 11
99.270700000000005
 21
220.57599999999999
 31
0.0
  0
LINE
  5
B9
  8
0
 62
     7
 10
99.270700000000005
 20
220.57599999999999
 30
0.0
 11
99.863299999999995
 21
222.78599999999989
 31
0.0
  0
LINE
  5
BA
  8
0
 62
     7
 10
99.863299999999995
 20
222.78599999999989
 30
0.0
 11
98.678799999999995
 21
222.78599999999989
 31
0.0
  0
LINE
  5
BB
  8
0
 62
     7
 10
99.848799999999997
 20
227.3649999999999
 30
0.0
 11
99.256200000000021
 21
229.57599999999999
 31
0.0
  0
LINE
  5
BC
  8
0
 62
     7
 10
99.256200000000021
 20
229.57599999999999
 30
0.0
 11
98.664000000000001
 21
227.3649999999999
 31
0.0
  0
LINE
  5
BD
  8
0
 62
     7
 10
98.664000000000001
 20
227.3649999999999
 30
0.0
 11
99.848799999999997
 21
227.3649999999999
 31
0.0
  0
LINE
  5
BE
  8
0
 62
     7
 10
99.263800000000003
 20
220.57599999999999
 30
0.0
 11
99.263800000000003
 21
229.57599999999999
 31
0.0
  0
LINE
  5
BF
  8
0
 62
     7
 10
91.557399999999987
 20
229.57599999999999
 30
0.0
 11
100.19499999999989
 21
229.57599999999999
 31
0.0
  0
LINE
  5
C0
  8
0
 62
     7
 10
72.143500000000003
 20
220.57599999999999
 30
0.0
 11
100.19499999999989
 21
220.57599999999999
 31
0.0
  0
LINE
  5
C1
  8
0
 62
     7
 10
39.993299999999998
 20
131.03700000000001
 30
0.0
 11
33.520299999999999
 21
131.03700000000001
 31
0.0
  0
LINE
  5
C2
  8
0
 62
     7
 10
35.1051
 20
128.82599999999991
 30
0.0
 11
34.512799999999999
 21
131.03700000000001
 31
0.0
  0
LINE
  5
C3
  8
0
 62
     7
 10
34.512799999999999
 20
131.03700000000001
 30
0.0
 11
33.9206
 21
128.82599999999991
 31
0.0
  0
LINE
  5
C4
  8
0
 62
     7
 10
33.9206
 20
128.82599999999991
 30
0.0
 11
35.1051
 21
128.82599999999991
 31
0.0
  0
LINE
  5
C5
  8
0
 62
     7
 10
33.935099999999998
 20
136.74799999999999
 30
0.0
 11
34.52729999999999
 21
134.53700000000001
 31
0.0
  0
LINE
  5
C6
  8
0
 62
     7
 10
34.52729999999999
 20
134.53700000000001
 30
0.0
 11
35.119500000000002
 21
136.74799999999999
 31
0.0
  0
LINE
  5
C7
  8
0
 62
     7
 10
35.119500000000002
 20
136.74799999999999
 30
0.0
 11
33.935099999999998
 21
136.74799999999999
 31
0.0
  0
LINE
  5
C8
  8
0
 62
     7
 10
34.520099999999999
 20
138.39099999999991
 30
0.0
 11
34.520099999999999
 21
127.48699999999999
 31
0.0
  0
LINE
  5
C9
  8
0
 62
     7
 10
115.97799999999999
 20
132.32599999999991
 30
0.0
 11
115.386
 21
134.53700000000001
 31
0.0
  0
LINE
  5
CA
  8
0
 62
     7
 10
115.386
 20
134.53700000000001
 30
0.0
 11
114.79299999999991
 21
132.32599999999991
 31
0.0
  0
LINE
  5
CB
  8
0
 62
     7
 10
114.79299999999991
 20
132.32599999999991
 30
0.0
 11
115.97799999999999
 21
132.32599999999991
 31
0.0
  0
LINE
  5
CC
  8
0
 62
     7
 10
114.80799999999989
 20
120.74799999999991
 30
0.0
 11
115.40000000000001
 21
118.53700000000001
 31
0.0
  0
LINE
  5
CD
  8
0
 62
     7
 10
115.40000000000001
 20
118.53700000000001
 30
0.0
 11
115.9929999999999
 21
120.74799999999991
 31
0.0
  0
LINE
  5
CE
  8
0
 62
     7
 10
115.9929999999999
 20
120.74799999999991
 30
0.0
 11
114.80799999999989
 21
120.74799999999991
 31
0.0
  0
LINE
  5
CF
  8
0
 62
     7
 10
115.3929999999999
 20
134.53700000000001
 30
0.0
 11
115.3929999999999
 21
118.53700000000001
 31
0.0
  0
LINE
  5
D0
  8
0
 62
     7
 10
143.1579999999999
 20
118.53700000000001
 30
0.0
 11
114.3929999999999
 21
118.53700000000001
 31
0.0
  0
LINE
  5
D1
  8
0
 62
     7
 10
120.96599999999999
 20
134.53700000000001
 30
0.0
 11
114.3929999999999
 21
134.53700000000001
 31
0.0
  0
LINE
  5
D2
  8
0
 62
     7
 10
27.007999999999999
 20
132.32599999999991
 30
0.0
 11
26.415800000000001
 21
134.53700000000001
 31
0.0
  0
LINE
  5
D3
  8
0
 62
     7
 10
26.415800000000001
 20
134.53700000000001
 30
0.0
 11
25.8232
 21
132.32599999999991
 31
0.0
  0
LINE
  5
D4
  8
0
 62
     7
 10
25.8232
 20
132.32599999999991
 30
0.0
 11
27.007999999999999
 21
132.32599999999991
 31
0.0
  0
LINE
  5
D5
  8
0
 62
     7
 10
25.838000000000001
 20
120.74799999999991
 30
0.0
 11
26.430299999999988
 21
118.53700000000001
 31
0.0
  0
LINE
  5
D6
  8
0
 62
     7
 10
26.430299999999988
 20
118.53700000000001
 30
0.0
 11
27.0228
 21
120.74799999999991
 31
0.0
  0
LINE
  5
D7
  8
0
 62
     7
 10
27.0228
 20
120.74799999999991
 30
0.0
 11
25.838000000000001
 21
120.74799999999991
 31
0.0
  0
LINE
  5
D8
  8
0
 62
     7
 10
26.422999999999998
 20
134.53700000000001
 30
0.0
 11
26.422999999999998
 21
118.53700000000001
 31
0.0
  0
LINE
  5
D9
  8
0
 62
     7
 10
62.186100000000003
 20
118.53700000000001
 30
0.0
 11
25.422899999999991
 21
118.53700000000001
 31
0.0
  0
LINE
  5
DA
  8
0
 62
     7
 10
39.993299999999998
 20
134.53700000000001
 30
0.0
 11
25.422899999999991
 21
134.53700000000001
 31
0.0
  0
LINE
  5
DB
  8
0
 62
     7
 10
70.046499999999995
 20
134.53700000000001
 30
0.0
 11
69.346400000000003
 21
119.337
 31
0.0
  0
LINE
  5
DC
  8
0
 62
     7
 10
92.546499999999995
 20
131.03700000000001
 30
0.0
 11
70.362700000000004
 21
131.03700000000001
 31
0.0
  0
ARC
  5
DD
  8
0
 62
     7
 10
70.380160000000004
 20
130.5184129999999
 30
0.0
 40
0.5186370000000001
 50
91.925810999999996
 51
175.40596099999999
  0
LINE
  5
DE
  8
0
 62
     7
 10
71.046199999999999
 20
121.6129999999999
 30
0.0
 11
71.046199999999999
 21
118.53700000000001
 31
0.0
  0
LINE
  5
DF
  8
0
 62
     7
 10
71.967799999999997
 20
122.6099999999999
 30
0.0
 11
88.963300000000004
 21
123.952
 31
0.0
  0
ARC
  5
E0
  8
0
 62
     7
 10
72.0822
 20
121.5794999999999
 30
0.0
 40
1.036487999999999
 50
96.336180000000013
 51
178.16776299999989
  0
LINE
  5
E1
  8
0
 62
     7
 10
91.746600000000015
 20
131.03700000000001
 30
0.0
 11
90.303100000000001
 21
125.0929999999999
 31
0.0
  0
ARC
  5
E2
  8
0
 62
     7
 10
88.811081000000001
 20
125.48688300000001
 30
0.0
 40
1.5432189999999999
 50
275.6593529999999
 51
345.19534499999997
  0
ARC
  5
E3
  8
0
  6
AIGENLINE002
 62
     7
 10
67.046288000000004
 20
131.33699899999991
 30
0.0
 40
1.2500610000000001
 50
359.99211500000001
 51
89.992084999999989
  0
ARC
  5
E4
  8
0
  6
AIGENLINE002
 62
     7
 10
67.046460999999994
 20
131.336827
 30
0.0
 40
1.250232999999999
 50
90.0
 51
179.99996999999991
  0
ARC
  5
E5
  8
0
  6
AIGENLINE002
 62
     7
 10
67.046288000000004
 20
131.33699899999991
 30
0.0
 40
1.2500610000000001
 50
180.00790499999991
 51
270.00791499999991
  0
ARC
  5
E6
  8
0
  6
AIGENLINE002
 62
     7
 10
67.046459999999996
 20
131.33682799999991
 30
0.0
 40
1.249889
 50
270.00002000000001
 51
359.99998999999991
  0
LINE
  5
E7
  8
0
 62
     7
 10
64.046099999999996
 20
134.53700000000001
 30
0.0
 11
64.746200000000002
 21
119.337
 31
0.0
  0
LINE
  5
E8
  8
0
 62
     7
 10
41.546000000000006
 20
131.03700000000001
 30
0.0
 11
63.729799999999997
 21
131.03700000000001
 31
0.0
  0
ARC
  5
E9
  8
0
 62
     7
 10
63.712443
 20
130.51843999999991
 30
0.0
 40
0.51861
 50
4.5913059999999994
 51
88.076882999999995
  0
LINE
  5
EA
  8
0
 62
     7
 10
64.746200000000002
 20
119.337
 30
0.0
 11
69.346400000000003
 21
119.337
 31
0.0
  0
LINE
  5
EB
  8
0
 62
     7
 10
63.046300000000002
 20
121.6129999999999
 30
0.0
 11
63.046300000000002
 21
118.53700000000001
 31
0.0
  0
LINE
  5
EC
  8
0
 62
     7
 10
62.125100000000003
 20
122.6099999999999
 30
0.0
 11
45.129299999999994
 21
123.952
 31
0.0
  0
ARC
  5
ED
  8
0
 62
     7
 10
62.010297999999999
 20
121.579466
 30
0.0
 40
1.036567999999999
 50
1.833933
 51
83.640727999999996
  0
LINE
  5
EE
  8
0
 62
     7
 10
42.345999999999997
 20
131.03700000000001
 30
0.0
 11
43.789900000000003
 21
125.0929999999999
 31
0.0
  0
ARC
  5
EF
  8
0
 62
     7
 10
45.280501999999998
 20
125.4852649999999
 30
0.0
 40
1.5415119999999991
 50
194.759275
 51
264.37151899999992
  0
LINE
  5
F0
  8
0
 62
     7
 10
63.046300000000002
 20
118.53700000000001
 30
0.0
 11
71.046199999999999
 21
118.53700000000001
 31
0.0
  0
LINE
  5
F1
  8
0
  6
AIGENLINE001
 62
     7
 10
67.046499999999995
 20
137.61799999999991
 30
0.0
 11
67.046499999999995
 21
114.884
 31
0.0
  0
LINE
  5
F2
  8
0
 62
     7
 10
93.046400000000006
 20
134.53700000000001
 30
0.0
 11
92.546499999999995
 21
131.03700000000001
 31
0.0
  0
LINE
  5
F3
  8
0
 62
     7
 10
41.546000000000006
 20
131.03700000000001
 30
0.0
 11
41.046199999999992
 21
134.53700000000001
 31
0.0
  0
LINE
  5
F4
  8
0
 62
     7
 10
41.046199999999992
 20
134.53700000000001
 30
0.0
 11
93.046400000000006
 21
134.53700000000001
 31
0.0
  0
LINE
  5
F5
  8
0
 62
     7
 10
57.5503
 20
196.78599999999989
 30
0.0
 11
58.14289999999999
 21
194.5749999999999
 31
0.0
  0
LINE
  5
F6
  8
0
 62
     7
 10
58.14289999999999
 20
194.5749999999999
 30
0.0
 11
58.735100000000003
 21
196.78599999999989
 31
0.0
  0
LINE
  5
F7
  8
0
 62
     7
 10
58.735100000000003
 20
196.78599999999989
 30
0.0
 11
57.5503
 21
196.78599999999989
 31
0.0
  0
LINE
  5
F8
  8
0
 62
     7
 10
58.720300000000002
 20
190.86500000000001
 30
0.0
 11
58.128399999999999
 21
193.0749999999999
 31
0.0
  0
LINE
  5
F9
  8
0
 62
     7
 10
58.128399999999999
 20
193.0749999999999
 30
0.0
 11
57.535899999999991
 21
190.86500000000001
 31
0.0
  0
LINE
  5
FA
  8
0
 62
     7
 10
57.535899999999991
 20
190.86500000000001
 30
0.0
 11
58.720300000000002
 21
190.86500000000001
 31
0.0
  0
LINE
  5
FB
  8
0
 62
     7
 10
58.135300000000001
 20
186.08399999999989
 30
0.0
 11
58.135300000000001
 21
198.726
 31
0.0
  0
LINE
  5
FC
  8
0
 62
     7
 10
57.1355
 20
193.0749999999999
 30
0.0
 11
63.13559999999999
 21
193.0749999999999
 31
0.0
  0
LINE
  5
FD
  8
0
 62
     7
 10
66.256500000000003
 20
184.93199999999999
 30
0.0
 11
64.046099999999996
 21
184.339
 31
0.0
  0
LINE
  5
FE
  8
0
 62
     7
 10
64.046099999999996
 20
184.339
 30
0.0
 11
66.256500000000003
 21
183.74700000000001
 31
0.0
  0
LINE
  5
FF
  8
0
 62
     7
 10
66.256500000000003
 20
183.74700000000001
 30
0.0
 11
66.256500000000003
 21
184.93199999999999
 31
0.0
  0
LINE
  5
100
  8
0
 62
     7
 10
67.836100000000002
 20
183.762
 30
0.0
 11
70.046499999999995
 21
184.35400000000001
 31
0.0
  0
LINE
  5
101
  8
0
 62
     7
 10
70.046499999999995
 20
184.35400000000001
 30
0.0
 11
67.836100000000002
 21
184.946
 31
0.0
  0
LINE
  5
102
  8
0
 62
     7
 10
67.836100000000002
 20
184.946
 30
0.0
 11
67.836100000000002
 21
183.762
 31
0.0
  0
LINE
  5
103
  8
0
 62
     7
 10
64.046099999999996
 20
184.34700000000001
 30
0.0
 11
70.046499999999995
 21
184.34700000000001
 31
0.0
  0
LINE
  5
104
  8
0
 62
     7
 10
70.046499999999995
 20
192.17399999999989
 30
0.0
 11
70.046499999999995
 21
183.34700000000001
 31
0.0
  0
LINE
  5
105
  8
0
 62
     7
 10
64.046099999999996
 20
192.17399999999989
 30
0.0
 11
64.046099999999996
 21
183.34700000000001
 31
0.0
  0
LINE
  5
106
  8
0
 62
     7
 10
78.8673
 20
215.56200000000001
 30
0.0
 11
72.059799999999996
 21
215.56200000000001
 31
0.0
  0
LINE
  5
107
  8
0
 62
     7
 10
70.654499999999999
 20
217.80500000000001
 30
0.0
 11
68.672600000000003
 21
218.94900000000001
 31
0.0
  0
LINE
  5
108
  8
0
 62
     7
 10
68.672600000000003
 20
218.94900000000001
 30
0.0
 11
69.816999999999993
 21
216.9669999999999
 31
0.0
  0
LINE
  5
109
  8
0
 62
     7
 10
69.816999999999993
 20
216.9669999999999
 30
0.0
 11
70.654499999999999
 21
217.80500000000001
 31
0.0
  0
LINE
  5
10A
  8
0
 62
     7
 10
63.443600000000004
 20
223.35099999999991
 30
0.0
 11
65.425200000000004
 21
222.20699999999991
 31
0.0
  0
LINE
  5
10B
  8
0
 62
     7
 10
65.425200000000004
 20
222.20699999999991
 30
0.0
 11
64.281400000000005
 21
224.18899999999999
 31
0.0
  0
LINE
  5
10C
  8
0
 62
     7
 10
64.281400000000005
 20
224.18899999999999
 30
0.0
 11
63.443600000000004
 21
223.35099999999991
 31
0.0
  0
LINE
  5
10D
  8
0
 62
     7
 10
62.632599999999989
 20
224.989
 30
0.0
 11
72.059799999999996
 21
215.56200000000001
 31
0.0
  0
LINE
  5
10E
  8
0
 62
     7
 10
29.467099999999991
 20
227.3649999999999
 30
0.0
 11
28.875299999999989
 21
229.57599999999999
 31
0.0
  0
LINE
  5
10F
  8
0
 62
     7
 10
28.875299999999989
 20
229.57599999999999
 30
0.0
 11
28.282699999999991
 21
227.3649999999999
 31
0.0
  0
LINE
  5
110
  8
0
 62
     7
 10
28.282699999999991
 20
227.3649999999999
 30
0.0
 11
29.467099999999991
 21
227.3649999999999
 31
0.0
  0
LINE
  5
111
  8
0
 62
     7
 10
28.2972
 20
196.78599999999989
 30
0.0
 11
28.889700000000001
 21
194.57599999999991
 31
0.0
  0
LINE
  5
112
  8
0
 62
     7
 10
28.889700000000001
 20
194.57599999999991
 30
0.0
 11
29.4819
 21
196.78599999999989
 31
0.0
  0
LINE
  5
113
  8
0
 62
     7
 10
29.4819
 20
196.78599999999989
 30
0.0
 11
28.2972
 21
196.78599999999989
 31
0.0
  0
LINE
  5
114
  8
0
 62
     7
 10
28.882100000000001
 20
229.57599999999999
 30
0.0
 11
28.882100000000001
 21
194.5749999999999
 31
0.0
  0
LINE
  5
115
  8
0
 62
     7
 10
33.980899999999991
 20
231.78599999999989
 30
0.0
 11
34.573500000000003
 21
229.57599999999999
 31
0.0
  0
LINE
  5
116
  8
0
 62
     7
 10
34.573500000000003
 20
229.57599999999999
 30
0.0
 11
35.165700000000001
 21
231.78599999999989
 31
0.0
  0
LINE
  5
117
  8
0
 62
     7
 10
35.165700000000001
 20
231.78599999999989
 30
0.0
 11
33.980899999999991
 21
231.78599999999989
 31
0.0
  0
LINE
  5
118
  8
0
 62
     7
 10
33.980899999999991
 20
198.78599999999989
 30
0.0
 11
34.573500000000003
 21
196.57599999999991
 31
0.0
  0
LINE
  5
119
  8
0
 62
     7
 10
34.573500000000003
 20
196.57599999999991
 30
0.0
 11
35.165700000000001
 21
198.78599999999989
 31
0.0
  0
LINE
  5
11A
  8
0
 62
     7
 10
35.165700000000001
 20
198.78599999999989
 30
0.0
 11
33.980899999999991
 21
198.78599999999989
 31
0.0
  0
LINE
  5
11B
  8
0
 62
     7
 10
35.1509
 20
192.36500000000001
 30
0.0
 11
34.55899999999999
 21
194.5749999999999
 31
0.0
  0
LINE
  5
11C
  8
0
 62
     7
 10
34.55899999999999
 20
194.5749999999999
 30
0.0
 11
33.9664
 21
192.36500000000001
 31
0.0
  0
LINE
  5
11D
  8
0
 62
     7
 10
33.9664
 20
192.36500000000001
 30
0.0
 11
35.1509
 21
192.36500000000001
 31
0.0
  0
LINE
  5
11E
  8
0
 62
     7
 10
35.1509
 20
225.3649999999999
 30
0.0
 11
34.55899999999999
 21
227.57599999999999
 31
0.0
  0
LINE
  5
11F
  8
0
 62
     7
 10
34.55899999999999
 20
227.57599999999999
 30
0.0
 11
33.9664
 21
225.3649999999999
 31
0.0
  0
LINE
  5
120
  8
0
 62
     7
 10
33.9664
 20
225.3649999999999
 30
0.0
 11
35.1509
 21
225.3649999999999
 31
0.0
  0
LINE
  5
121
  8
0
 62
     7
 10
34.565899999999999
 20
187.19799999999989
 30
0.0
 11
34.565899999999999
 21
236.886
 31
0.0
  0
LINE
  5
122
  8
0
 62
     7
 10
43.256500000000003
 20
170.50700000000001
 30
0.0
 11
41.046199999999992
 21
169.91499999999991
 31
0.0
  0
LINE
  5
123
  8
0
 62
     7
 10
41.046199999999992
 20
169.91499999999991
 30
0.0
 11
43.256500000000003
 21
169.32299999999989
 31
0.0
  0
LINE
  5
124
  8
0
 62
     7
 10
43.256500000000003
 20
169.32299999999989
 30
0.0
 11
43.256500000000003
 21
170.50700000000001
 31
0.0
  0
LINE
  5
125
  8
0
 62
     7
 10
90.835699999999989
 20
169.33699999999999
 30
0.0
 11
93.046400000000006
 21
169.92899999999989
 31
0.0
  0
LINE
  5
126
  8
0
 62
     7
 10
93.046400000000006
 20
169.92899999999989
 30
0.0
 11
90.835699999999989
 21
170.52199999999999
 31
0.0
  0
LINE
  5
127
  8
0
 62
     7
 10
90.835699999999989
 20
170.52199999999999
 30
0.0
 11
90.835699999999989
 21
169.33699999999999
 31
0.0
  0
LINE
  5
128
  8
0
 62
     7
 10
41.046199999999992
 20
169.92199999999991
 30
0.0
 11
93.046400000000006
 21
169.92199999999991
 31
0.0
  0
LINE
  5
129
  8
0
 62
     7
 10
38.835399999999993
 20
176.34200000000001
 30
0.0
 11
41.046199999999992
 21
176.934
 31
0.0
  0
LINE
  5
12A
  8
0
 62
     7
 10
41.046199999999992
 20
176.934
 30
0.0
 11
38.835399999999993
 21
177.52699999999999
 31
0.0
  0
LINE
  5
12B
  8
0
 62
     7
 10
38.835399999999993
 20
177.52699999999999
 30
0.0
 11
38.835399999999993
 21
176.34200000000001
 31
0.0
  0
LINE
  5
12C
  8
0
 62
     7
 10
88.835800000000006
 20
176.34200000000001
 30
0.0
 11
91.046499999999995
 21
176.934
 31
0.0
  0
LINE
  5
12D
  8
0
 62
     7
 10
91.046499999999995
 20
176.934
 30
0.0
 11
88.835800000000006
 21
177.52699999999999
 31
0.0
  0
LINE
  5
12E
  8
0
 62
     7
 10
88.835800000000006
 20
177.52699999999999
 30
0.0
 11
88.835800000000006
 21
176.34200000000001
 31
0.0
  0
LINE
  5
12F
  8
0
 62
     7
 10
95.256799999999984
 20
177.512
 30
0.0
 11
93.046400000000006
 21
176.9199999999999
 31
0.0
  0
LINE
  5
130
  8
0
 62
     7
 10
93.046400000000006
 20
176.9199999999999
 30
0.0
 11
95.256799999999984
 21
176.32799999999989
 31
0.0
  0
LINE
  5
131
  8
0
 62
     7
 10
95.256799999999984
 20
176.32799999999989
 30
0.0
 11
95.256799999999984
 21
177.512
 31
0.0
  0
LINE
  5
132
  8
0
 62
     7
 10
45.256399999999999
 20
177.512
 30
0.0
 11
43.046100000000003
 21
176.9199999999999
 31
0.0
  0
LINE
  5
133
  8
0
 62
     7
 10
43.046100000000003
 20
176.9199999999999
 30
0.0
 11
45.256399999999999
 21
176.32799999999989
 31
0.0
  0
LINE
  5
134
  8
0
 62
     7
 10
45.256399999999999
 20
176.32799999999989
 30
0.0
 11
45.256399999999999
 21
177.512
 31
0.0
  0
LINE
  5
135
  8
0
 62
     7
 10
100.247
 20
176.92699999999999
 30
0.0
 11
34.331299999999999
 21
176.92699999999999
 31
0.0
  0
LINE
  5
136
  8
0
  6
AIGENLINE001
 62
     7
 10
62.754899999999999
 20
220.57599999999999
 30
0.0
 11
71.343900000000005
 21
220.57599999999999
 31
0.0
  0
LINE
  5
137
  8
0
 62
     7
 10
70.046499999999995
 20
193.0749999999999
 30
0.0
 11
70.546400000000006
 21
194.5749999999999
 31
0.0
  0
LINE
  5
138
  8
0
 62
     7
 10
64.046099999999996
 20
193.0749999999999
 30
0.0
 11
63.546199999999999
 21
194.5749999999999
 31
0.0
  0
LINE
  5
139
  8
0
 62
     7
 10
64.046099999999996
 20
193.0749999999999
 30
0.0
 11
70.046499999999995
 21
193.0749999999999
 31
0.0
  0
ARC
  5
13A
  8
0
 62
     7
 10
67.046459999999996
 20
220.57570000000001
 30
0.0
 40
2.2999610000000001
 50
0.00001
 51
89.999980000000008
  0
ARC
  5
13B
  8
0
 62
     7
 10
67.046289000000002
 20
220.57552699999999
 30
0.0
 40
2.3001330000000002
 50
89.995709000000005
 51
179.99567899999991
  0
ARC
  5
13C
  8
0
 62
     7
 10
67.046288000000004
 20
220.575872
 30
0.0
 40
2.3001320000000001
 50
180.00430099999991
 51
270.00431099999992
  0
ARC
  5
13D
  8
0
 62
     7
 10
67.046459999999996
 20
220.57570000000001
 30
0.0
 40
2.2999610000000001
 50
270.00002000000001
 51
359.99998999999991
  0
LINE
  5
13E
  8
0
  6
AIGENLINE001
 62
     7
 10
67.046499999999995
 20
232.11199999999999
 30
0.0
 11
67.046499999999995
 21
190.94300000000001
 31
0.0
  0
LINE
  5
13F
  8
0
  6
AIGENLINE001
 62
     7
 10
35.500199999999992
 20
212.07599999999991
 30
0.0
 11
95.282600000000016
 21
212.07599999999991
 31
0.0
  0
LINE
  5
140
  8
0
 62
     7
 10
91.046499999999995
 20
195.7359999999999
 30
0.0
 11
91.046499999999995
 21
175.92699999999999
 31
0.0
  0
LINE
  5
141
  8
0
 62
     7
 10
88.746600000000001
 20
224.27600000000001
 30
0.0
 11
88.746600000000001
 21
199.87599999999989
 31
0.0
  0
LINE
  5
142
  8
0
 62
     7
 10
91.046499999999995
 20
225.57599999999991
 30
0.0
 11
91.046499999999995
 21
198.57599999999991
 31
0.0
  0
LINE
  5
143
  8
0
 62
     7
 10
46.345999999999997
 20
198.87599999999989
 30
0.0
 11
87.746600000000001
 21
198.87599999999989
 31
0.0
  0
LINE
  5
144
  8
0
 62
     7
 10
45.046300000000002
 20
196.57599999999991
 30
0.0
 11
89.046599999999984
 21
196.57599999999991
 31
0.0
  0
ARC
  5
145
  8
0
 62
     7
 10
89.046634999999995
 20
198.57552599999991
 30
0.0
 40
1.9998910000000001
 50
270.00002000000001
 51
359.99998999999991
  0
LINE
  5
146
  8
0
 62
     7
 10
93.046400000000006
 20
195.7359999999999
 30
0.0
 11
93.046400000000006
 21
168.92199999999991
 31
0.0
  0
LINE
  5
147
  8
0
 62
     7
 10
93.046400000000006
 20
225.57599999999991
 30
0.0
 11
93.046400000000006
 21
198.57599999999991
 31
0.0
  0
LINE
  5
148
  8
0
 62
     7
 10
70.546700000000001
 20
194.5749999999999
 30
0.0
 11
89.046599999999984
 21
194.5749999999999
 31
0.0
  0
LINE
  5
149
  8
0
 62
     7
 10
45.046300000000002
 20
194.5749999999999
 30
0.0
 11
63.546199999999999
 21
194.5749999999999
 31
0.0
  0
ARC
  5
14A
  8
0
 62
     7
 10
89.046462000000005
 20
198.575354
 30
0.0
 40
3.9999539999999998
 50
270.00248699999997
 51
0.002457
  0
LINE
  5
14B
  8
0
 62
     7
 10
46.345999999999997
 20
225.2759999999999
 30
0.0
 11
87.746600000000001
 21
225.2759999999999
 31
0.0
  0
LINE
  5
14C
  8
0
 62
     7
 10
45.046300000000002
 20
227.57599999999999
 30
0.0
 11
89.046599999999984
 21
227.57599999999999
 31
0.0
  0
ARC
  5
14D
  8
0
 62
     7
 10
89.046462000000005
 20
225.575771
 30
0.0
 40
2.000062999999999
 50
359.99507499999999
 51
89.995045999999988
  0
LINE
  5
14E
  8
0
 62
     7
 10
45.046300000000002
 20
229.57599999999999
 30
0.0
 11
89.046599999999984
 21
229.57599999999999
 31
0.0
  0
ARC
  5
14F
  8
0
 62
     7
 10
89.046462000000005
 20
225.57577000000001
 30
0.0
 40
3.9999539999999998
 50
359.99754300000001
 51
89.997512999999984
  0
LINE
  5
150
  8
0
 62
     7
 10
33.566099999999992
 20
196.57599999999991
 30
0.0
 11
42.916899999999998
 21
196.57599999999991
 31
0.0
  0
LINE
  5
151
  8
0
 62
     7
 10
43.046100000000003
 20
195.7359999999999
 30
0.0
 11
43.046100000000003
 21
175.92699999999999
 31
0.0
  0
LINE
  5
152
  8
0
 62
     7
 10
43.046100000000003
 20
225.57599999999991
 30
0.0
 11
43.046100000000003
 21
198.57599999999991
 31
0.0
  0
ARC
  5
153
  8
0
 62
     7
 10
45.046114000000003
 20
198.5756979999999
 30
0.0
 40
2.0000619999999989
 50
180.00494499999991
 51
270.004954
  0
LINE
  5
154
  8
0
 62
     7
 10
27.882400000000001
 20
194.5749999999999
 30
0.0
 11
42.916899999999998
 21
194.5749999999999
 31
0.0
  0
LINE
  5
155
  8
0
 62
     7
 10
41.046199999999992
 20
195.7359999999999
 30
0.0
 11
41.046199999999992
 21
168.92199999999991
 31
0.0
  0
LINE
  5
156
  8
0
 62
     7
 10
41.046199999999992
 20
225.57599999999991
 30
0.0
 11
41.046199999999992
 21
198.57599999999991
 31
0.0
  0
ARC
  5
157
  8
0
 62
     7
 10
45.046286000000002
 20
198.575525
 30
0.0
 40
4.0001249999999988
 50
179.99996999999991
 51
270.00002000000001
  0
LINE
  5
158
  8
0
 62
     7
 10
33.565800000000003
 20
227.57599999999999
 30
0.0
 11
42.916899999999998
 21
227.57599999999999
 31
0.0
  0
ARC
  5
159
  8
0
 62
     7
 10
45.046287
 20
225.5755979999999
 30
0.0
 40
2.0002349999999991
 50
90.0
 51
179.99996999999991
  0
LINE
  5
15A
  8
0
 62
     7
 10
27.882400000000001
 20
229.57599999999999
 30
0.0
 11
42.916899999999998
 21
229.57599999999999
 31
0.0
  0
ARC
  5
15B
  8
0
 62
     7
 10
45.046287
 20
225.5755979999999
 30
0.0
 40
4.000125999999999
 50
90.0
 51
179.99996999999991
  0
LINE
  5
15C
  8
0
 62
     7
 10
163.88499999999991
 20
199.32599999999999
 30
0.0
 11
163.88499999999991
 21
224.82599999999999
 31
0.0
  0
LINE
  5
15D
  8
0
 62
     7
 10
127.4469999999999
 20
169.50399999999999
 30
0.0
 11
105.946
 21
169.50399999999999
 31
0.0
  0
LINE
  5
15E
  8
0
 62
     7
 10
109.931
 20
195.0559999999999
 30
0.0
 11
109.63500000000001
 21
197.3249999999999
 31
0.0
  0
LINE
  5
15F
  8
0
 62
     7
 10
109.63500000000001
 20
197.3249999999999
 30
0.0
 11
108.75700000000001
 21
195.21199999999999
 31
0.0
  0
LINE
  5
160
  8
0
 62
     7
 10
108.75700000000001
 20
195.21199999999999
 30
0.0
 11
109.931
 21
195.0559999999999
 31
0.0
  0
LINE
  5
161
  8
0
 62
     7
 10
109.63500000000001
 20
197.3249999999999
 30
0.0
 11
105.946
 21
169.50399999999999
 31
0.0
  0
LINE
  5
162
  8
0
 62
     7
 10
119.596
 20
189.4259999999999
 30
0.0
 11
117.38500000000001
 21
188.834
 31
0.0
  0
LINE
  5
163
  8
0
 62
     7
 10
117.38500000000001
 20
188.834
 30
0.0
 11
119.596
 21
188.24199999999999
 31
0.0
  0
LINE
  5
164
  8
0
 62
     7
 10
119.596
 20
188.24199999999999
 30
0.0
 11
119.596
 21
189.4259999999999
 31
0.0
  0
LINE
  5
165
  8
0
 62
     7
 10
161.67500000000001
 20
188.25599999999989
 30
0.0
 11
163.88499999999991
 21
188.8479999999999
 31
0.0
  0
LINE
  5
166
  8
0
 62
     7
 10
163.88499999999991
 20
188.8479999999999
 30
0.0
 11
161.67500000000001
 21
189.44099999999989
 31
0.0
  0
LINE
  5
167
  8
0
 62
     7
 10
161.67500000000001
 20
189.44099999999989
 30
0.0
 11
161.67500000000001
 21
188.25599999999989
 31
0.0
  0
LINE
  5
168
  8
0
 62
     7
 10
117.38500000000001
 20
188.84100000000001
 30
0.0
 11
163.88499999999991
 21
188.84100000000001
 31
0.0
  0
LINE
  5
169
  8
0
 62
     7
 10
163.88499999999991
 20
201.38799999999989
 30
0.0
 11
163.88499999999991
 21
188.1109999999999
 31
0.0
  0
LINE
  5
16A
  8
0
 62
     7
 10
117.38500000000001
 20
201.27000000000001
 30
0.0
 11
117.38500000000001
 21
188.1109999999999
 31
0.0
  0
LINE
  5
16B
  8
0
 62
     7
 10
151.7289999999999
 20
224.61500000000001
 30
0.0
 11
151.137
 21
226.82599999999999
 31
0.0
  0
LINE
  5
16C
  8
0
 62
     7
 10
151.137
 20
226.82599999999999
 30
0.0
 11
150.5449999999999
 21
224.61500000000001
 31
0.0
  0
LINE
  5
16D
  8
0
 62
     7
 10
150.5449999999999
 20
224.61500000000001
 30
0.0
 11
151.7289999999999
 21
224.61500000000001
 31
0.0
  0
LINE
  5
16E
  8
0
 62
     7
 10
150.55899999999991
 20
199.53599999999989
 30
0.0
 11
151.15100000000001
 21
197.3249999999999
 31
0.0
  0
LINE
  5
16F
  8
0
 62
     7
 10
151.15100000000001
 20
197.3249999999999
 30
0.0
 11
151.744
 21
199.53599999999989
 31
0.0
  0
LINE
  5
170
  8
0
 62
     7
 10
151.744
 20
199.53599999999989
 30
0.0
 11
150.55899999999991
 21
199.53599999999989
 31
0.0
  0
LINE
  5
171
  8
0
 62
     7
 10
151.14400000000001
 20
226.82599999999999
 30
0.0
 11
151.14400000000001
 21
197.3249999999999
 31
0.0
  0
LINE
  5
172
  8
0
 62
     7
 10
122.57599999999999
 20
201.78700000000001
 30
0.0
 11
128.5749999999999
 21
201.78700000000001
 31
0.0
  0
LINE
  5
173
  8
0
 62
     7
 10
119.52799999999991
 20
199.577
 30
0.0
 11
118.38500000000001
 21
197.595
 31
0.0
  0
LINE
  5
174
  8
0
 62
     7
 10
118.38500000000001
 20
197.595
 30
0.0
 11
120.3659999999999
 21
198.74000000000001
 31
0.0
  0
LINE
  5
175
  8
0
 62
     7
 10
120.3659999999999
 20
198.74000000000001
 30
0.0
 11
119.52799999999991
 21
199.577
 31
0.0
  0
LINE
  5
176
  8
0
 62
     7
 10
122.57599999999999
 20
201.78700000000001
 30
0.0
 11
118.38500000000001
 21
197.595
 31
0.0
  0
LINE
  5
177
  8
0
 62
     7
 10
130.59100000000001
 20
220.7109999999999
 30
0.0
 11
123.7489999999999
 21
220.7109999999999
 31
0.0
  0
LINE
  5
178
  8
0
 62
     7
 10
120.083
 20
225.214
 30
0.0
 11
118.101
 21
226.35900000000001
 31
0.0
  0
LINE
  5
179
  8
0
 62
     7
 10
118.101
 20
226.35900000000001
 30
0.0
 11
119.246
 21
224.37700000000001
 31
0.0
  0
LINE
  5
17A
  8
0
 62
     7
 10
119.246
 20
224.37700000000001
 30
0.0
 11
120.083
 21
225.214
 31
0.0
  0
LINE
  5
17B
  8
0
 62
     7
 10
118.101
 20
226.35900000000001
 30
0.0
 11
123.7489999999999
 21
220.7109999999999
 31
0.0
  0
LINE
  5
17C
  8
0
 62
     7
 10
138.42500000000001
 20
235.678
 30
0.0
 11
140.63499999999991
 21
236.27000000000001
 31
0.0
  0
LINE
  5
17D
  8
0
 62
     7
 10
140.63499999999991
 20
236.27000000000001
 30
0.0
 11
138.42500000000001
 21
236.86199999999991
 31
0.0
  0
LINE
  5
17E
  8
0
 62
     7
 10
138.42500000000001
 20
236.86199999999991
 30
0.0
 11
138.42500000000001
 21
235.678
 31
0.0
  0
LINE
  5
17F
  8
0
 62
     7
 10
165.42400000000001
 20
235.678
 30
0.0
 11
167.63499999999999
 21
236.27000000000001
 31
0.0
  0
LINE
  5
180
  8
0
 62
     7
 10
167.63499999999999
 20
236.27000000000001
 30
0.0
 11
165.42400000000001
 21
236.86199999999991
 31
0.0
  0
LINE
  5
181
  8
0
 62
     7
 10
165.42400000000001
 20
236.86199999999991
 30
0.0
 11
165.42400000000001
 21
235.678
 31
0.0
  0
LINE
  5
182
  8
0
 62
     7
 10
111.42399999999989
 20
235.66300000000001
 30
0.0
 11
113.634
 21
236.25599999999989
 31
0.0
  0
LINE
  5
183
  8
0
 62
     7
 10
113.634
 20
236.25599999999989
 30
0.0
 11
111.42399999999989
 21
236.8479999999999
 31
0.0
  0
LINE
  5
184
  8
0
 62
     7
 10
111.42399999999989
 20
236.8479999999999
 30
0.0
 11
111.42399999999989
 21
235.66300000000001
 31
0.0
  0
LINE
  5
185
  8
0
 62
     7
 10
170.42400000000001
 20
235.678
 30
0.0
 11
172.63499999999999
 21
236.27000000000001
 31
0.0
  0
LINE
  5
186
  8
0
 62
     7
 10
172.63499999999999
 20
236.27000000000001
 30
0.0
 11
170.42400000000001
 21
236.86199999999991
 31
0.0
  0
LINE
  5
187
  8
0
 62
     7
 10
170.42400000000001
 20
236.86199999999991
 30
0.0
 11
170.42400000000001
 21
235.678
 31
0.0
  0
LINE
  5
188
  8
0
 62
     7
 10
169.84599999999989
 20
236.8479999999999
 30
0.0
 11
167.63499999999999
 21
236.25599999999989
 31
0.0
  0
LINE
  5
189
  8
0
 62
     7
 10
167.63499999999999
 20
236.25599999999989
 30
0.0
 11
169.84599999999989
 21
235.66300000000001
 31
0.0
  0
LINE
  5
18A
  8
0
 62
     7
 10
169.84599999999989
 20
235.66300000000001
 30
0.0
 11
169.84599999999989
 21
236.8479999999999
 31
0.0
  0
LINE
  5
18B
  8
0
 62
     7
 10
142.846
 20
236.8479999999999
 30
0.0
 11
140.63499999999991
 21
236.25599999999989
 31
0.0
  0
LINE
  5
18C
  8
0
 62
     7
 10
140.63499999999991
 20
236.25599999999989
 30
0.0
 11
142.846
 21
235.66300000000001
 31
0.0
  0
LINE
  5
18D
  8
0
 62
     7
 10
142.846
 20
235.66300000000001
 30
0.0
 11
142.846
 21
236.8479999999999
 31
0.0
  0
LINE
  5
18E
  8
0
 62
     7
 10
115.846
 20
236.8479999999999
 30
0.0
 11
113.634
 21
236.25599999999989
 31
0.0
  0
LINE
  5
18F
  8
0
 62
     7
 10
113.634
 20
236.25599999999989
 30
0.0
 11
115.846
 21
235.66300000000001
 31
0.0
  0
LINE
  5
190
  8
0
 62
     7
 10
115.846
 20
235.66300000000001
 30
0.0
 11
115.846
 21
236.8479999999999
 31
0.0
  0
LINE
  5
191
  8
0
 62
     7
 10
110.8449999999999
 20
236.8479999999999
 30
0.0
 11
108.634
 21
236.25599999999989
 31
0.0
  0
LINE
  5
192
  8
0
 62
     7
 10
108.634
 20
236.25599999999989
 30
0.0
 11
110.8449999999999
 21
235.66300000000001
 31
0.0
  0
LINE
  5
193
  8
0
 62
     7
 10
110.8449999999999
 20
235.66300000000001
 30
0.0
 11
110.8449999999999
 21
236.8479999999999
 31
0.0
  0
LINE
  5
194
  8
0
 62
     7
 10
172.63499999999999
 20
236.26300000000001
 30
0.0
 11
108.634
 21
236.26300000000001
 31
0.0
  0
LINE
  5
195
  8
0
 62
     7
 10
167.63499999999999
 20
236.99299999999999
 30
0.0
 11
167.63499999999999
 21
228.464
 31
0.0
  0
LINE
  5
196
  8
0
 62
     7
 10
172.63499999999999
 20
236.99299999999999
 30
0.0
 11
172.63499999999999
 21
228.64400000000001
 31
0.0
  0
LINE
  5
197
  8
0
 62
     7
 10
140.63499999999991
 20
236.99299999999999
 30
0.0
 11
140.63499999999991
 21
231.34700000000001
 31
0.0
  0
LINE
  5
198
  8
0
 62
     7
 10
113.634
 20
236.99299999999999
 30
0.0
 11
113.634
 21
228.464
 31
0.0
  0
LINE
  5
199
  8
0
 62
     7
 10
108.634
 20
236.99299999999999
 30
0.0
 11
108.634
 21
228.64400000000001
 31
0.0
  0
LINE
  5
19A
  8
0
  6
AIGENLINE001
 62
     7
 10
105.404
 20
212.07599999999991
 30
0.0
 11
175.0029999999999
 21
212.07599999999991
 31
0.0
  0
LINE
  5
19B
  8
0
  6
AIGENLINE003
 62
     7
 10
108.634
 20
197.3249999999999
 30
0.0
 11
113.634
 21
226.82599999999999
 31
0.0
  0
LINE
  5
19C
  8
0
  6
AIGENLINE003
 62
     7
 10
108.634
 20
226.82599999999999
 30
0.0
 11
113.634
 21
197.3249999999999
 31
0.0
  0
LINE
  5
19D
  8
0
  6
AIGENLINE003
 62
     7
 10
167.63499999999999
 20
197.3249999999999
 30
0.0
 11
172.63499999999999
 21
226.82599999999999
 31
0.0
  0
LINE
  5
19E
  8
0
  6
AIGENLINE003
 62
     7
 10
167.63499999999999
 20
226.82599999999999
 30
0.0
 11
172.63499999999999
 21
197.3249999999999
 31
0.0
  0
LINE
  5
19F
  8
0
  6
AIGENLINE003
 62
     7
 10
172.63499999999999
 20
197.3249999999999
 30
0.0
 11
172.63499999999999
 21
226.82599999999999
 31
0.0
  0
LINE
  5
1A0
  8
0
  6
AIGENLINE003
 62
     7
 10
167.63499999999999
 20
197.3249999999999
 30
0.0
 11
167.63499999999999
 21
226.82599999999999
 31
0.0
  0
LINE
  5
1A1
  8
0
  6
AIGENLINE003
 62
     7
 10
167.63499999999999
 20
197.3249999999999
 30
0.0
 11
172.63499999999999
 21
197.3249999999999
 31
0.0
  0
LINE
  5
1A2
  8
0
  6
AIGENLINE003
 62
     7
 10
167.63499999999999
 20
226.82599999999999
 30
0.0
 11
172.63499999999999
 21
226.82599999999999
 31
0.0
  0
LINE
  5
1A3
  8
0
  6
AIGENLINE003
 62
     7
 10
108.634
 20
197.3249999999999
 30
0.0
 11
108.634
 21
226.82599999999999
 31
0.0
  0
LINE
  5
1A4
  8
0
  6
AIGENLINE003
 62
     7
 10
113.634
 20
197.3249999999999
 30
0.0
 11
113.634
 21
226.82599999999999
 31
0.0
  0
LINE
  5
1A5
  8
0
 62
     7
 10
117.38500000000001
 20
199.32599999999999
 30
0.0
 11
117.38500000000001
 21
224.82599999999999
 31
0.0
  0
LINE
  5
1A6
  8
0
  6
AIGENLINE001
 62
     7
 10
140.63499999999991
 20
194.40199999999999
 30
0.0
 11
140.63499999999991
 21
229.5449999999999
 31
0.0
  0
LINE
  5
1A7
  8
0
  6
AIGENLINE003
 62
     7
 10
113.634
 20
197.3249999999999
 30
0.0
 11
108.634
 21
197.3249999999999
 31
0.0
  0
LINE
  5
1A8
  8
0
  6
AIGENLINE003
 62
     7
 10
113.634
 20
226.82599999999999
 30
0.0
 11
108.63500000000001
 21
226.82599999999999
 31
0.0
  0
LINE
  5
1A9
  8
0
 62
     7
 10
119.38500000000001
 20
197.3249999999999
 30
0.0
 11
161.88499999999991
 21
197.3249999999999
 31
0.0
  0
LINE
  5
1AA
  8
0
 62
     7
 10
119.38500000000001
 20
226.82599999999999
 30
0.0
 11
161.88499999999991
 21
226.82599999999999
 31
0.0
  0
ARC
  5
1AB
  8
0
 62
     7
 10
67.046631999999974
 20
220.57552699999999
 30
0.0
 40
3.7501829999999998
 50
0.002642
 51
90.002611999999985
  0
ARC
  5
1AC
  8
0
 62
     7
 10
67.046633999999997
 20
220.575872
 30
0.0
 40
3.7498390000000001
 50
90.002631999999991
 51
180.0026419999999
  0
ARC
  5
1AD
  8
0
 62
     7
 10
67.046631999999974
 20
220.57552699999999
 30
0.0
 40
3.7498369999999999
 50
179.9973379999999
 51
269.99738799999989
  0
ARC
  5
1AE
  8
0
 62
     7
 10
67.046631999999974
 20
220.57587299999989
 30
0.0
 40
3.7501829999999998
 50
269.99738799999989
 51
359.99735800000002
  0
LINE
  5
1AF
  8
_________2
 62
     7
 10
205.30099999999999
 20
127.411
 30
0.0
 11
183.55000000000001
 21
127.411
 31
0.0
  0
LINE
  5
1B0
  8
_________2
 62
     7
 10
100.2999999999999
 20
-4.0910799999999998
 30
0.0
 11
100.2999999999999
 21
-21.071400000000001
 31
0.0
  0
LINE
  5
1B1
  8
_________2
 62
     7
 10
100.2999999999999
 20
275.93099999999993
 30
0.0
 11
100.2999999999999
 21
258.911
 31
0.0
  0
LINE
  5
1B2
  8
_________2
 62
     7
 10
17.049499999999998
 20
127.411
 30
0.0
 11
-4.70052
 21
127.411
 31
0.0
  0
LINE
  5
1B3
  8
_________2
 62
     7
 10
76.741
 20
29.8047
 30
0.0
 11
74.554699999999997
 21
29.8047
 31
0.0
  0
LINE
  5
1B4
  8
_________2
 62
     7
 10
77.233699999999999
 20
29.8047
 30
0.0
 11
76.981499999999997
 21
29.8047
 31
0.0
  0
LINE
  5
1B5
  8
_________2
 62
     7
 10
77.726299999999995
 20
29.8047
 30
0.0
 11
80.651200000000003
 21
29.8047
 31
0.0
  0
LINE
  5
1B6
  8
_________2
 62
     7
 10
77.233699999999999
 20
29.8047
 30
0.0
 11
77.485500000000002
 21
29.8047
 31
0.0
  0
LINE
  5
1B7
  8
_________2
 62
     7
 10
70.837100000000007
 20
29.8047
 30
0.0
 11
68.650499999999994
 21
29.8047
 31
0.0
  0
LINE
  5
1B8
  8
_________2
 62
     7
 10
71.329400000000007
 20
29.8047
 30
0.0
 11
71.077600000000004
 21
29.8047
 31
0.0
  0
LINE
  5
1B9
  8
_________2
 62
     7
 10
71.329400000000007
 20
30.2974
 30
0.0
 11
71.329400000000007
 21
32.484400000000001
 31
0.0
  0
LINE
  5
1BA
  8
_________2
 62
     7
 10
71.329400000000007
 20
29.8047
 30
0.0
 11
71.329400000000007
 21
30.056899999999992
 31
0.0
  0
LINE
  5
1BB
  8
_________2
 62
     7
 10
71.822100000000006
 20
29.8047
 30
0.0
 11
74.009
 21
29.8047
 31
0.0
  0
LINE
  5
1BC
  8
_________2
 62
     7
 10
71.329400000000007
 20
29.8047
 30
0.0
 11
71.581599999999995
 21
29.8047
 31
0.0
  0
LINE
  5
1BD
  8
_________2
 62
     7
 10
71.329400000000007
 20
29.312799999999999
 30
0.0
 11
71.329400000000007
 21
27.125800000000002
 31
0.0
  0
LINE
  5
1BE
  8
_________2
 62
     7
 10
71.329400000000007
 20
29.8047
 30
0.0
 11
71.329400000000007
 21
29.5532
 31
0.0
  0
LINE
  5
1BF
  8
_________2
 62
     7
 10
75.040499999999994
 20
28.5852
 30
0.0
 11
80.218500000000006
 21
27.720400000000001
 31
0.0
  0
LINE
  5
1C0
  8
_________2
 62
     7
 10
75.040499999999994
 20
31.0243
 30
0.0
 11
80.218500000000006
 21
31.889700000000001
 31
0.0
  0
LINE
  5
1C1
  8
_________2
 62
     7
 10
80.218500000000006
 20
27.720400000000001
 30
0.0
 11
80.218500000000006
 21
31.889700000000001
 31
0.0
  0
LINE
  5
1C2
  8
_________2
 62
     7
 10
75.040499999999994
 20
28.5852
 30
0.0
 11
75.040499999999994
 21
31.0243
 31
0.0
  0
ARC
  5
1C3
  8
_________2
 62
     7
 10
71.28285600000001
 20
29.757811
 30
0.0
 40
1.2673589999999999
 50
2.122214
 51
87.893958999999995
  0
ARC
  5
1C4
  8
_________2
 62
     7
 10
71.375959999999992
 20
29.758213000000001
 30
0.0
 40
1.2669559999999991
 50
92.104701000000006
 51
177.8952689999999
  0
ARC
  5
1C5
  8
_________2
 62
     7
 10
71.376357999999996
 20
29.851671
 30
0.0
 40
1.2673680000000001
 50
182.12203600000001
 51
267.877993
  0
ARC
  5
1C6
  8
_________2
 62
     7
 10
71.282531999999989
 20
29.851998999999989
 30
0.0
 40
1.267695999999999
 50
272.12015300000002
 51
357.863674
  0
ARC
  5
1C7
  8
_________2
 62
     7
 10
71.329430000000002
 20
29.804742999999998
 30
0.0
 40
2.0849849999999992
 50
0.00001
 51
89.999980000000008
  0
ARC
  5
1C8
  8
_________2
 62
     7
 10
71.329603000000006
 20
29.804915000000001
 30
0.0
 40
2.084813
 50
90.004733999999999
 51
180.00474399999999
  0
ARC
  5
1C9
  8
_________2
 62
     7
 10
71.409106000000008
 20
29.884775999999999
 30
0.0
 40
2.1657950000000001
 50
182.11776599999999
 51
267.89173399999999
  0
ARC
  5
1CA
  8
_________2
 62
     7
 10
71.249459000000002
 20
29.885429999999989
 30
0.0
 40
2.1664590000000001
 50
272.11546800000002
 51
357.86560400000002
  0
TEXT
  5
1CB
  8
_________2
 62
     7
 10
104.605
 20
1.6794899999999999
 30
0.0
 40
3.0923400000000001
  1
図番
 41
0.5
  0
LINE
  5
1CC
  8
_________2
 62
     7
 10
103.55
 20
5.9087199999999989
 30
0.0
 11
183.55099999999999
 21
5.9087199999999989
 31
0.0
  0
TEXT
  5
1CD
  8
_________2
 62
     7
 10
104.605
 20
11.679299999999991
 30
0.0
 40
3.0923400000000001
  1
品番
 41
0.5
  0
TEXT
  5
1CE
  8
_________2
 62
     7
 10
104.605
 20
31.818100000000001
 30
0.0
 40
3.0923400000000001
  1
名称
 41
0.5
  0
TEXT
  5
1CF
  8
_________2
 62
     7
 10
91.845058333333341
 20
26.821999999999989
 30
0.0
 40
3.6545800000000002
  1
mm
 41
0.5
 72
     1
 11
93.367800000000003
 21
26.821999999999989
 31
0.0
  0
TEXT
  5
1D0
  8
_________2
 62
     7
 10
85.643199999999993
 20
31.818100000000001
 30
0.0
 40
3.0923400000000001
  1
単位
 41
0.5
  0
TEXT
  5
1D1
  8
_________2
 62
     7
 10
85.643199999999993
 20
19.410799999999991
 30
0.0
 40
3.0923400000000001
  1
尺度
 41
0.5
  0
TEXT
  5
1D2
  8
_________2
 62
     7
 10
90.09193616666667
 20
13.2179
 30
0.0
 40
3.6545800000000002
  1
1 ： 10
 41
0.5
 72
     1
 11
93.959699999999998
 21
13.2179
 31
0.0
  0
TEXT
  5
1D3
  8
_________2
 62
     7
 10
133.38277500000001
 20
9.1078600000000005
 30
0.0
 40
3.9357000000000002
  1
DV033048-00
 41
0.5
 72
     1
 11
143.55000000000001
 21
9.1078600000000005
 31
0.0
  0
TEXT
  5
1D4
  8
_________2
 62
     7
 10
136.00657499999991
 20
-0.8926299999999999
 30
0.0
 40
3.9357000000000002
  1
DV033048
 41
0.5
 72
     1
 11
143.55000000000001
 21
-0.8926299999999999
 31
0.0
  0
TEXT
  5
1D5
  8
_________2
 62
     7
 10
24.5868
 20
0.707283
 30
0.0
 40
3.9357000000000002
  1
実容量6.8L・オーバーフロー付
 41
0.5
  0
TEXT
  5
1D6
  8
_________2
 62
     7
 10
109.179
 20
24.2257
 30
0.0
 40
3.9357000000000002
  1
ヴェーロ　アンダーカウンター式洗面器
 41
0.5
  0
TEXT
  5
1D7
  8
_________2
 62
     7
 10
39.364390666666658
 20
13.603
 30
0.0
 40
3.6545800000000002
  1
高橋
 41
0.5
 72
     1
 11
41.313499999999998
 21
13.603
 31
0.0
  0
TEXT
  5
1D8
  8
_________2
 62
     7
 10
20.790090666666661
 20
13.603
 30
0.0
 40
3.6545800000000002
  1
石原
 41
0.5
 72
     1
 11
22.73919999999999
 21
13.603
 31
0.0
  0
TEXT
  5
1D9
  8
_________2
 62
     7
 10
67.785399999999996
 20
13.2179
 30
0.0
 40
3.6545800000000002
  1
08.04.21
 41
0.5
  0
TEXT
  5
1DA
  8
_________2
 62
     7
 10
66.593100000000007
 20
19.410799999999991
 30
0.0
 40
3.0923400000000001
  1
日付
 41
0.5
  0
TEXT
  5
1DB
  8
_________2
 62
     7
 10
29.639399999999998
 20
19.410799999999991
 30
0.0
 40
3.0923400000000001
  1
検図
 41
0.5
  0
TEXT
  5
1DC
  8
_________2
 62
     7
 10
18.021100000000001
 20
5.21143
 30
0.0
 40
3.0923400000000001
  1
備考
 41
0.5
  0
TEXT
  5
1DD
  8
_________2
 62
     7
 10
18.021100000000001
 20
19.410799999999991
 30
0.0
 40
3.0923400000000001
  1
製図
 41
0.5
  0
TEXT
  5
1DE
  8
_________2
 62
     7
 10
23.788465333333338
 20
27.936800000000002
 30
0.0
 40
4.4979399999999989
  1
セラトレーディング株式会社
 41
0.5
 72
     1
 11
41.180500000000002
 21
27.936800000000002
 31
0.0
  0
LINE
  5
1DF
  8
_________2
 62
     7
 10
183.55099999999999
 20
-4.0910799999999998
 30
0.0
 11
17.049499999999998
 21
-4.0910799999999998
 31
0.0
  0
LINE
  5
1E0
  8
_________2
 62
     7
 10
17.049499999999998
 20
-4.0910799999999998
 30
0.0
 11
17.049499999999998
 21
258.911
 31
0.0
  0
LINE
  5
1E1
  8
_________2
 62
     7
 10
17.049499999999998
 20
258.911
 30
0.0
 11
183.55099999999999
 21
258.911
 31
0.0
  0
LINE
  5
1E2
  8
_________2
 62
     7
 10
183.55099999999999
 20
258.911
 30
0.0
 11
183.55099999999999
 21
-4.0910799999999998
 31
0.0
  0
LINE
  5
1E3
  8
_________2
 62
     7
 10
65.549599999999998
 20
9.4089600000000004
 30
0.0
 11
65.549599999999998
 21
35.908799999999999
 31
0.0
  0
LINE
  5
1E4
  8
_________2
 62
     7
 10
84.549700000000016
 20
9.4089600000000004
 30
0.0
 11
84.549700000000016
 21
35.908799999999999
 31
0.0
  0
LINE
  5
1E5
  8
_________2
 62
     7
 10
103.55
 20
-4.0910799999999998
 30
0.0
 11
103.55
 21
35.908799999999999
 31
0.0
  0
LINE
  5
1E6
  8
_________2
 62
     7
 10
28.549299999999992
 20
9.4089600000000004
 30
0.0
 11
28.549299999999992
 21
23.409199999999998
 31
0.0
  0
LINE
  5
1E7
  8
_________2
 62
     7
 10
17.049499999999998
 20
9.4089600000000004
 30
0.0
 11
103.55
 21
9.4089600000000004
 31
0.0
  0
LINE
  5
1E8
  8
_________2
 62
     7
 10
17.049499999999998
 20
23.409199999999998
 30
0.0
 11
103.55
 21
23.409199999999998
 31
0.0
  0
LINE
  5
1E9
  8
_________2
 62
     7
 10
103.55
 20
15.9085
 30
0.0
 11
183.55099999999999
 21
15.9085
 31
0.0
  0
LINE
  5
1EA
  8
_________2
 62
     7
 10
17.049499999999998
 20
35.908799999999999
 30
0.0
 11
183.55099999999999
 21
35.908799999999999
 31
0.0
  0
ENDSEC
  0
EOF
