  0
SECTION
  2
HEADER
  9
$ACADVER
  1
AC1009
  9
$INSBASE
 10
0.0
 20
0.0
 30
0.0
  9
$EXTMIN
 10
0.238058
 20
0.4482100000000001
 30
0.0
  9
$EXTMAX
 10
210.24000000000001
 20
297.44999999999987
 30
0.0
  9
$LIMMIN
 10
0.0
 20
0.0
  9
$LIMMAX
 10
12.0
 20
9.0
  9
$ORTHOMODE
 70
     0
  9
$REGENMODE
 70
     1
  9
$FILLMODE
 70
     1
  9
$QTEXTMODE
 70
     0
  9
$MIRRTEXT
 70
     1
  9
$DRAGMODE
 70
     2
  9
$LTSCALE
 40
1.0
  9
$OSMODE
 70
    37
  9
$ATTMODE
 70
     1
  9
$TEXTSIZE
 40
0.0
  9
$TRACEWID
 40
0.05
  9
$TEXTSTYLE
  7
STANDARD
  9
$CLAYER
  8
0
  9
$CELTYPE
  6
CONTINUOUS
  9
$CECOLOR
 62
   256
  9
$DIMSCALE
 40
1.0
  9
$DIMASZ
 40
0.18
  9
$DIMEXO
 40
0.0625
  9
$DIMDLI
 40
0.38
  9
$DIMRND
 40
0.0
  9
$DIMDLE
 40
0.0
  9
$DIMEXE
 40
0.18
  9
$DIMTP
 40
0.0
  9
$DIMTM
 40
0.0
  9
$DIMTXT
 40
0.18
  9
$DIMCEN
 40
0.09
  9
$DIMTSZ
 40
0.0
  9
$DIMTOL
 70
     0
  9
$DIMLIM
 70
     0
  9
$DIMTIH
 70
     1
  9
$DIMTOH
 70
     1
  9
$DIMSE1
 70
     0
  9
$DIMSE2
 70
     0
  9
$DIMTAD
 70
     0
  9
$DIMZIN
 70
     0
  9
$DIMBLK
  1

  9
$DIMASO
 70
     1
  9
$DIMSHO
 70
     1
  9
$DIMPOST
  1

  9
$DIMAPOST
  1

  9
$DIMALT
 70
     0
  9
$DIMALTD
 70
     2
  9
$DIMALTF
 40
25.399999999999999
  9
$DIMLFAC
 40
1.0
  9
$DIMTOFL
 70
     0
  9
$DIMTVP
 40
0.0
  9
$DIMTIX
 70
     0
  9
$DIMSOXD
 70
     0
  9
$DIMSAH
 70
     0
  9
$DIMBLK1
  1

  9
$DIMBLK2
  1

  9
$DIMSTYLE
  2
STANDARD
  9
$DIMCLRD
 70
     0
  9
$DIMCLRE
 70
     0
  9
$DIMCLRT
 70
     0
  9
$DIMTFAC
 40
1.0
  9
$DIMGAP
 40
0.09
  9
$LUNITS
 70
     2
  9
$LUPREC
 70
     4
  9
$SKETCHINC
 40
0.1
  9
$FILLETRAD
 40
0.0
  9
$AUNITS
 70
     0
  9
$AUPREC
 70
     0
  9
$MENU
  1
.
  9
$ELEVATION
 40
0.0
  9
$PELEVATION
 40
0.0
  9
$THICKNESS
 40
0.0
  9
$LIMCHECK
 70
     0
  9
$BLIPMODE
 70
     0
  9
$CHAMFERA
 40
0.0
  9
$CHAMFERB
 40
0.0
  9
$SKPOLY
 70
     0
  9
$TDCREATE
 40
2444972.375
  9
$TDUPDATE
 40
2454458.290474352
  9
$TDINDWG
 40
0.0000072222
  9
$TDUSRTIMER
 40
0.0000072222
  9
$USRTIMER
 70
     1
  9
$ANGBASE
 50
0.0
  9
$ANGDIR
 70
     0
  9
$PDMODE
 70
     0
  9
$PDSIZE
 40
0.0
  9
$PLINEWID
 40
0.0
  9
$COORDS
 70
     1
  9
$SPLFRAME
 70
     0
  9
$SPLINETYPE
 70
     6
  9
$SPLINESEGS
 70
     8
  9
$ATTDIA
 70
     0
  9
$ATTREQ
 70
     1
  9
$HANDLING
 70
     1
  9
$HANDSEED
  5
1D9
  9
$SURFTAB1
 70
     6
  9
$SURFTAB2
 70
     6
  9
$SURFTYPE
 70
     6
  9
$SURFU
 70
     6
  9
$SURFV
 70
     6
  9
$UCSNAME
  2

  9
$UCSORG
 10
0.0
 20
0.0
 30
0.0
  9
$UCSXDIR
 10
1.0
 20
0.0
 30
0.0
  9
$UCSYDIR
 10
0.0
 20
1.0
 30
0.0
  9
$PUCSNAME
  2

  9
$PUCSORG
 10
0.0
 20
0.0
 30
0.0
  9
$PUCSXDIR
 10
1.0
 20
0.0
 30
0.0
  9
$PUCSYDIR
 10
0.0
 20
1.0
 30
0.0
  9
$USERI1
 70
     0
  9
$USERI2
 70
     0
  9
$USERI3
 70
     0
  9
$USERI4
 70
     0
  9
$USERI5
 70
     0
  9
$USERR1
 40
0.0
  9
$USERR2
 40
0.0
  9
$USERR3
 40
0.0
  9
$USERR4
 40
0.0
  9
$USERR5
 40
0.0
  9
$WORLDVIEW
 70
     1
  9
$SHADEDGE
 70
     3
  9
$SHADEDIF
 70
    70
  9
$TILEMODE
 70
     1
  9
$MAXACTVP
 70
    48
  9
$PLIMCHECK
 70
     0
  9
$PEXTMIN
 10
1.0000000000000000E+020
 20
1.0000000000000000E+020
 30
1.0000000000000000E+020
  9
$PEXTMAX
 10
-1.0000000000000000E+020
 20
-1.0000000000000000E+020
 30
-1.0000000000000000E+020
  9
$PLIMMIN
 10
0.0
 20
0.0
  9
$PLIMMAX
 10
12.0
 20
9.0
  9
$UNITMODE
 70
     0
  9
$VISRETAIN
 70
     1
  9
$PLINEGEN
 70
     0
  9
$PSLTSCALE
 70
     1
  0
ENDSEC
  0
SECTION
  2
TABLES
  0
TABLE
  2
VPORT
 70
     2
  0
VPORT
  2
*ACTIVE
 70
     0
 10
0.0
 20
0.0
 11
1.0
 21
1.0
 12
200.31472981708251
 22
148.72499999999991
 13
0.0
 23
0.0
 14
1.0
 24
1.0
 15
0.0
 25
0.0
 16
0.0
 26
0.0
 36
1.0
 17
0.0
 27
0.0
 37
0.0
 40
299.79212598425192
 41
2.2894736842105261
 42
50.0
 43
0.0
 44
0.0
 50
0.0
 51
0.0
 71
     0
 72
   100
 73
     1
 74
     1
 75
     0
 76
     0
 77
     0
 78
     0
  0
ENDTAB
  0
TABLE
  2
LTYPE
 70
     4
  0
LTYPE
  2
CONTINUOUS
 70
     0
  3
Solid line
 72
    65
 73
     0
 40
0.0
  0
LTYPE
  2
AIGENLINE001
 70
     0
  3
generate AI->DXF Converter
 72
    65
 73
     2
 40
1.5522299999999991
 49
0.776115
 49
-0.776115
  0
LTYPE
  2
AIGENLINE002
 70
     0
  3
generate AI->DXF Converter
 72
    65
 73
     6
 40
12.900133
 49
9.0000499999999999
 49
-0.700021
 49
0.9000100000000001
 49
-0.700021
 49
0.9000100000000001
 49
-0.700021
  0
LTYPE
  2
AIGENLINE003
 70
     0
  3
generate AI->DXF Converter
 72
    65
 73
     4
 40
5.8561449999999988
 49
3.5278
 49
-0.776115
 49
0.776115
 49
-0.776115
  0
ENDTAB
  0
TABLE
  2
LAYER
 70
     2
  0
LAYER
  2
0
 70
     0
 62
     7
  6
CONTINUOUS
  0
LAYER
  2
_________2
 70
     0
 62
     7
  6
CONTINUOUS
  0
ENDTAB
  0
TABLE
  2
STYLE
 70
     1
  0
STYLE
  2
STANDARD
 70
     0
 40
0.0
 41
0.0
 50
0.0
 71
     0
 42
0.0
  3
TXT
  4
EXTFONT.SHX
  0
ENDTAB
  0
TABLE
  2
VIEW
 70
     0
  0
ENDTAB
  0
TABLE
  2
UCS
 70
     0
  0
ENDTAB
  0
TABLE
  2
APPID
 70
     1
  0
APPID
  2
ACAD
 70
     0
  0
ENDTAB
  0
TABLE
  2
DIMSTYLE
 70
     1
  0
DIMSTYLE
  2
STANDARD
 70
     0
  3

  4

  5

  6

  7

 40
1.0
 41
0.18
 42
0.0625
 43
0.38
 44
0.18
 45
0.0
 46
0.0
 47
0.0
 48
0.0
140
0.18
141
0.09
142
0.0
143
25.399999999999999
144
1.0
145
0.0
146
1.0
147
0.09
 71
     0
 72
     0
 73
     1
 74
     1
 75
     0
 76
     0
 77
     0
 78
     0
170
     0
171
     2
172
     0
173
     0
174
     0
175
     0
176
     0
177
     0
178
     0
  0
ENDTAB
  0
ENDSEC
  0
SECTION
  2
BLOCKS
  0
BLOCK
  8
0
  2
$MODEL_SPACE
 70
     0
 10
0.0
 20
0.0
 30
0.0
  3
$MODEL_SPACE
  1

  0
ENDBLK
  5
1A
  8
0
  0
BLOCK
 67
     1
  8
0
  2
$PAPER_SPACE
 70
     0
 10
0.0
 20
0.0
 30
0.0
  3
$PAPER_SPACE
  1

  0
ENDBLK
  5
17
 67
     1
  8
0
  0
ENDSEC
  0
SECTION
  2
ENTITIES
  0
TEXT
  5
24
  8
0
 62
     7
 10
40.407800000000002
 20
125.181845
 30
0.0
 40
3.0923400000000001
  1
max.30
 50
90.0
 41
0.5
 72
     2
 11
40.407800000000002
 21
132.655
 31
0.0
  0
TEXT
  5
25
  8
0
 62
     7
 10
141.46675999999999
 20
169.31399999999999
 30
0.0
 40
3.0923400000000001
  1
カウンター切込寸法
 41
0.5
 72
     1
 11
149.71299999999999
 21
169.31399999999999
 31
0.0
  0
TEXT
  5
26
  8
0
 62
     7
 10
120.1189999999999
 20
203.01599999999991
 30
0.0
 40
3.0923400000000001
  1
%%c10穴（2ケ所）
 41
0.5
  0
TEXT
  5
27
  8
0
 62
     7
 10
78.591740000000001
 20
183.03700000000001
 30
0.0
 40
3.0923400000000001
  1
%%c46
 41
0.5
 72
     1
 11
80.653300000000016
 21
183.03700000000001
 31
0.0
  0
TEXT
  5
28
  8
0
 62
     7
 10
144.76252500000001
 20
207.66900000000001
 30
0.0
 40
3.0923400000000001
  1
79
 41
0.5
 72
     1
 11
146.05099999999999
 21
207.66900000000001
 31
0.0
  0
TEXT
  5
29
  8
0
 62
     7
 10
148.38052499999989
 20
179.45699999999999
 30
0.0
 40
3.0923400000000001
  1
93
 41
0.5
 72
     1
 11
149.6689999999999
 21
179.45699999999999
 31
0.0
  0
TEXT
  5
2A
  8
0
 62
     7
 10
152.31252499999991
 20
207.66900000000001
 30
0.0
 40
3.0923400000000001
  1
79
 41
0.5
 72
     1
 11
153.601
 21
207.66900000000001
 31
0.0
  0
TEXT
  5
2B
  8
0
 62
     7
 10
158.71098249999989
 20
106.0559999999999
 30
0.0
 40
3.0923400000000001
  1
210
 41
0.5
 72
     1
 11
160.386
 21
106.0559999999999
 31
0.0
  0
TEXT
  5
2C
  8
0
 62
     7
 10
150.32599999999999
 20
112.8949999999999
 30
0.0
 40
3.0923400000000001
  1
220
 41
0.5
  0
TEXT
  5
2D
  8
0
 62
     7
 10
65.05328750000001
 20
111.8239999999999
 30
0.0
 40
3.0923400000000001
  1
220
 41
0.5
 72
     1
 11
66.986000000000004
 21
111.8239999999999
 31
0.0
  0
TEXT
  5
2E
  8
0
 62
     7
 10
64.553187500000007
 20
223.99199999999999
 30
0.0
 40
3.0923400000000001
  1
420
 41
0.5
 72
     1
 11
66.485900000000001
 21
223.99199999999999
 31
0.0
  0
TEXT
  5
2F
  8
0
 62
     7
 10
146.70599999999999
 20
130.14082999999999
 30
0.0
 40
3.0923400000000001
  1
115
 50
90.0
 41
0.5
 72
     1
 11
146.70599999999999
 21
131.68700000000001
 31
0.0
  0
TEXT
  5
30
  8
0
 62
     7
 10
96.455500000000001
 20
190.5832874999999
 30
0.0
 40
3.0923400000000001
  1
420
 50
90.0
 41
0.5
 72
     1
 11
96.455500000000001
 21
192.51599999999991
 31
0.0
  0
TEXT
  5
31
  8
0
 62
     7
 10
134.50399999999999
 20
193.64152499999989
 30
0.0
 40
3.0923400000000001
  1
45
 50
90.0
 41
0.5
 72
     1
 11
134.50399999999999
 21
194.93000000000001
 31
0.0
  0
TEXT
  5
32
  8
0
 62
     7
 10
165.1509999999999
 20
195.004525
 30
0.0
 40
3.0923400000000001
  1
75
 50
90.0
 41
0.5
 72
     1
 11
165.1509999999999
 21
196.29300000000001
 31
0.0
  0
TEXT
  5
33
  8
0
 62
     7
 10
165.1509999999999
 20
188.3045249999999
 30
0.0
 40
3.0923400000000001
  1
56
 50
90.0
 41
0.5
 72
     1
 11
165.1509999999999
 21
189.5929999999999
 31
0.0
  0
TEXT
  5
34
  8
0
 62
     7
 10
103.2
 20
127.309135
 30
0.0
 40
3.0923400000000001
  1
165
 50
90.0
 41
0.5
 72
     1
 11
103.2
 21
129.113
 31
0.0
  0
TEXT
  5
35
  8
0
 62
     7
 10
96.408900000000003
 20
128.01613499999991
 30
0.0
 40
3.0923400000000001
  1
155
 50
90.0
 41
0.5
 72
     1
 11
96.408900000000003
 21
129.81999999999999
 31
0.0
  0
LINE
  5
36
  8
0
 62
     7
 10
154.363
 20
186.91599999999991
 30
0.0
 11
145.06399999999991
 21
186.91599999999991
 31
0.0
  0
LINE
  5
37
  8
0
 62
     7
 10
145.06399999999991
 20
186.91599999999991
 30
0.0
 11
145.06399999999991
 21
200.01699999999991
 31
0.0
  0
LINE
  5
38
  8
0
 62
     7
 10
145.06399999999991
 20
200.01699999999991
 30
0.0
 11
154.363
 21
200.01699999999991
 31
0.0
  0
LINE
  5
39
  8
0
 62
     7
 10
154.363
 20
200.01699999999991
 30
0.0
 11
154.363
 21
186.91599999999991
 31
0.0
  0
ARC
  5
3A
  8
0
  6
AIGENLINE001
 62
     7
 10
62.485987999999992
 20
196.51603299999999
 30
0.0
 40
7.0001350000000002
 50
90.0
 51
179.99996999999991
  0
ARC
  5
3B
  8
0
  6
AIGENLINE001
 62
     7
 10
70.486237000000003
 20
196.51603299999999
 30
0.0
 40
7.0001350000000002
 50
0.00001
 51
89.999980000000008
  0
ARC
  5
3C
  8
0
  6
AIGENLINE001
 62
     7
 10
70.486237000000003
 20
188.516301
 30
0.0
 40
7.0001350000000002
 50
270.00002000000001
 51
359.99998999999991
  0
ARC
  5
3D
  8
0
  6
AIGENLINE001
 62
     7
 10
62.486072
 20
188.51621299999991
 30
0.0
 40
7.0000460000000002
 50
179.99926499999989
 51
269.99931499999991
  0
LINE
  5
3E
  8
0
  6
AIGENLINE001
 62
     7
 10
77.486400000000003
 20
188.51599999999991
 30
0.0
 11
77.486400000000003
 21
196.51599999999999
 31
0.0
  0
LINE
  5
3F
  8
0
  6
AIGENLINE001
 62
     7
 10
55.485900000000001
 20
188.51599999999991
 30
0.0
 11
55.485900000000001
 21
196.51599999999999
 31
0.0
  0
LINE
  5
40
  8
0
  6
AIGENLINE001
 62
     7
 10
62.485999999999997
 20
181.51599999999991
 30
0.0
 11
70.486199999999997
 21
181.51599999999991
 31
0.0
  0
LINE
  5
41
  8
0
  6
AIGENLINE001
 62
     7
 10
62.485999999999997
 20
203.51599999999991
 30
0.0
 11
70.486199999999997
 21
203.51599999999991
 31
0.0
  0
ARC
  5
42
  8
0
 62
     7
 10
142.8150629999999
 20
153.9690139999999
 30
0.0
 40
34.767338000000002
 50
318.21679199999988
 51
322.66463199999993
  0
ARC
  5
43
  8
0
 62
     7
 10
122.24547199999991
 20
171.97438099999991
 30
0.0
 40
62.103347999999997
 50
308.39919600000002
 51
318.47486099999992
  0
ARC
  5
44
  8
0
 62
     7
 10
148.473682
 20
144.22613399999989
 30
0.0
 40
20.901498999999991
 50
201.256272
 51
207.302437
  0
ARC
  5
45
  8
0
 62
     7
 10
160.14282800000001
 20
150.06233899999989
 30
0.0
 40
33.948076999999998
 50
207.02151499999999
 51
214.70902699999999
  0
ARC
  5
46
  8
0
 62
     7
 10
169.39598000000001
 20
156.0492659999999
 30
0.0
 40
44.965021999999998
 50
214.26655099999999
 51
225.21179699999999
  0
ARC
  5
47
  8
0
 62
     7
 10
158.88573099999991
 20
145.829014
 30
0.0
 40
30.308311
 50
225.70187899999999
 51
228.00482400000001
  0
ARC
  5
48
  8
0
 62
     7
 10
129.79401899999999
 20
136.837717
 30
0.0
 40
0.831454
 50
92.107546000000013
 51
177.86775399999991
  0
ARC
  5
49
  8
0
 62
     7
 10
129.761393
 20
136.86882700000001
 30
0.0
 40
0.7982510000000002
 50
180.01256100000001
 51
196.0216629999999
  0
LINE
  5
4A
  8
0
 62
     7
 10
58.256100000000011
 20
117.886
 30
0.0
 11
58.256100000000011
 21
118.18899999999989
 31
0.0
  0
LINE
  5
4B
  8
0
 62
     7
 10
58.256100000000011
 20
118.18899999999989
 30
0.0
 11
58.256100000000011
 21
118.82299999999989
 31
0.0
  0
LINE
  5
4C
  8
0
 62
     7
 10
57.7545
 20
117.886
 30
0.0
 11
57.7545
 21
118.18899999999989
 31
0.0
  0
LINE
  5
4D
  8
0
 62
     7
 10
57.7545
 20
118.18899999999989
 30
0.0
 11
57.7545
 21
118.82299999999989
 31
0.0
  0
LINE
  5
4E
  8
0
 62
     7
 10
57.7545
 20
117.886
 30
0.0
 11
57.825400000000002
 21
117.70099999999999
 31
0.0
  0
LINE
  5
4F
  8
0
 62
     7
 10
58.185099999999991
 20
117.70099999999999
 30
0.0
 11
58.256100000000011
 21
117.886
 31
0.0
  0
LINE
  5
50
  8
0
 62
     7
 10
58.185099999999991
 20
117.70099999999999
 30
0.0
 11
57.825400000000002
 21
117.70099999999999
 31
0.0
  0
LINE
  5
51
  8
0
 62
     7
 10
58.256100000000011
 20
117.886
 30
0.0
 11
57.7545
 21
117.886
 31
0.0
  0
LINE
  5
52
  8
0
 62
     7
 10
57.384500000000003
 20
118.18899999999989
 30
0.0
 11
57.384500000000003
 21
118.82299999999989
 31
0.0
  0
LINE
  5
53
  8
0
 62
     7
 10
58.626100000000001
 20
118.18899999999989
 30
0.0
 11
58.626100000000001
 21
118.82299999999989
 31
0.0
  0
LINE
  5
54
  8
0
 62
     7
 10
58.626100000000001
 20
118.18899999999989
 30
0.0
 11
57.384500000000003
 21
118.18899999999989
 31
0.0
  0
LINE
  5
55
  8
0
 62
     7
 10
58.890000000000001
 20
118.82299999999989
 30
0.0
 11
57.12060000000001
 21
118.82299999999989
 31
0.0
  0
LINE
  5
56
  8
0
 62
     7
 10
58.890000000000001
 20
118.82299999999989
 30
0.0
 11
58.890000000000001
 21
119.1689999999999
 31
0.0
  0
LINE
  5
57
  8
0
 62
     7
 10
57.12060000000001
 20
118.82299999999989
 30
0.0
 11
57.12060000000001
 21
119.1689999999999
 31
0.0
  0
LINE
  5
58
  8
0
 62
     7
 10
58.890000000000001
 20
119.1689999999999
 30
0.0
 11
57.12060000000001
 21
119.1689999999999
 31
0.0
  0
LINE
  5
59
  8
0
 62
     7
 10
58.256100000000011
 20
119.1689999999999
 30
0.0
 11
58.256100000000011
 21
122.16799999999991
 31
0.0
  0
LINE
  5
5A
  8
0
 62
     7
 10
57.7545
 20
119.1689999999999
 30
0.0
 11
57.7545
 21
122.16799999999991
 31
0.0
  0
LINE
  5
5B
  8
0
 62
     7
 10
153.96299999999999
 20
117.886
 30
0.0
 11
153.96299999999999
 21
118.18899999999989
 31
0.0
  0
LINE
  5
5C
  8
0
 62
     7
 10
153.96299999999999
 20
118.18899999999989
 30
0.0
 11
153.96299999999999
 21
118.82299999999989
 31
0.0
  0
LINE
  5
5D
  8
0
 62
     7
 10
154.465
 20
117.886
 30
0.0
 11
154.465
 21
118.18899999999989
 31
0.0
  0
LINE
  5
5E
  8
0
 62
     7
 10
154.465
 20
118.18899999999989
 30
0.0
 11
154.465
 21
118.82299999999989
 31
0.0
  0
LINE
  5
5F
  8
0
 62
     7
 10
154.465
 20
117.886
 30
0.0
 11
154.39400000000001
 21
117.70099999999999
 31
0.0
  0
LINE
  5
60
  8
0
 62
     7
 10
154.03399999999999
 20
117.70099999999999
 30
0.0
 11
153.96299999999999
 21
117.886
 31
0.0
  0
LINE
  5
61
  8
0
 62
     7
 10
154.03399999999999
 20
117.70099999999999
 30
0.0
 11
154.39400000000001
 21
117.70099999999999
 31
0.0
  0
LINE
  5
62
  8
0
 62
     7
 10
153.96299999999999
 20
117.886
 30
0.0
 11
154.465
 21
117.886
 31
0.0
  0
LINE
  5
63
  8
0
 62
     7
 10
154.83500000000001
 20
118.18899999999989
 30
0.0
 11
154.83500000000001
 21
118.82299999999989
 31
0.0
  0
LINE
  5
64
  8
0
 62
     7
 10
153.59299999999999
 20
118.18899999999989
 30
0.0
 11
153.59299999999999
 21
118.82299999999989
 31
0.0
  0
LINE
  5
65
  8
0
 62
     7
 10
153.59299999999999
 20
118.18899999999989
 30
0.0
 11
154.83500000000001
 21
118.18899999999989
 31
0.0
  0
LINE
  5
66
  8
0
 62
     7
 10
153.32900000000001
 20
118.82299999999989
 30
0.0
 11
155.0979999999999
 21
118.82299999999989
 31
0.0
  0
LINE
  5
67
  8
0
 62
     7
 10
153.32900000000001
 20
118.82299999999989
 30
0.0
 11
153.32900000000001
 21
119.1689999999999
 31
0.0
  0
LINE
  5
68
  8
0
 62
     7
 10
155.0979999999999
 20
118.82299999999989
 30
0.0
 11
155.0979999999999
 21
119.1689999999999
 31
0.0
  0
LINE
  5
69
  8
0
 62
     7
 10
153.32900000000001
 20
119.1689999999999
 30
0.0
 11
155.0979999999999
 21
119.1689999999999
 31
0.0
  0
LINE
  5
6A
  8
0
 62
     7
 10
153.96299999999999
 20
119.1689999999999
 30
0.0
 11
153.96299999999999
 21
122.16799999999991
 31
0.0
  0
LINE
  5
6B
  8
0
 62
     7
 10
154.465
 20
119.1689999999999
 30
0.0
 11
154.465
 21
122.16799999999991
 31
0.0
  0
LINE
  5
6C
  8
0
 62
     7
 10
75.715800000000002
 20
117.886
 30
0.0
 11
75.715800000000002
 21
118.18899999999989
 31
0.0
  0
LINE
  5
6D
  8
0
 62
     7
 10
75.715800000000002
 20
118.18899999999989
 30
0.0
 11
75.715800000000002
 21
118.82299999999989
 31
0.0
  0
LINE
  5
6E
  8
0
 62
     7
 10
76.217399999999984
 20
117.886
 30
0.0
 11
76.217399999999984
 21
118.18899999999989
 31
0.0
  0
LINE
  5
6F
  8
0
 62
     7
 10
76.217399999999984
 20
118.18899999999989
 30
0.0
 11
76.217399999999984
 21
118.82299999999989
 31
0.0
  0
LINE
  5
70
  8
0
 62
     7
 10
76.217399999999984
 20
117.886
 30
0.0
 11
76.1464
 21
117.70099999999999
 31
0.0
  0
LINE
  5
71
  8
0
 62
     7
 10
75.786699999999996
 20
117.70099999999999
 30
0.0
 11
75.715800000000002
 21
117.886
 31
0.0
  0
LINE
  5
72
  8
0
 62
     7
 10
75.786699999999996
 20
117.70099999999999
 30
0.0
 11
76.1464
 21
117.70099999999999
 31
0.0
  0
LINE
  5
73
  8
0
 62
     7
 10
75.715800000000002
 20
117.886
 30
0.0
 11
76.217399999999984
 21
117.886
 31
0.0
  0
LINE
  5
74
  8
0
 62
     7
 10
76.587400000000002
 20
118.18899999999989
 30
0.0
 11
76.587400000000002
 21
118.82299999999989
 31
0.0
  0
LINE
  5
75
  8
0
 62
     7
 10
75.345699999999994
 20
118.18899999999989
 30
0.0
 11
75.345699999999994
 21
118.82299999999989
 31
0.0
  0
LINE
  5
76
  8
0
 62
     7
 10
75.345699999999994
 20
118.18899999999989
 30
0.0
 11
76.587400000000002
 21
118.18899999999989
 31
0.0
  0
LINE
  5
77
  8
0
 62
     7
 10
75.081900000000005
 20
118.82299999999989
 30
0.0
 11
76.851299999999995
 21
118.82299999999989
 31
0.0
  0
LINE
  5
78
  8
0
 62
     7
 10
75.081900000000005
 20
118.82299999999989
 30
0.0
 11
75.081900000000005
 21
119.1689999999999
 31
0.0
  0
LINE
  5
79
  8
0
 62
     7
 10
76.851299999999995
 20
118.82299999999989
 30
0.0
 11
76.851299999999995
 21
119.1689999999999
 31
0.0
  0
LINE
  5
7A
  8
0
 62
     7
 10
75.081900000000005
 20
119.1689999999999
 30
0.0
 11
76.851299999999995
 21
119.1689999999999
 31
0.0
  0
LINE
  5
7B
  8
0
 62
     7
 10
75.715800000000002
 20
119.1689999999999
 30
0.0
 11
75.715800000000002
 21
122.16799999999991
 31
0.0
  0
LINE
  5
7C
  8
0
 62
     7
 10
76.217399999999984
 20
119.1689999999999
 30
0.0
 11
76.217399999999984
 21
122.16799999999991
 31
0.0
  0
LINE
  5
7D
  8
0
  6
AIGENLINE002
 62
     7
 10
87.972399999999993
 20
119.1689999999999
 30
0.0
 11
45.542199999999987
 21
119.1689999999999
 31
0.0
  0
LINE
  5
7E
  8
0
  6
AIGENLINE002
 62
     7
 10
44.870600000000003
 20
119.1689999999999
 30
0.0
 11
40.400399999999998
 21
119.1689999999999
 31
0.0
  0
LINE
  5
7F
  8
0
  6
AIGENLINE002
 62
     7
 10
44.870600000000003
 20
122.16799999999991
 30
0.0
 11
40.400399999999998
 21
122.16799999999991
 31
0.0
  0
LINE
  5
80
  8
0
  6
AIGENLINE002
 62
     7
 10
54.21009999999999
 20
122.16799999999991
 30
0.0
 11
45.542400000000001
 21
122.16799999999991
 31
0.0
  0
LINE
  5
81
  8
0
 62
     7
 10
41.258000000000003
 20
119.1689999999999
 30
0.0
 11
41.258000000000003
 21
122.16799999999991
 31
0.0
  0
LINE
  5
82
  8
0
  6
AIGENLINE002
 62
     7
 10
90.531699999999987
 20
122.16799999999991
 30
0.0
 11
78.846500000000006
 21
122.16799999999991
 31
0.0
  0
LINE
  5
83
  8
0
 62
     7
 10
41.258000000000003
 20
119.2199999999999
 30
0.0
 11
41.258000000000003
 21
114.59699999999999
 31
0.0
  0
LINE
  5
84
  8
0
 62
     7
 10
41.258000000000003
 20
119.1689999999999
 30
0.0
 11
40.834999999999987
 21
116.7679999999999
 31
0.0
  0
LINE
  5
85
  8
0
 62
     7
 10
40.834999999999987
 20
116.7679999999999
 30
0.0
 11
41.681399999999996
 21
116.7679999999999
 31
0.0
  0
LINE
  5
86
  8
0
 62
     7
 10
41.681399999999996
 20
116.7679999999999
 30
0.0
 11
41.258000000000003
 21
119.1689999999999
 31
0.0
  0
LINE
  5
87
  8
0
 62
     7
 10
41.258000000000003
 20
122.277
 30
0.0
 11
41.258000000000003
 21
132.46299999999991
 31
0.0
  0
LINE
  5
88
  8
0
 62
     7
 10
41.258000000000003
 20
122.16799999999991
 30
0.0
 11
41.681399999999996
 21
124.5689999999999
 31
0.0
  0
LINE
  5
89
  8
0
 62
     7
 10
41.681399999999996
 20
124.5689999999999
 30
0.0
 11
40.834999999999987
 21
124.5689999999999
 31
0.0
  0
LINE
  5
8A
  8
0
 62
     7
 10
40.834999999999987
 20
124.5689999999999
 30
0.0
 11
41.258000000000003
 21
122.16799999999991
 31
0.0
  0
LINE
  5
8B
  8
0
 62
     7
 10
136.81100000000001
 20
202.01899999999989
 30
0.0
 11
119.746
 21
202.01899999999989
 31
0.0
  0
LINE
  5
8C
  8
0
 62
     7
 10
70.094200000000001
 20
189.7459999999999
 30
0.0
 11
68.112399999999994
 21
190.8899999999999
 31
0.0
  0
LINE
  5
8D
  8
0
 62
     7
 10
68.112399999999994
 20
190.8899999999999
 30
0.0
 11
69.256699999999995
 21
188.9079999999999
 31
0.0
  0
LINE
  5
8E
  8
0
 62
     7
 10
69.256699999999995
 20
188.9079999999999
 30
0.0
 11
70.094200000000001
 21
189.7459999999999
 31
0.0
  0
LINE
  5
8F
  8
0
 62
     7
 10
62.883400000000002
 20
195.29199999999989
 30
0.0
 11
64.865200000000002
 21
194.148
 31
0.0
  0
LINE
  5
90
  8
0
 62
     7
 10
64.865200000000002
 20
194.148
 30
0.0
 11
63.7211
 21
196.12999999999991
 31
0.0
  0
LINE
  5
91
  8
0
 62
     7
 10
63.7211
 20
196.12999999999991
 30
0.0
 11
62.883400000000002
 21
195.29199999999989
 31
0.0
  0
LINE
  5
92
  8
0
 62
     7
 10
61.373899999999992
 20
197.6279999999999
 30
0.0
 11
77.098299999999995
 21
181.905
 31
0.0
  0
LINE
  5
93
  8
0
 62
     7
 10
139.47799999999989
 20
198.51400000000001
 30
0.0
 11
141.46000000000001
 21
197.37
 31
0.0
  0
LINE
  5
94
  8
0
 62
     7
 10
141.46000000000001
 20
197.37
 30
0.0
 11
140.31599999999989
 21
199.352
 31
0.0
  0
LINE
  5
95
  8
0
 62
     7
 10
140.31599999999989
 20
199.352
 30
0.0
 11
139.47799999999989
 21
198.51400000000001
 31
0.0
  0
LINE
  5
96
  8
0
 62
     7
 10
136.81100000000001
 20
202.01899999999989
 30
0.0
 11
141.46000000000001
 21
197.37
 31
0.0
  0
LINE
  5
97
  8
0
 62
     7
 10
136.053
 20
190.3059999999999
 30
0.0
 11
135.46100000000001
 21
192.51699999999991
 31
0.0
  0
LINE
  5
98
  8
0
 62
     7
 10
135.46100000000001
 20
192.51699999999991
 30
0.0
 11
134.86899999999989
 21
190.3059999999999
 31
0.0
  0
LINE
  5
99
  8
0
 62
     7
 10
134.86899999999989
 20
190.3059999999999
 30
0.0
 11
136.053
 21
190.3059999999999
 31
0.0
  0
LINE
  5
9A
  8
0
 62
     7
 10
134.8829999999999
 20
199.22699999999989
 30
0.0
 11
135.47499999999991
 21
197.01699999999991
 31
0.0
  0
LINE
  5
9B
  8
0
 62
     7
 10
135.47499999999991
 20
197.01699999999991
 30
0.0
 11
136.0679999999999
 21
199.22699999999989
 31
0.0
  0
LINE
  5
9C
  8
0
 62
     7
 10
136.0679999999999
 20
199.22699999999989
 30
0.0
 11
134.8829999999999
 21
199.22699999999989
 31
0.0
  0
LINE
  5
9D
  8
0
 62
     7
 10
135.4679999999999
 20
199.809
 30
0.0
 11
135.4679999999999
 21
189.36399999999989
 31
0.0
  0
LINE
  5
9E
  8
0
 62
     7
 10
134.76900000000001
 20
197.01699999999991
 30
0.0
 11
140.45500000000001
 21
197.01699999999991
 31
0.0
  0
LINE
  5
9F
  8
0
 62
     7
 10
134.76900000000001
 20
192.51599999999991
 30
0.0
 11
142.57599999999991
 21
192.51599999999991
 31
0.0
  0
LINE
  5
A0
  8
0
 62
     7
 10
147.5029999999999
 20
206.03700000000001
 30
0.0
 11
149.71299999999999
 21
206.63
 31
0.0
  0
LINE
  5
A1
  8
0
 62
     7
 10
149.71299999999999
 20
206.63
 30
0.0
 11
147.5029999999999
 21
207.22200000000001
 31
0.0
  0
LINE
  5
A2
  8
0
 62
     7
 10
147.5029999999999
 20
207.22200000000001
 30
0.0
 11
147.5029999999999
 21
206.03700000000001
 31
0.0
  0
LINE
  5
A3
  8
0
 62
     7
 10
155.40299999999999
 20
206.03700000000001
 30
0.0
 11
157.614
 21
206.63
 31
0.0
  0
LINE
  5
A4
  8
0
 62
     7
 10
157.614
 20
206.63
 30
0.0
 11
155.40299999999999
 21
207.22200000000001
 31
0.0
  0
LINE
  5
A5
  8
0
 62
     7
 10
155.40299999999999
 20
207.22200000000001
 30
0.0
 11
155.40299999999999
 21
206.03700000000001
 31
0.0
  0
LINE
  5
A6
  8
0
 62
     7
 10
151.92400000000001
 20
207.22200000000001
 30
0.0
 11
149.71299999999999
 21
206.63
 31
0.0
  0
LINE
  5
A7
  8
0
 62
     7
 10
149.71299999999999
 20
206.63
 30
0.0
 11
151.92400000000001
 21
206.03700000000001
 31
0.0
  0
LINE
  5
A8
  8
0
 62
     7
 10
151.92400000000001
 20
206.03700000000001
 30
0.0
 11
151.92400000000001
 21
207.22200000000001
 31
0.0
  0
LINE
  5
A9
  8
0
 62
     7
 10
144.02499999999989
 20
207.22200000000001
 30
0.0
 11
141.81399999999999
 21
206.63
 31
0.0
  0
LINE
  5
AA
  8
0
 62
     7
 10
141.81399999999999
 20
206.63
 30
0.0
 11
144.02499999999989
 21
206.03700000000001
 31
0.0
  0
LINE
  5
AB
  8
0
 62
     7
 10
144.02499999999989
 20
206.03700000000001
 30
0.0
 11
144.02499999999989
 21
207.22200000000001
 31
0.0
  0
LINE
  5
AC
  8
0
 62
     7
 10
157.614
 20
206.63
 30
0.0
 11
141.81399999999999
 21
206.63
 31
0.0
  0
LINE
  5
AD
  8
0
 62
     7
 10
141.81399999999999
 20
207.33000000000001
 30
0.0
 11
141.81399999999999
 21
198.524
 31
0.0
  0
LINE
  5
AE
  8
0
 62
     7
 10
149.71299999999999
 20
207.33000000000001
 30
0.0
 11
149.71299999999999
 21
202.05500000000001
 31
0.0
  0
LINE
  5
AF
  8
0
 62
     7
 10
157.614
 20
207.33000000000001
 30
0.0
 11
157.614
 21
198.72399999999999
 31
0.0
  0
LINE
  5
B0
  8
0
 62
     7
 10
165.73699999999999
 20
194.72699999999989
 30
0.0
 11
166.32900000000001
 21
192.51599999999991
 31
0.0
  0
LINE
  5
B1
  8
0
 62
     7
 10
166.32900000000001
 20
192.51599999999991
 30
0.0
 11
166.92099999999991
 21
194.72699999999989
 31
0.0
  0
LINE
  5
B2
  8
0
 62
     7
 10
166.92099999999991
 20
194.72699999999989
 30
0.0
 11
165.73699999999999
 21
194.72699999999989
 31
0.0
  0
LINE
  5
B3
  8
0
 62
     7
 10
165.73699999999999
 20
189.12700000000001
 30
0.0
 11
166.32900000000001
 21
186.91599999999991
 31
0.0
  0
LINE
  5
B4
  8
0
 62
     7
 10
166.32900000000001
 20
186.91599999999991
 30
0.0
 11
166.92099999999991
 21
189.12700000000001
 31
0.0
  0
LINE
  5
B5
  8
0
 62
     7
 10
166.92099999999991
 20
189.12700000000001
 30
0.0
 11
165.73699999999999
 21
189.12700000000001
 31
0.0
  0
LINE
  5
B6
  8
0
 62
     7
 10
166.90700000000001
 20
190.3059999999999
 30
0.0
 11
166.31399999999999
 21
192.51599999999991
 31
0.0
  0
LINE
  5
B7
  8
0
 62
     7
 10
166.31399999999999
 20
192.51599999999991
 30
0.0
 11
165.72200000000001
 21
190.3059999999999
 31
0.0
  0
LINE
  5
B8
  8
0
 62
     7
 10
165.72200000000001
 20
190.3059999999999
 30
0.0
 11
166.90700000000001
 21
190.3059999999999
 31
0.0
  0
LINE
  5
B9
  8
0
 62
     7
 10
166.90700000000001
 20
197.8059999999999
 30
0.0
 11
166.31399999999999
 21
200.01699999999991
 31
0.0
  0
LINE
  5
BA
  8
0
 62
     7
 10
166.31399999999999
 20
200.01699999999991
 30
0.0
 11
165.72200000000001
 21
197.8059999999999
 31
0.0
  0
LINE
  5
BB
  8
0
 62
     7
 10
165.72200000000001
 20
197.8059999999999
 30
0.0
 11
166.90700000000001
 21
197.8059999999999
 31
0.0
  0
LINE
  5
BC
  8
0
 62
     7
 10
166.322
 20
186.91599999999991
 30
0.0
 11
166.322
 21
200.01699999999991
 31
0.0
  0
LINE
  5
BD
  8
0
 62
     7
 10
154.81999999999999
 20
200.01699999999991
 30
0.0
 11
167.0209999999999
 21
200.01699999999991
 31
0.0
  0
LINE
  5
BE
  8
0
 62
     7
 10
155.00700000000001
 20
186.91599999999991
 30
0.0
 11
167.0209999999999
 21
186.91599999999991
 31
0.0
  0
LINE
  5
BF
  8
0
 62
     7
 10
156.65600000000001
 20
192.51599999999991
 30
0.0
 11
167.0209999999999
 21
192.51599999999991
 31
0.0
  0
LINE
  5
C0
  8
0
 62
     7
 10
145.06399999999991
 20
177.82299999999989
 30
0.0
 11
145.06399999999991
 21
186.19499999999999
 31
0.0
  0
LINE
  5
C1
  8
0
 62
     7
 10
154.364
 20
177.82299999999989
 30
0.0
 11
154.364
 21
186.19499999999999
 31
0.0
  0
LINE
  5
C2
  8
0
 62
     7
 10
152.15299999999999
 20
177.93899999999999
 30
0.0
 11
154.364
 21
178.53099999999989
 31
0.0
  0
LINE
  5
C3
  8
0
 62
     7
 10
154.364
 20
178.53099999999989
 30
0.0
 11
152.15299999999999
 21
179.12299999999991
 31
0.0
  0
LINE
  5
C4
  8
0
 62
     7
 10
152.15299999999999
 20
179.12299999999991
 30
0.0
 11
152.15299999999999
 21
177.93899999999999
 31
0.0
  0
LINE
  5
C5
  8
0
 62
     7
 10
147.27399999999989
 20
179.10900000000001
 30
0.0
 11
145.06399999999991
 21
178.51699999999991
 31
0.0
  0
LINE
  5
C6
  8
0
 62
     7
 10
145.06399999999991
 20
178.51699999999991
 30
0.0
 11
147.27399999999989
 21
177.92400000000001
 31
0.0
  0
LINE
  5
C7
  8
0
 62
     7
 10
147.27399999999989
 20
177.92400000000001
 30
0.0
 11
147.27399999999989
 21
179.10900000000001
 31
0.0
  0
LINE
  5
C8
  8
0
 62
     7
 10
154.364
 20
178.52399999999989
 30
0.0
 11
145.06399999999991
 21
178.52399999999989
 31
0.0
  0
LINE
  5
C9
  8
0
  6
AIGENLINE001
 62
     7
 10
157.614
 20
196.17099999999999
 30
0.0
 11
157.614
 21
198.31599999999989
 31
0.0
  0
ARC
  5
CA
  8
0
 62
     7
 10
157.595416
 20
197.19753
 30
0.0
 40
0.518936
 50
2.105869999999999
 51
87.973093999999989
  0
ARC
  5
CB
  8
0
 62
     7
 10
157.63316199999991
 20
197.1964909999999
 30
0.0
 40
0.5200110000000001
 50
92.137067000000016
 51
177.783929
  0
ARC
  5
CC
  8
0
 62
     7
 10
157.6137699999999
 20
197.216599
 30
0.0
 40
0.5002310000000002
 50
179.99996999999991
 51
270.00002000000001
  0
ARC
  5
CD
  8
0
 62
     7
 10
157.6137699999999
 20
197.216599
 30
0.0
 40
0.5002310000000002
 50
270.00002000000001
 51
359.99998999999991
  0
LINE
  5
CE
  8
0
  6
AIGENLINE001
 62
     7
 10
158.6689999999999
 20
197.21700000000001
 30
0.0
 11
156.613
 21
197.21700000000001
 31
0.0
  0
LINE
  5
CF
  8
0
  6
AIGENLINE001
 62
     7
 10
141.81399999999999
 20
195.97099999999989
 30
0.0
 11
141.81399999999999
 21
198.1159999999999
 31
0.0
  0
ARC
  5
D0
  8
0
 62
     7
 10
141.79475299999999
 20
196.99759
 30
0.0
 40
0.5189110000000001
 50
2.1005849999999988
 51
87.899405000000002
  0
ARC
  5
D1
  8
0
 62
     7
 10
141.83316499999989
 20
196.99650199999999
 30
0.0
 40
0.5200110000000001
 50
92.137067000000016
 51
177.783929
  0
ARC
  5
D2
  8
0
 62
     7
 10
141.81377299999991
 20
197.01660999999999
 30
0.0
 40
0.5002310000000002
 50
179.99996999999991
 51
270.00002000000001
  0
ARC
  5
D3
  8
0
 62
     7
 10
141.7950669999999
 20
197.03460200000001
 30
0.0
 40
0.5185610000000001
 50
272.06736099999989
 51
358.01162299999987
  0
LINE
  5
D4
  8
0
  6
AIGENLINE001
 62
     7
 10
142.869
 20
197.01699999999991
 30
0.0
 11
140.8129999999999
 21
197.01699999999991
 31
0.0
  0
LINE
  5
D5
  8
0
  6
AIGENLINE003
 62
     7
 10
155.51699999999991
 20
192.51599999999991
 30
0.0
 11
143.70699999999999
 21
192.51599999999991
 31
0.0
  0
LINE
  5
D6
  8
0
  6
AIGENLINE003
 62
     7
 10
149.71299999999999
 20
184.8959999999999
 30
0.0
 11
149.71299999999999
 21
201.1109999999999
 31
0.0
  0
ARC
  5
D7
  8
0
  6
AIGENLINE001
 62
     7
 10
149.62532699999991
 20
192.42850999999999
 30
0.0
 40
2.389672
 50
2.1042320000000001
 51
87.887175999999997
  0
ARC
  5
D8
  8
0
  6
AIGENLINE001
 62
     7
 10
149.802007
 20
192.428031
 30
0.0
 40
2.3901689999999989
 50
92.123859999999993
 51
177.884691
  0
ARC
  5
D9
  8
0
  6
AIGENLINE001
 62
     7
 10
149.80117899999991
 20
192.604005
 30
0.0
 40
2.3893230000000001
 50
182.10476
 51
267.89526999999998
  0
ARC
  5
DA
  8
0
  6
AIGENLINE001
 62
     7
 10
149.62489199999999
 20
192.6047889999999
 30
0.0
 40
2.390136
 50
272.12285400000002
 51
357.8771549999999
  0
ARC
  5
DB
  8
0
  6
AIGENLINE001
 62
     7
 10
149.7135989999999
 20
192.51607999999999
 30
0.0
 40
3.9003899999999998
 50
0.00254
 51
90.002510999999984
  0
ARC
  5
DC
  8
0
  6
AIGENLINE001
 62
     7
 10
149.71360000000001
 20
192.516425
 30
0.0
 40
3.9000460000000001
 50
90.002531000000005
 51
180.00254099999989
  0
ARC
  5
DD
  8
0
  6
AIGENLINE001
 62
     7
 10
149.713427
 20
192.51625300000001
 30
0.0
 40
3.8998719999999998
 50
179.99996999999991
 51
270.00002000000001
  0
ARC
  5
DE
  8
0
  6
AIGENLINE001
 62
     7
 10
149.71377100000001
 20
192.5165989999999
 30
0.0
 40
3.9002180000000002
 50
269.99495899999999
 51
359.99492900000001
  0
LINE
  5
DF
  8
0
 62
     7
 10
165.7529999999999
 20
132.75700000000001
 30
0.0
 11
166.55199999999999
 21
132.04900000000001
 31
0.0
  0
LINE
  5
E0
  8
0
 62
     7
 10
167.41099999999989
 20
134.62399999999991
 30
0.0
 11
168.18899999999999
 21
133.935
 31
0.0
  0
LINE
  5
E1
  8
0
 62
     7
 10
170.714
 20
104.5439999999999
 30
0.0
 11
170.714
 21
131.34200000000001
 31
0.0
  0
LINE
  5
E2
  8
0
 62
     7
 10
149.71299999999999
 20
104.5439999999999
 30
0.0
 11
149.71299999999999
 21
117.95999999999989
 31
0.0
  0
LINE
  5
E3
  8
0
 62
     7
 10
151.92500000000001
 20
105.8279999999999
 30
0.0
 11
149.71399999999991
 21
105.2359999999999
 31
0.0
  0
LINE
  5
E4
  8
0
 62
     7
 10
149.71399999999991
 20
105.2359999999999
 30
0.0
 11
151.92500000000001
 21
104.64400000000001
 31
0.0
  0
LINE
  5
E5
  8
0
 62
     7
 10
151.92500000000001
 20
104.64400000000001
 30
0.0
 11
151.92500000000001
 21
105.8279999999999
 31
0.0
  0
LINE
  5
E6
  8
0
 62
     7
 10
168.5029999999999
 20
104.65899999999991
 30
0.0
 11
170.714
 21
105.251
 31
0.0
  0
LINE
  5
E7
  8
0
 62
     7
 10
170.714
 20
105.251
 30
0.0
 11
168.5029999999999
 21
105.8429999999999
 31
0.0
  0
LINE
  5
E8
  8
0
 62
     7
 10
168.5029999999999
 20
105.8429999999999
 30
0.0
 11
168.5029999999999
 21
104.65899999999991
 31
0.0
  0
LINE
  5
E9
  8
0
 62
     7
 10
149.71399999999991
 20
105.244
 30
0.0
 11
170.714
 21
105.244
 31
0.0
  0
LINE
  5
EA
  8
0
 62
     7
 10
160.71299999999991
 20
111.3369999999999
 30
0.0
 11
160.71299999999991
 21
121.5329999999999
 31
0.0
  0
LINE
  5
EB
  8
0
 62
     7
 10
138.714
 20
111.3369999999999
 30
0.0
 11
138.714
 21
121.5329999999999
 31
0.0
  0
LINE
  5
EC
  8
0
 62
     7
 10
140.92400000000001
 20
112.621
 30
0.0
 11
138.714
 21
112.029
 31
0.0
  0
LINE
  5
ED
  8
0
 62
     7
 10
138.714
 20
112.029
 30
0.0
 11
140.92400000000001
 21
111.43600000000001
 31
0.0
  0
LINE
  5
EE
  8
0
 62
     7
 10
140.92400000000001
 20
111.43600000000001
 30
0.0
 11
140.92400000000001
 21
112.621
 31
0.0
  0
LINE
  5
EF
  8
0
 62
     7
 10
158.5029999999999
 20
111.45099999999999
 30
0.0
 11
160.71299999999991
 21
112.04300000000001
 31
0.0
  0
LINE
  5
F0
  8
0
 62
     7
 10
160.71299999999991
 20
112.04300000000001
 30
0.0
 11
158.5029999999999
 21
112.63500000000001
 31
0.0
  0
LINE
  5
F1
  8
0
 62
     7
 10
158.5029999999999
 20
112.63500000000001
 30
0.0
 11
158.5029999999999
 21
111.45099999999999
 31
0.0
  0
LINE
  5
F2
  8
0
 62
     7
 10
138.714
 20
112.036
 30
0.0
 11
160.71299999999991
 21
112.036
 31
0.0
  0
LINE
  5
F3
  8
0
 62
     7
 10
146.88499999999991
 20
128.37899999999991
 30
0.0
 11
147.477
 21
126.16799999999991
 31
0.0
  0
LINE
  5
F4
  8
0
 62
     7
 10
147.477
 20
126.16799999999991
 30
0.0
 11
148.0689999999999
 21
128.37899999999991
 31
0.0
  0
LINE
  5
F5
  8
0
 62
     7
 10
148.0689999999999
 20
128.37899999999991
 30
0.0
 11
146.88499999999991
 21
128.37899999999991
 31
0.0
  0
LINE
  5
F6
  8
0
 62
     7
 10
148.05500000000001
 20
135.458
 30
0.0
 11
147.46299999999991
 21
137.6689999999999
 31
0.0
  0
LINE
  5
F7
  8
0
 62
     7
 10
147.46299999999991
 20
137.6689999999999
 30
0.0
 11
146.87100000000001
 21
135.458
 31
0.0
  0
LINE
  5
F8
  8
0
 62
     7
 10
146.87100000000001
 20
135.458
 30
0.0
 11
148.05500000000001
 21
135.458
 31
0.0
  0
LINE
  5
F9
  8
0
 62
     7
 10
147.47
 20
126.16799999999991
 30
0.0
 11
147.47
 21
137.6689999999999
 31
0.0
  0
ARC
  5
FA
  8
0
  6
AIGENLINE001
 62
     7
 10
152.29340799999991
 20
146.29808799999989
 30
0.0
 40
21.178029999999989
 50
239.77414099999999
 51
251.89930799999999
  0
ARC
  5
FB
  8
0
  6
AIGENLINE001
 62
     7
 10
161.16277099999999
 20
162.19038599999999
 30
0.0
 40
39.376100000000001
 50
235.682345
 51
240.2642109999999
  0
ARC
  5
FC
  8
0
  6
AIGENLINE001
 62
     7
 10
143.20993799999991
 20
150.71395000000001
 30
0.0
 40
31.256799999999998
 50
308.67533300000002
 51
318.94303500000001
  0
ARC
  5
FD
  8
0
  6
AIGENLINE001
 62
     7
 10
283.84557599999999
 20
27.728401999999999
 30
0.0
 40
155.56893400000001
 50
137.3683629999999
 51
138.807728
  0
ARC
  5
FE
  8
0
  6
AIGENLINE001
 62
     7
 10
169.38060999999999
 20
135.16707199999991
 30
0.0
 40
0.333732
 50
2.372876999999999
 51
92.314468999999988
  0
ARC
  5
FF
  8
0
  6
AIGENLINE001
 62
     7
 10
169.44091199999991
 20
135.19748100000001
 30
0.0
 40
0.311902
 50
103.6828019999999
 51
152.51445899999999
  0
ARC
  5
100
  8
0
  6
AIGENLINE001
 62
     7
 10
168.544961
 20
133.90694899999991
 30
0.0
 40
1.1735690000000001
 50
316.05021699999992
 51
354.99506700000001
  0
ARC
  5
101
  8
0
  6
AIGENLINE001
 62
     7
 10
148.43503100000001
 20
150.576357
 30
0.0
 40
25.932017999999999
 50
298.21209900000002
 51
311.71692899999999
  0
ARC
  5
102
  8
0
  6
AIGENLINE001
 62
     7
 10
152.0009419999999
 20
146.27797599999991
 30
0.0
 40
20.351558999999991
 50
312.27610399999998
 51
327.494463
  0
ARC
  5
103
  8
0
  6
AIGENLINE001
 62
     7
 10
148.236527
 20
150.336072
 30
0.0
 40
24.780870999999991
 50
282.76967500000001
 51
322.04073399999987
  0
ARC
  5
104
  8
0
  6
AIGENLINE001
 62
     7
 10
149.58234400000001
 20
148.81551999999999
 30
0.0
 40
22.787492999999991
 50
322.97375899999992
 51
329.80624799999998
  0
ARC
  5
105
  8
0
  6
AIGENLINE001
 62
     7
 10
169.920016
 20
136.855052
 30
0.0
 40
0.8135819999999998
 50
90.456887000000009
 51
142.07506599999991
  0
ARC
  5
106
  8
0
  6
AIGENLINE001
 62
     7
 10
155.96217699999991
 20
154.76886499999989
 30
0.0
 40
30.314692999999991
 50
231.2190589999999
 51
235.892493
  0
ARC
  5
107
  8
0
  6
AIGENLINE001
 62
     7
 10
169.69347300000001
 20
172.32636199999999
 30
0.0
 40
52.602913000000001
 50
221.66822799999991
 51
231.5380549999999
  0
ARC
  5
108
  8
0
  6
AIGENLINE001
 62
     7
 10
129.756955
 20
136.855052
 30
0.0
 40
0.8135819999999998
 50
37.924914000000001
 51
89.543093000000013
  0
LINE
  5
109
  8
0
  6
AIGENLINE001
 62
     7
 10
152.01400000000001
 20
124.66800000000001
 30
0.0
 11
153.71399999999991
 21
126.16799999999991
 31
0.0
  0
LINE
  5
10A
  8
0
  6
AIGENLINE001
 62
     7
 10
145.714
 20
126.16799999999991
 30
0.0
 11
147.4129999999999
 21
124.66800000000001
 31
0.0
  0
LINE
  5
10B
  8
0
  6
AIGENLINE001
 62
     7
 10
145.714
 20
126.16799999999991
 30
0.0
 11
153.71399999999991
 21
126.16799999999991
 31
0.0
  0
LINE
  5
10C
  8
0
  6
AIGENLINE001
 62
     7
 10
152.01400000000001
 20
124.66800000000001
 30
0.0
 11
152.01400000000001
 21
121.1689999999999
 31
0.0
  0
LINE
  5
10D
  8
0
  6
AIGENLINE001
 62
     7
 10
147.4129999999999
 20
121.1689999999999
 30
0.0
 11
147.4129999999999
 21
124.66800000000001
 31
0.0
  0
LINE
  5
10E
  8
0
  6
AIGENLINE001
 62
     7
 10
169.714
 20
135.18100000000001
 30
0.0
 11
169.714
 21
133.80500000000001
 31
0.0
  0
LINE
  5
10F
  8
0
 62
     7
 10
170.714
 20
136.86899999999989
 30
0.0
 11
170.714
 21
133.55099999999999
 31
0.0
  0
ARC
  5
110
  8
0
 62
     7
 10
169.6952959999999
 20
133.55832899999999
 30
0.0
 40
1.0189010000000001
 50
318.51168599999988
 51
359.60747199999997
  0
LINE
  5
111
  8
0
 62
     7
 10
160.71299999999991
 20
122.996
 30
0.0
 11
160.71299999999991
 21
122.16799999999991
 31
0.0
  0
ARC
  5
112
  8
0
 62
     7
 10
161.2161999999999
 20
122.993998
 30
0.0
 40
0.502862
 50
141.96283600000001
 51
179.78852199999989
  0
LINE
  5
113
  8
0
 62
     7
 10
129.76300000000001
 20
137.6689999999999
 30
0.0
 11
169.91399999999999
 21
137.6689999999999
 31
0.0
  0
ARC
  5
114
  8
0
 62
     7
 10
169.88359800000001
 20
136.838007
 30
0.0
 40
0.8311399999999999
 50
2.113024999999999
 51
87.936293999999975
  0
LINE
  5
115
  8
0
 62
     7
 10
77.486000000000004
 20
122.996
 30
0.0
 11
77.486000000000004
 21
122.16799999999991
 31
0.0
  0
ARC
  5
116
  8
0
 62
     7
 10
77.990635999999995
 20
122.994282
 30
0.0
 40
0.5046109999999999
 50
142.158895
 51
179.821462
  0
ARC
  5
117
  8
0
 62
     7
 10
70.216374999999999
 20
143.35396399999999
 30
0.0
 40
18.496836999999989
 50
332.65049199999999
 51
338.745025
  0
ARC
  5
118
  8
0
 62
     7
 10
60.743173999999989
 20
148.08840900000001
 30
0.0
 40
29.086587000000002
 50
327.40507300000002
 51
332.9399029999999
  0
ARC
  5
119
  8
0
 62
     7
 10
47.19183499999999
 20
156.61097699999991
 30
0.0
 40
45.094824999999993
 50
312.387539
 51
327.557275
  0
ARC
  5
11A
  8
0
 62
     7
 10
86.655282
 20
136.83788699999999
 30
0.0
 40
0.8312850000000001
 50
2.120976999999999
 51
87.891349000000005
  0
ARC
  5
11B
  8
0
 62
     7
 10
86.687743999999995
 20
136.86882700000001
 30
0.0
 40
0.798253
 50
343.97837700000002
 51
359.98743899999999
  0
LINE
  5
11C
  8
0
  6
AIGENLINE003
 62
     7
 10
66.485900000000001
 20
140.53700000000001
 30
0.0
 11
66.485900000000001
 21
119.4079999999999
 31
0.0
  0
LINE
  5
11D
  8
0
  6
AIGENLINE003
 62
     7
 10
149.71299999999999
 20
141.5439999999999
 30
0.0
 11
149.71299999999999
 21
118.595
 31
0.0
  0
LINE
  5
11E
  8
0
 62
     7
 10
153.614
 20
122.16799999999991
 30
0.0
 11
153.614
 21
121.66799999999991
 31
0.0
  0
LINE
  5
11F
  8
0
 62
     7
 10
146.31399999999991
 20
121.1689999999999
 30
0.0
 11
153.114
 21
121.1689999999999
 31
0.0
  0
ARC
  5
120
  8
0
 62
     7
 10
153.09519900000001
 20
121.68738
 30
0.0
 40
0.5191480000000001
 50
272.04874299999989
 51
357.87229200000002
  0
LINE
  5
121
  8
0
 62
     7
 10
145.81399999999999
 20
121.66799999999991
 30
0.0
 11
145.81399999999999
 21
122.16799999999991
 31
0.0
  0
ARC
  5
122
  8
0
 62
     7
 10
146.3321399999999
 20
121.6871749999999
 30
0.0
 40
0.5189350000000002
 50
182.105873
 51
267.97313100000002
  0
LINE
  5
123
  8
0
 62
     7
 10
138.714
 20
122.996
 30
0.0
 11
138.714
 21
122.16799999999991
 31
0.0
  0
LINE
  5
124
  8
0
 62
     7
 10
160.1699999999999
 20
123.16799999999991
 30
0.0
 11
139.25700000000001
 21
123.16799999999991
 31
0.0
  0
ARC
  5
125
  8
0
 62
     7
 10
138.2089039999999
 20
122.994282
 30
0.0
 40
0.5046109999999999
 50
0.178518
 51
37.841085
  0
LINE
  5
126
  8
0
 62
     7
 10
138.714
 20
122.16799999999991
 30
0.0
 11
160.71299999999991
 21
122.16799999999991
 31
0.0
  0
LINE
  5
127
  8
0
 62
     7
 10
71.8386
 20
121.1689999999999
 30
0.0
 11
104.6929999999999
 21
121.1689999999999
 31
0.0
  0
LINE
  5
128
  8
0
 62
     7
 10
91.505200000000002
 20
122.16799999999991
 30
0.0
 11
97.961600000000004
 21
122.16799999999991
 31
0.0
  0
LINE
  5
129
  8
0
 62
     7
 10
103.40899999999991
 20
123.37899999999991
 30
0.0
 11
104.001
 21
121.1689999999999
 31
0.0
  0
LINE
  5
12A
  8
0
 62
     7
 10
104.001
 20
121.1689999999999
 30
0.0
 11
104.5929999999999
 21
123.37899999999991
 31
0.0
  0
LINE
  5
12B
  8
0
 62
     7
 10
104.5929999999999
 20
123.37899999999991
 30
0.0
 11
103.40899999999991
 21
123.37899999999991
 31
0.0
  0
LINE
  5
12C
  8
0
 62
     7
 10
104.57899999999989
 20
135.458
 30
0.0
 11
103.98699999999999
 21
137.6689999999999
 31
0.0
  0
LINE
  5
12D
  8
0
 62
     7
 10
103.98699999999999
 20
137.6689999999999
 30
0.0
 11
103.39399999999991
 21
135.458
 31
0.0
  0
LINE
  5
12E
  8
0
 62
     7
 10
103.39399999999991
 20
135.458
 30
0.0
 11
104.57899999999989
 21
135.458
 31
0.0
  0
LINE
  5
12F
  8
0
 62
     7
 10
103.994
 20
121.1689999999999
 30
0.0
 11
103.994
 21
137.6689999999999
 31
0.0
  0
LINE
  5
130
  8
0
 62
     7
 10
96.676500000000004
 20
124.37899999999991
 30
0.0
 11
97.268800000000013
 21
122.16799999999991
 31
0.0
  0
LINE
  5
131
  8
0
 62
     7
 10
97.268800000000013
 20
122.16799999999991
 30
0.0
 11
97.861000000000004
 21
124.37899999999991
 31
0.0
  0
LINE
  5
132
  8
0
 62
     7
 10
97.861000000000004
 20
124.37899999999991
 30
0.0
 11
96.676500000000004
 21
124.37899999999991
 31
0.0
  0
LINE
  5
133
  8
0
 62
     7
 10
97.846500000000006
 20
135.458
 30
0.0
 11
97.254300000000015
 21
137.6689999999999
 31
0.0
  0
LINE
  5
134
  8
0
 62
     7
 10
97.254300000000015
 20
137.6689999999999
 30
0.0
 11
96.662099999999995
 21
135.458
 31
0.0
  0
LINE
  5
135
  8
0
 62
     7
 10
96.662099999999995
 20
135.458
 30
0.0
 11
97.846500000000006
 21
135.458
 31
0.0
  0
LINE
  5
136
  8
0
 62
     7
 10
97.261499999999998
 20
122.16799999999991
 30
0.0
 11
97.261499999999998
 21
137.6689999999999
 31
0.0
  0
LINE
  5
137
  8
0
 62
     7
 10
88.106300000000005
 20
137.6689999999999
 30
0.0
 11
104.6929999999999
 21
137.6689999999999
 31
0.0
  0
LINE
  5
138
  8
0
 62
     7
 10
77.486199999999997
 20
110.1639999999999
 30
0.0
 11
77.486199999999997
 21
120.87
 31
0.0
  0
LINE
  5
139
  8
0
 62
     7
 10
55.485900000000001
 20
110.1639999999999
 30
0.0
 11
55.485900000000001
 21
120.87
 31
0.0
  0
LINE
  5
13A
  8
0
 62
     7
 10
57.69639999999999
 20
111.44799999999989
 30
0.0
 11
55.485999999999997
 21
110.85599999999999
 31
0.0
  0
LINE
  5
13B
  8
0
 62
     7
 10
55.485999999999997
 20
110.85599999999999
 30
0.0
 11
57.69639999999999
 21
110.264
 31
0.0
  0
LINE
  5
13C
  8
0
 62
     7
 10
57.69639999999999
 20
110.264
 30
0.0
 11
57.69639999999999
 21
111.44799999999989
 31
0.0
  0
LINE
  5
13D
  8
0
 62
     7
 10
75.275499999999994
 20
110.27799999999991
 30
0.0
 11
77.486000000000004
 21
110.87
 31
0.0
  0
LINE
  5
13E
  8
0
 62
     7
 10
77.486000000000004
 20
110.87
 30
0.0
 11
75.275499999999994
 21
111.46299999999999
 31
0.0
  0
LINE
  5
13F
  8
0
 62
     7
 10
75.275499999999994
 20
111.46299999999999
 30
0.0
 11
75.275499999999994
 21
110.27799999999991
 31
0.0
  0
LINE
  5
140
  8
0
 62
     7
 10
55.485900000000001
 20
110.863
 30
0.0
 11
77.486199999999997
 21
110.863
 31
0.0
  0
LINE
  5
141
  8
0
 62
     7
 10
70.38600000000001
 20
122.16799999999991
 30
0.0
 11
70.38600000000001
 21
121.66799999999991
 31
0.0
  0
LINE
  5
142
  8
0
 62
     7
 10
63.086000000000013
 20
121.1689999999999
 30
0.0
 11
69.886099999999999
 21
121.1689999999999
 31
0.0
  0
ARC
  5
143
  8
0
 62
     7
 10
69.867491000000001
 20
121.687071
 30
0.0
 40
0.5188410000000001
 50
272.05533600000001
 51
357.90517299999988
  0
LINE
  5
144
  8
0
 62
     7
 10
62.586100000000002
 20
121.66799999999991
 30
0.0
 11
62.586100000000002
 21
122.16799999999991
 31
0.0
  0
ARC
  5
145
  8
0
 62
     7
 10
63.104641000000001
 20
121.68715
 30
0.0
 40
0.518923
 50
182.10322999999991
 51
267.9363009999999
  0
LINE
  5
146
  8
0
 62
     7
 10
55.485900000000001
 20
122.996
 30
0.0
 11
55.485900000000001
 21
122.16799999999991
 31
0.0
  0
LINE
  5
147
  8
0
 62
     7
 10
76.942400000000006
 20
123.16799999999991
 30
0.0
 11
56.029499999999992
 21
123.16799999999991
 31
0.0
  0
ARC
  5
148
  8
0
 62
     7
 10
54.981243999999997
 20
122.994282
 30
0.0
 40
0.5046109999999999
 50
0.178518
 51
37.841085
  0
LINE
  5
149
  8
0
 62
     7
 10
55.485900000000001
 20
122.16799999999991
 30
0.0
 11
77.486199999999997
 21
122.16799999999991
 31
0.0
  0
LINE
  5
14A
  8
0
 62
     7
 10
46.286000000000001
 20
137.6689999999999
 30
0.0
 11
86.686199999999999
 21
137.6689999999999
 31
0.0
  0
ARC
  5
14B
  8
0
 62
     7
 10
62.755505000000007
 20
143.35396399999999
 30
0.0
 40
18.496836999999989
 50
201.2549939999999
 51
207.34952799999991
  0
ARC
  5
14C
  8
0
 62
     7
 10
72.228707
 20
148.08840900000001
 30
0.0
 40
29.086587000000002
 50
207.06011699999991
 51
212.59494699999999
  0
ARC
  5
14D
  8
0
 62
     7
 10
85.780045999999984
 20
156.61097699999991
 30
0.0
 40
45.094824999999993
 50
212.442744
 51
227.612481
  0
ARC
  5
14E
  8
0
 62
     7
 10
46.316597999999999
 20
136.83788699999999
 30
0.0
 40
0.8312839999999999
 50
92.108614000000003
 51
177.87901999999991
  0
ARC
  5
14F
  8
0
 62
     7
 10
46.284134000000002
 20
136.86882700000001
 30
0.0
 40
0.7982510000000002
 50
180.01256100000001
 51
196.0216629999999
  0
LINE
  5
150
  8
0
 62
     7
 10
96.675700000000006
 20
173.727
 30
0.0
 11
97.267900000000012
 21
171.517
 31
0.0
  0
LINE
  5
151
  8
0
 62
     7
 10
97.267900000000012
 20
171.517
 30
0.0
 11
97.860100000000003
 21
173.727
 31
0.0
  0
LINE
  5
152
  8
0
 62
     7
 10
97.860100000000003
 20
173.727
 30
0.0
 11
96.675700000000006
 21
173.727
 31
0.0
  0
LINE
  5
153
  8
0
 62
     7
 10
97.845600000000005
 20
211.3059999999999
 30
0.0
 11
97.253399999999999
 21
213.51599999999991
 31
0.0
  0
LINE
  5
154
  8
0
 62
     7
 10
97.253399999999999
 20
213.51599999999991
 30
0.0
 11
96.661199999999994
 21
211.3059999999999
 31
0.0
  0
LINE
  5
155
  8
0
 62
     7
 10
96.661199999999994
 20
211.3059999999999
 30
0.0
 11
97.845600000000005
 21
211.3059999999999
 31
0.0
  0
LINE
  5
156
  8
0
 62
     7
 10
97.260699999999986
 20
171.51599999999999
 30
0.0
 11
97.260699999999986
 21
213.51599999999991
 31
0.0
  0
LINE
  5
157
  8
0
 62
     7
 10
86.375100000000003
 20
171.51599999999999
 30
0.0
 11
97.960700000000003
 21
171.51599999999999
 31
0.0
  0
LINE
  5
158
  8
0
 62
     7
 10
86.375100000000003
 20
213.51599999999991
 30
0.0
 11
97.960700000000003
 21
213.51599999999991
 31
0.0
  0
LINE
  5
159
  8
0
 62
     7
 10
47.69639999999999
 20
223.6329999999999
 30
0.0
 11
45.4861
 21
223.041
 31
0.0
  0
LINE
  5
15A
  8
0
 62
     7
 10
45.4861
 20
223.041
 30
0.0
 11
47.69639999999999
 21
222.44799999999989
 31
0.0
  0
LINE
  5
15B
  8
0
 62
     7
 10
47.69639999999999
 20
222.44799999999989
 30
0.0
 11
47.69639999999999
 21
223.6329999999999
 31
0.0
  0
LINE
  5
15C
  8
0
 62
     7
 10
85.275400000000005
 20
222.46299999999991
 30
0.0
 11
87.486000000000004
 21
223.05500000000001
 31
0.0
  0
LINE
  5
15D
  8
0
 62
     7
 10
87.486000000000004
 20
223.05500000000001
 30
0.0
 11
85.275400000000005
 21
223.64799999999991
 31
0.0
  0
LINE
  5
15E
  8
0
 62
     7
 10
85.275400000000005
 20
223.64799999999991
 30
0.0
 11
85.275400000000005
 21
222.46299999999991
 31
0.0
  0
LINE
  5
15F
  8
0
 62
     7
 10
77.098299999999995
 20
181.905
 30
0.0
 11
83.874300000000005
 21
181.905
 31
0.0
  0
LINE
  5
160
  8
0
 62
     7
 10
45.485899999999987
 20
223.048
 30
0.0
 11
87.486199999999997
 21
223.048
 31
0.0
  0
LINE
  5
161
  8
0
 62
     7
 10
45.485899999999987
 20
212.29400000000001
 30
0.0
 11
45.485899999999987
 21
223.74799999999999
 31
0.0
  0
LINE
  5
162
  8
0
 62
     7
 10
87.486199999999997
 20
212.29400000000001
 30
0.0
 11
87.486199999999997
 21
223.74799999999999
 31
0.0
  0
ARC
  5
163
  8
0
  6
AIGENLINE001
 62
     7
 10
66.697520999999995
 20
133.65832399999991
 30
0.0
 40
1.0385299999999991
 50
0.560476
 51
55.810731000000011
  0
ARC
  5
164
  8
0
  6
AIGENLINE001
 62
     7
 10
66.499525000000006
 20
133.42707799999991
 30
0.0
 40
1.3414989999999991
 50
54.365442000000002
 51
90.580213000000001
  0
ARC
  5
165
  8
0
  6
AIGENLINE001
 62
     7
 10
66.500366999999997
 20
133.41857899999999
 30
0.0
 40
1.3500069999999991
 50
90.612278999999987
 51
149.23908899999989
  0
ARC
  5
166
  8
0
  6
AIGENLINE001
 62
     7
 10
66.229515000000006
 20
133.66603599999999
 30
0.0
 40
0.993467
 50
153.5173739999999
 51
179.85885699999989
  0
ARC
  5
167
  8
0
  6
AIGENLINE001
 62
     7
 10
66.273980000000009
 20
133.678662
 30
0.0
 40
1.0379789999999991
 50
180.56189099999989
 51
235.82472999999999
  0
ARC
  5
168
  8
0
  6
AIGENLINE001
 62
     7
 10
66.472715000000008
 20
133.909142
 30
0.0
 40
1.340751
 50
234.33097900000001
 51
270.56518699999998
  0
ARC
  5
169
  8
0
  6
AIGENLINE001
 62
     7
 10
66.471501000000004
 20
133.91824
 30
0.0
 40
1.3498600000000001
 50
270.61288400000001
 51
329.26446199999998
  0
ARC
  5
16A
  8
0
  6
AIGENLINE001
 62
     7
 10
66.743583000000001
 20
133.67113699999999
 30
0.0
 40
0.9924209999999998
 50
333.50242500000002
 51
359.84676899999999
  0
ARC
  5
16B
  8
0
 62
     7
 10
67.104888000000003
 20
209.37860299999991
 30
0.0
 40
0.631138
 50
0.511412
 51
52.66442399999999
  0
ARC
  5
16C
  8
0
 62
     7
 10
66.666162999999997
 20
208.9294229999999
 30
0.0
 40
1.256683999999999
 50
49.178603999999993
 51
75.889901000000009
  0
ARC
  5
16D
  8
0
 62
     7
 10
66.493087000000003
 20
208.41603699999999
 30
0.0
 40
1.7972809999999999
 50
74.528570999999999
 51
90.227820999999977
  0
ARC
  5
16E
  8
0
 62
     7
 10
66.487324999999998
 20
208.468816
 30
0.0
 40
1.7444889999999991
 50
90.045471000000006
 51
119.67678100000001
  0
ARC
  5
16F
  8
0
 62
     7
 10
66.104122000000004
 20
209.20212299999989
 30
0.0
 40
0.9181360000000001
 50
121.557179
 51
152.160763
  0
ARC
  5
170
  8
0
 62
     7
 10
65.817990000000009
 20
209.38137
 30
0.0
 40
0.5819450000000001
 50
154.611007
 51
179.71773699999989
  0
ARC
  5
171
  8
0
 62
     7
 10
65.86648000000001
 20
209.3898889999999
 30
0.0
 40
0.630454
 50
180.513713
 51
232.694029
  0
ARC
  5
172
  8
0
 62
     7
 10
66.306762000000006
 20
209.84046099999989
 30
0.0
 40
1.2580519999999991
 50
229.179248
 51
255.86128099999999
  0
ARC
  5
173
  8
0
 62
     7
 10
66.479076000000006
 20
210.35224600000001
 30
0.0
 40
1.796916999999999
 50
254.51942999999989
 51
270.218887
  0
ARC
  5
174
  8
0
 62
     7
 10
66.48455899999999
 20
210.29924299999999
 30
0.0
 40
1.7439020000000001
 50
270.04537499999992
 51
299.693333
  0
ARC
  5
175
  8
0
 62
     7
 10
66.867246999999992
 20
209.56746899999999
 30
0.0
 40
0.919142
 50
301.567091
 51
332.13324699999998
  0
ARC
  5
176
  8
0
 62
     7
 10
67.154737999999995
 20
209.38721099999989
 30
0.0
 40
0.58127
 50
334.59591599999999
 51
359.70683999999989
  0
ARC
  5
177
  8
0
 62
     7
 10
66.485939999999999
 20
192.51625300000001
 30
0.0
 40
2.3001330000000002
 50
0.00001
 51
89.999980000000008
  0
ARC
  5
178
  8
0
 62
     7
 10
66.486027000000007
 20
192.5163389999999
 30
0.0
 40
2.3000470000000002
 50
90.002145999999996
 51
180.0021549999999
  0
ARC
  5
179
  8
0
 62
     7
 10
66.485939999999999
 20
192.51625300000001
 30
0.0
 40
2.29996
 50
179.99996999999991
 51
270.00002000000001
  0
ARC
  5
17A
  8
0
 62
     7
 10
66.486025999999995
 20
192.5163399999999
 30
0.0
 40
2.3000470000000002
 50
269.99787400000002
 51
359.99784499999998
  0
LINE
  5
17B
  8
0
  6
AIGENLINE003
 62
     7
 10
66.485900000000001
 20
168.11199999999991
 30
0.0
 11
66.485900000000001
 21
216.50099999999989
 31
0.0
  0
ARC
  5
17C
  8
0
 62
     7
 10
66.485939000000002
 20
192.51625300000001
 30
0.0
 40
4.000125999999999
 50
0.00001
 51
89.999980000000008
  0
ARC
  5
17D
  8
0
 62
     7
 10
66.486027000000007
 20
192.5163389999999
 30
0.0
 40
4.0000400000000003
 50
90.001234000000011
 51
180.0012439999999
  0
ARC
  5
17E
  8
0
 62
     7
 10
66.485939000000002
 20
192.51625300000001
 30
0.0
 40
3.9999530000000001
 50
179.99996999999991
 51
270.00002000000001
  0
ARC
  5
17F
  8
0
 62
     7
 10
66.486024999999984
 20
192.5163399999999
 30
0.0
 40
4.0000400000000003
 50
269.99878599999988
 51
359.99875600000001
  0
LINE
  5
180
  8
0
  6
AIGENLINE003
 62
     7
 10
42.1755
 20
192.51599999999991
 30
0.0
 11
89.594099999999997
 21
192.51599999999991
 31
0.0
  0
LINE
  5
181
  8
0
 62
     7
 10
50.986000000000011
 20
171.51599999999999
 30
0.0
 11
81.986000000000004
 21
171.51599999999999
 31
0.0
  0
LINE
  5
182
  8
0
 62
     7
 10
45.485899999999987
 20
177.01599999999991
 30
0.0
 11
45.485899999999987
 21
208.01699999999991
 31
0.0
  0
ARC
  5
183
  8
0
 62
     7
 10
50.985840000000003
 20
177.01632499999991
 30
0.0
 40
5.4999570000000002
 50
180.00180399999999
 51
270.00181400000002
  0
LINE
  5
184
  8
0
 62
     7
 10
87.486199999999997
 20
177.01599999999991
 30
0.0
 11
87.486199999999997
 21
208.01699999999991
 31
0.0
  0
ARC
  5
185
  8
0
 62
     7
 10
81.986210999999997
 20
177.0163269999999
 30
0.0
 40
5.4999580000000003
 50
269.99822499999999
 51
359.99819600000001
  0
LINE
  5
186
  8
0
 62
     7
 10
50.986000000000011
 20
213.51599999999991
 30
0.0
 11
81.986000000000004
 21
213.51599999999991
 31
0.0
  0
ARC
  5
187
  8
0
 62
     7
 10
81.986125000000015
 20
208.01643799999991
 30
0.0
 40
5.5000450000000001
 50
0.000907
 51
90.000876999999988
  0
ARC
  5
188
  8
0
 62
     7
 10
50.985928000000001
 20
208.01643799999991
 30
0.0
 40
5.5000450000000001
 50
89.999103000000005
 51
179.99907300000001
  0
LINE
  5
189
  8
_________2
 62
     7
 10
210.24000000000001
 20
148.93100000000001
 30
0.0
 11
188.49000000000001
 21
148.93100000000001
 31
0.0
  0
LINE
  5
18A
  8
_________2
 62
     7
 10
105.2389999999999
 20
17.428499999999989
 30
0.0
 11
105.2389999999999
 21
0.4482100000000001
 31
0.0
  0
LINE
  5
18B
  8
_________2
 62
     7
 10
105.2389999999999
 20
297.44999999999987
 30
0.0
 11
105.2389999999999
 21
280.42999999999989
 31
0.0
  0
LINE
  5
18C
  8
_________2
 62
     7
 10
21.988499999999991
 20
148.93100000000001
 30
0.0
 11
0.238058
 21
148.93100000000001
 31
0.0
  0
LINE
  5
18D
  8
_________2
 62
     7
 10
81.679900000000004
 20
51.324300000000001
 30
0.0
 11
79.493700000000004
 21
51.324300000000001
 31
0.0
  0
LINE
  5
18E
  8
_________2
 62
     7
 10
82.172600000000017
 20
51.324300000000001
 30
0.0
 11
81.920400000000001
 21
51.324300000000001
 31
0.0
  0
LINE
  5
18F
  8
_________2
 62
     7
 10
82.665199999999984
 20
51.324300000000001
 30
0.0
 11
85.590100000000007
 21
51.324300000000001
 31
0.0
  0
LINE
  5
190
  8
_________2
 62
     7
 10
82.172600000000017
 20
51.324300000000001
 30
0.0
 11
82.424800000000005
 21
51.324300000000001
 31
0.0
  0
LINE
  5
191
  8
_________2
 62
     7
 10
75.776399999999995
 20
51.324300000000001
 30
0.0
 11
73.589399999999998
 21
51.324300000000001
 31
0.0
  0
LINE
  5
192
  8
_________2
 62
     7
 10
76.2684
 20
51.324300000000001
 30
0.0
 11
76.016900000000007
 21
51.324300000000001
 31
0.0
  0
LINE
  5
193
  8
_________2
 62
     7
 10
76.2684
 20
51.817
 30
0.0
 11
76.2684
 21
54.003900000000002
 31
0.0
  0
LINE
  5
194
  8
_________2
 62
     7
 10
76.2684
 20
51.324300000000001
 30
0.0
 11
76.2684
 21
51.576500000000003
 31
0.0
  0
LINE
  5
195
  8
_________2
 62
     7
 10
76.76100000000001
 20
51.324300000000001
 30
0.0
 11
78.947999999999993
 21
51.324300000000001
 31
0.0
  0
LINE
  5
196
  8
_________2
 62
     7
 10
76.2684
 20
51.324300000000001
 30
0.0
 11
76.520499999999998
 21
51.324300000000001
 31
0.0
  0
LINE
  5
197
  8
_________2
 62
     7
 10
76.2684
 20
50.832399999999993
 30
0.0
 11
76.2684
 21
48.645400000000002
 31
0.0
  0
LINE
  5
198
  8
_________2
 62
     7
 10
76.2684
 20
51.324300000000001
 30
0.0
 11
76.2684
 21
51.072800000000001
 31
0.0
  0
LINE
  5
199
  8
_________2
 62
     7
 10
79.979399999999984
 20
50.104799999999997
 30
0.0
 11
85.157399999999996
 21
49.240000000000002
 31
0.0
  0
LINE
  5
19A
  8
_________2
 62
     7
 10
79.979399999999984
 20
52.543900000000001
 30
0.0
 11
85.157399999999996
 21
53.409300000000002
 31
0.0
  0
LINE
  5
19B
  8
_________2
 62
     7
 10
85.157399999999996
 20
49.240000000000002
 30
0.0
 11
85.157399999999996
 21
53.409300000000002
 31
0.0
  0
LINE
  5
19C
  8
_________2
 62
     7
 10
79.979399999999984
 20
50.104799999999997
 30
0.0
 11
79.979399999999984
 21
52.543900000000001
 31
0.0
  0
ARC
  5
19D
  8
_________2
 62
     7
 10
76.222110000000001
 20
51.277366999999991
 30
0.0
 40
1.2673709999999989
 50
2.1232950000000002
 51
87.909056000000007
  0
ARC
  5
19E
  8
_________2
 62
     7
 10
76.315273000000005
 20
51.277400999999998
 30
0.0
 40
1.267363
 50
92.121785999999986
 51
177.878185
  0
ARC
  5
19F
  8
_________2
 62
     7
 10
76.315273000000005
 20
51.371245999999992
 30
0.0
 40
1.267363
 50
182.12181499999991
 51
267.87821400000001
  0
ARC
  5
1A0
  8
_________2
 62
     7
 10
76.221461000000005
 20
51.371928999999987
 30
0.0
 40
1.2680439999999991
 50
272.11916400000001
 51
357.84848499999993
  0
ARC
  5
1A1
  8
_________2
 62
     7
 10
76.268349999999984
 20
51.324323
 30
0.0
 40
2.0849849999999992
 50
0.00001
 51
89.999980000000008
  0
ARC
  5
1A2
  8
_________2
 62
     7
 10
76.348388
 20
51.245001999999992
 30
0.0
 40
2.1657860000000002
 50
92.117855000000034
 51
177.90105299999991
  0
ARC
  5
1A3
  8
_________2
 62
     7
 10
76.348354
 20
51.404327000000002
 30
0.0
 40
2.1657779999999991
 50
182.11700400000001
 51
267.88302499999992
  0
ARC
  5
1A4
  8
_________2
 62
     7
 10
76.188378999999983
 20
51.405009999999997
 30
0.0
 40
2.1664590000000001
 50
272.11546800000002
 51
357.86560400000002
  0
TEXT
  5
1A5
  8
_________2
 62
     7
 10
109.5439999999999
 20
23.199100000000001
 30
0.0
 40
3.0923400000000001
  1
図番
 41
0.5
  0
LINE
  5
1A6
  8
_________2
 62
     7
 10
108.4889999999999
 20
27.4283
 30
0.0
 11
188.49000000000001
 21
27.4283
 31
0.0
  0
TEXT
  5
1A7
  8
_________2
 62
     7
 10
109.5439999999999
 20
33.198900000000002
 30
0.0
 40
3.0923400000000001
  1
品番
 41
0.5
  0
TEXT
  5
1A8
  8
_________2
 62
     7
 10
109.5439999999999
 20
53.337699999999998
 30
0.0
 40
3.0923400000000001
  1
名称
 41
0.5
  0
TEXT
  5
1A9
  8
_________2
 62
     7
 10
96.784058333333334
 20
48.341500000000011
 30
0.0
 40
3.6545800000000002
  1
mm
 41
0.5
 72
     1
 11
98.306799999999996
 21
48.341500000000011
 31
0.0
  0
TEXT
  5
1AA
  8
_________2
 62
     7
 10
90.582099999999997
 20
53.337699999999998
 30
0.0
 40
3.0923400000000001
  1
単位
 41
0.5
  0
TEXT
  5
1AB
  8
_________2
 62
     7
 10
90.582099999999997
 20
40.930399999999999
 30
0.0
 40
3.0923400000000001
  1
尺度
 41
0.5
  0
TEXT
  5
1AC
  8
_________2
 62
     7
 10
95.030836166666674
 20
34.73749999999999
 30
0.0
 40
3.6545800000000002
  1
1 ： 10
 41
0.5
 72
     1
 11
98.898600000000002
 21
34.73749999999999
 31
0.0
  0
TEXT
  5
1AD
  8
_________2
 62
     7
 10
138.15778750000001
 20
30.627400000000002
 30
0.0
 40
3.9357000000000002
  1
DV033342-00
 41
0.5
 72
     1
 11
148.489
 21
30.627400000000002
 31
0.0
  0
TEXT
  5
1AE
  8
_________2
 62
     7
 10
140.7815875
 20
20.626999999999988
 30
0.0
 40
3.9357000000000002
  1
DV033342
 41
0.5
 72
     1
 11
148.489
 21
20.626999999999988
 31
0.0
  0
TEXT
  5
1AF
  8
_________2
 62
     7
 10
29.525700000000001
 20
22.226900000000001
 30
0.0
 40
3.9357000000000002
  1
実容量：3.9L、重量：8kg、オーバーフロー付
 41
0.5
  0
TEXT
  5
1B0
  8
_________2
 62
     7
 10
114.11799999999999
 20
45.7453
 30
0.0
 40
3.9357000000000002
  1
バキーノ　洗面器
 41
0.5
  0
TEXT
  5
1B1
  8
_________2
 62
     7
 10
44.303290666666669
 20
35.122599999999991
 30
0.0
 40
3.6545800000000002
  1
高橋
 41
0.5
 72
     1
 11
46.252400000000002
 21
35.122599999999991
 31
0.0
  0
TEXT
  5
1B2
  8
_________2
 62
     7
 10
25.72929066666666
 20
35.122599999999991
 30
0.0
 40
3.6545800000000002
  1
石原
 41
0.5
 72
     1
 11
27.6784
 21
35.122599999999991
 31
0.0
  0
TEXT
  5
1B3
  8
_________2
 62
     7
 10
72.724699999999999
 20
34.73749999999999
 30
0.0
 40
3.6545800000000002
  1
07.09.20
 41
0.5
  0
TEXT
  5
1B4
  8
_________2
 62
     7
 10
71.531999999999996
 20
40.930399999999999
 30
0.0
 40
3.0923400000000001
  1
日付
 41
0.5
  0
TEXT
  5
1B5
  8
_________2
 62
     7
 10
34.578299999999992
 20
40.930399999999999
 30
0.0
 40
3.0923400000000001
  1
検図
 41
0.5
  0
TEXT
  5
1B6
  8
_________2
 62
     7
 10
22.960000000000001
 20
26.730999999999991
 30
0.0
 40
3.0923400000000001
  1
備考
 41
0.5
  0
TEXT
  5
1B7
  8
_________2
 62
     7
 10
22.960000000000001
 20
40.930399999999999
 30
0.0
 40
3.0923400000000001
  1
製図
 41
0.5
  0
TEXT
  5
1B8
  8
_________2
 62
     7
 10
28.727365333333339
 20
49.456400000000002
 30
0.0
 40
4.4979399999999989
  1
セラトレーディング株式会社
 41
0.5
 72
     1
 11
46.119399999999992
 21
49.456400000000002
 31
0.0
  0
LINE
  5
1B9
  8
_________2
 62
     7
 10
188.49000000000001
 20
17.428499999999989
 30
0.0
 11
21.988499999999991
 21
17.428499999999989
 31
0.0
  0
LINE
  5
1BA
  8
_________2
 62
     7
 10
21.988499999999991
 20
17.428499999999989
 30
0.0
 11
21.988499999999991
 21
280.42999999999989
 31
0.0
  0
LINE
  5
1BB
  8
_________2
 62
     7
 10
21.988499999999991
 20
280.42999999999989
 30
0.0
 11
188.49000000000001
 21
280.42999999999989
 31
0.0
  0
LINE
  5
1BC
  8
_________2
 62
     7
 10
188.49000000000001
 20
280.42999999999989
 30
0.0
 11
188.49000000000001
 21
17.428499999999989
 31
0.0
  0
LINE
  5
1BD
  8
_________2
 62
     7
 10
70.488799999999998
 20
30.9285
 30
0.0
 11
70.488799999999998
 21
57.428400000000011
 31
0.0
  0
LINE
  5
1BE
  8
_________2
 62
     7
 10
89.488600000000005
 20
30.9285
 30
0.0
 11
89.488600000000005
 21
57.428400000000011
 31
0.0
  0
LINE
  5
1BF
  8
_________2
 62
     7
 10
108.4889999999999
 20
17.428499999999989
 30
0.0
 11
108.4889999999999
 21
57.428400000000011
 31
0.0
  0
LINE
  5
1C0
  8
_________2
 62
     7
 10
33.488300000000002
 20
30.9285
 30
0.0
 11
33.488300000000002
 21
44.928800000000003
 31
0.0
  0
LINE
  5
1C1
  8
_________2
 62
     7
 10
21.988499999999991
 20
30.9285
 30
0.0
 11
108.4889999999999
 21
30.9285
 31
0.0
  0
LINE
  5
1C2
  8
_________2
 62
     7
 10
21.988499999999991
 20
44.928800000000003
 30
0.0
 11
108.4889999999999
 21
44.928800000000003
 31
0.0
  0
LINE
  5
1C3
  8
_________2
 62
     7
 10
108.4889999999999
 20
37.428100000000001
 30
0.0
 11
188.49000000000001
 21
37.428100000000001
 31
0.0
  0
LINE
  5
1C4
  8
_________2
 62
     7
 10
21.988499999999991
 20
57.428400000000011
 30
0.0
 11
188.49000000000001
 21
57.428400000000011
 31
0.0
  0
ENDSEC
  0
EOF
