  0
SECTION
  2
HEADER
  9
$ACADVER
  1
AC1015
  9
$ACADMAINTVER
 70
     6
  9
$DWGCODEPAGE
  3
ANSI_932
  9
$INSBASE
 10
0.0
 20
0.0
 30
0.0
  9
$EXTMIN
 10
-4.70052
 20
-21.0714
 30
0.0
  9
$EXTMAX
 10
205.301
 20
275.9309999999999
 30
0.0
  9
$LIMMIN
 10
0.0
 20
0.0
  9
$LIMMAX
 10
12.0
 20
9.0
  9
$ORTHOMODE
 70
     0
  9
$REGENMODE
 70
     1
  9
$FILLMODE
 70
     1
  9
$QTEXTMODE
 70
     0
  9
$MIRRTEXT
 70
     1
  9
$LTSCALE
 40
1.0
  9
$ATTMODE
 70
     1
  9
$TEXTSIZE
 40
0.0
  9
$TRACEWID
 40
0.05
  9
$TEXTSTYLE
  7
STANDARD
  9
$CLAYER
  8
0
  9
$CELTYPE
  6
CONTINUOUS
  9
$CECOLOR
 62
   256
  9
$CELTSCALE
 40
1.0
  9
$DISPSILH
 70
     0
  9
$DIMSCALE
 40
1.0
  9
$DIMASZ
 40
0.18
  9
$DIMEXO
 40
0.0625
  9
$DIMDLI
 40
0.38
  9
$DIMRND
 40
0.0
  9
$DIMDLE
 40
0.0
  9
$DIMEXE
 40
0.18
  9
$DIMTP
 40
0.0
  9
$DIMTM
 40
0.0
  9
$DIMTXT
 40
0.18
  9
$DIMCEN
 40
0.09
  9
$DIMTSZ
 40
0.0
  9
$DIMTOL
 70
     0
  9
$DIMLIM
 70
     0
  9
$DIMTIH
 70
     1
  9
$DIMTOH
 70
     1
  9
$DIMSE1
 70
     0
  9
$DIMSE2
 70
     0
  9
$DIMTAD
 70
     0
  9
$DIMZIN
 70
     0
  9
$DIMBLK
  1

  9
$DIMASO
 70
     1
  9
$DIMSHO
 70
     1
  9
$DIMPOST
  1

  9
$DIMAPOST
  1

  9
$DIMALT
 70
     0
  9
$DIMALTD
 70
     2
  9
$DIMALTF
 40
25.4
  9
$DIMLFAC
 40
1.0
  9
$DIMTOFL
 70
     0
  9
$DIMTVP
 40
0.0
  9
$DIMTIX
 70
     0
  9
$DIMSOXD
 70
     0
  9
$DIMSAH
 70
     0
  9
$DIMBLK1
  1

  9
$DIMBLK2
  1

  9
$DIMSTYLE
  2
STANDARD
  9
$DIMCLRD
 70
     0
  9
$DIMCLRE
 70
     0
  9
$DIMCLRT
 70
     0
  9
$DIMTFAC
 40
1.0
  9
$DIMGAP
 40
0.09
  9
$DIMJUST
 70
     0
  9
$DIMSD1
 70
     0
  9
$DIMSD2
 70
     0
  9
$DIMTOLJ
 70
     1
  9
$DIMTZIN
 70
     0
  9
$DIMALTZ
 70
     0
  9
$DIMALTTZ
 70
     0
  9
$DIMUPT
 70
     0
  9
$DIMDEC
 70
     4
  9
$DIMTDEC
 70
     4
  9
$DIMALTU
 70
     2
  9
$DIMALTTD
 70
     2
  9
$DIMTXSTY
  7
STANDARD
  9
$DIMAUNIT
 70
     0
  9
$DIMADEC
 70
     0
  9
$DIMALTRND
 40
0.0
  9
$DIMAZIN
 70
     0
  9
$DIMDSEP
 70
    46
  9
$DIMATFIT
 70
     3
  9
$DIMFRAC
 70
     0
  9
$DIMLDRBLK
  1

  9
$DIMLUNIT
 70
     2
  9
$DIMLWD
 70
    -2
  9
$DIMLWE
 70
    -2
  9
$DIMTMOVE
 70
     0
  9
$LUNITS
 70
     2
  9
$LUPREC
 70
     4
  9
$SKETCHINC
 40
0.1
  9
$FILLETRAD
 40
0.0
  9
$AUNITS
 70
     0
  9
$AUPREC
 70
     0
  9
$MENU
  1
.
  9
$ELEVATION
 40
0.0
  9
$PELEVATION
 40
0.0
  9
$THICKNESS
 40
0.0
  9
$LIMCHECK
 70
     0
  9
$CHAMFERA
 40
0.0
  9
$CHAMFERB
 40
0.0
  9
$CHAMFERC
 40
0.0
  9
$CHAMFERD
 40
0.0
  9
$SKPOLY
 70
     0
  9
$TDCREATE
 40
2444972.375000000
  9
$TDUCREATE
 40
2444972.000000000
  9
$TDUPDATE
 40
2455216.789996643
  9
$TDUUPDATE
 40
2455216.414996643
  9
$TDINDWG
 40
0.0161951273
  9
$TDUSRTIMER
 40
0.0161951273
  9
$USRTIMER
 70
     1
  9
$ANGBASE
 50
0.0
  9
$ANGDIR
 70
     0
  9
$PDMODE
 70
     0
  9
$PDSIZE
 40
0.0
  9
$PLINEWID
 40
0.0
  9
$SPLFRAME
 70
     0
  9
$SPLINETYPE
 70
     6
  9
$SPLINESEGS
 70
     8
  9
$HANDSEED
  5
28C
  9
$SURFTAB1
 70
     6
  9
$SURFTAB2
 70
     6
  9
$SURFTYPE
 70
     6
  9
$SURFU
 70
     6
  9
$SURFV
 70
     6
  9
$UCSBASE
  2

  9
$UCSNAME
  2

  9
$UCSORG
 10
0.0
 20
0.0
 30
0.0
  9
$UCSXDIR
 10
1.0
 20
0.0
 30
0.0
  9
$UCSYDIR
 10
0.0
 20
1.0
 30
0.0
  9
$UCSORTHOREF
  2

  9
$UCSORTHOVIEW
 70
     0
  9
$UCSORGTOP
 10
0.0
 20
0.0
 30
0.0
  9
$UCSORGBOTTOM
 10
0.0
 20
0.0
 30
0.0
  9
$UCSORGLEFT
 10
0.0
 20
0.0
 30
0.0
  9
$UCSORGRIGHT
 10
0.0
 20
0.0
 30
0.0
  9
$UCSORGFRONT
 10
0.0
 20
0.0
 30
0.0
  9
$UCSORGBACK
 10
0.0
 20
0.0
 30
0.0
  9
$PUCSBASE
  2

  9
$PUCSNAME
  2

  9
$PUCSORG
 10
0.0
 20
0.0
 30
0.0
  9
$PUCSXDIR
 10
1.0
 20
0.0
 30
0.0
  9
$PUCSYDIR
 10
0.0
 20
1.0
 30
0.0
  9
$PUCSORTHOREF
  2

  9
$PUCSORTHOVIEW
 70
     0
  9
$PUCSORGTOP
 10
0.0
 20
0.0
 30
0.0
  9
$PUCSORGBOTTOM
 10
0.0
 20
0.0
 30
0.0
  9
$PUCSORGLEFT
 10
0.0
 20
0.0
 30
0.0
  9
$PUCSORGRIGHT
 10
0.0
 20
0.0
 30
0.0
  9
$PUCSORGFRONT
 10
0.0
 20
0.0
 30
0.0
  9
$PUCSORGBACK
 10
0.0
 20
0.0
 30
0.0
  9
$USERI1
 70
     0
  9
$USERI2
 70
     0
  9
$USERI3
 70
     0
  9
$USERI4
 70
     0
  9
$USERI5
 70
     0
  9
$USERR1
 40
0.0
  9
$USERR2
 40
0.0
  9
$USERR3
 40
0.0
  9
$USERR4
 40
0.0
  9
$USERR5
 40
0.0
  9
$WORLDVIEW
 70
     1
  9
$SHADEDGE
 70
     3
  9
$SHADEDIF
 70
    70
  9
$TILEMODE
 70
     1
  9
$MAXACTVP
 70
    48
  9
$PINSBASE
 10
0.0
 20
0.0
 30
0.0
  9
$PLIMCHECK
 70
     0
  9
$PEXTMIN
 10
1.000000000000000E+20
 20
1.000000000000000E+20
 30
1.000000000000000E+20
  9
$PEXTMAX
 10
-1.000000000000000E+20
 20
-1.000000000000000E+20
 30
-1.000000000000000E+20
  9
$PLIMMIN
 10
0.0
 20
0.0
  9
$PLIMMAX
 10
12.0
 20
9.0
  9
$UNITMODE
 70
     0
  9
$VISRETAIN
 70
     1
  9
$PLINEGEN
 70
     0
  9
$PSLTSCALE
 70
     1
  9
$TREEDEPTH
 70
  3020
  9
$CMLSTYLE
  2
STANDARD
  9
$CMLJUST
 70
     0
  9
$CMLSCALE
 40
1.0
  9
$PROXYGRAPHICS
 70
     1
  9
$MEASUREMENT
 70
     0
  9
$CELWEIGHT
370
    -1
  9
$ENDCAPS
280
     0
  9
$JOINSTYLE
280
     0
  9
$LWDISPLAY
290
     0
  9
$INSUNITS
 70
     0
  9
$HYPERLINKBASE
  1

  9
$STYLESHEET
  1

  9
$XEDIT
290
     1
  9
$CEPSNTYPE
380
     0
  9
$PSTYLEMODE
290
     1
  9
$FINGERPRINTGUID
  2
{0105576C-D98C-4E2B-8121-954E1176F7AB}
  9
$VERSIONGUID
  2
{DE06B17D-846A-4C96-9720-C6928D764F4E}
  9
$EXTNAMES
290
     1
  9
$PSVPSCALE
 40
0.0
  9
$OLESTARTUP
290
     0
  0
ENDSEC
  0
SECTION
  2
CLASSES
  0
CLASS
  1
ACDBDICTIONARYWDFLT
  2
AcDbDictionaryWithDefault
  3
AutoCAD 2000
 90
        0
280
     0
281
     0
  0
CLASS
  1
ACDBPLACEHOLDER
  2
AcDbPlaceHolder
  3
AutoCAD 2000
 90
        0
280
     0
281
     0
  0
CLASS
  1
LAYOUT
  2
AcDbLayout
  3
AutoCAD 2000
 90
        0
280
     0
281
     0
  0
ENDSEC
  0
SECTION
  2
TABLES
  0
TABLE
  2
VPORT
  5
8
330
0
100
AcDbSymbolTable
 70
     2
  0
VPORT
  5
28B
330
8
100
AcDbSymbolTableRecord
100
AcDbViewportTableRecord
  2
*Active
 70
     0
 10
0.0
 20
0.0
 11
1.0
 21
1.0
 12
124.5026516713374
 22
127.4298006915125
 13
0.0
 23
0.0
 14
1.0
 24
1.0
 15
0.0
 25
0.0
 16
0.0
 26
0.0
 36
1.0
 17
0.0
 27
0.0
 37
0.0
 40
300.4215448994323
 41
1.912109375
 42
50.0
 43
0.0
 44
0.0
 50
0.0
 51
0.0
 71
     0
 72
   100
 73
     1
 74
     1
 75
     0
 76
     0
 77
     0
 78
     0
281
     0
 65
     1
110
0.0
120
0.0
130
0.0
111
1.0
121
0.0
131
0.0
112
0.0
122
1.0
132
0.0
 79
     0
146
0.0
  0
ENDTAB
  0
TABLE
  2
LTYPE
  5
5
330
0
100
AcDbSymbolTable
 70
     4
  0
LTYPE
  5
12
330
5
100
AcDbSymbolTableRecord
100
AcDbLinetypeTableRecord
  2
BYBLOCK
 70
     0
  3

 72
    65
 73
     0
 40
0.0
  0
LTYPE
  5
13
330
5
100
AcDbSymbolTableRecord
100
AcDbLinetypeTableRecord
  2
BYLAYER
 70
     0
  3

 72
    65
 73
     0
 40
0.0
  0
LTYPE
  5
14
330
5
100
AcDbSymbolTableRecord
100
AcDbLinetypeTableRecord
  2
CONTINUOUS
 70
     0
  3
Solid line
 72
    65
 73
     0
 40
0.0
  0
LTYPE
  5
1F
330
5
100
AcDbSymbolTableRecord
100
AcDbLinetypeTableRecord
  2
AIGENLINE001
 70
     0
  3
generate AI->DXF Converter
 72
    65
 73
     2
 40
1.552229999999999
 49
0.776115
 74
     0
 49
-0.776115
 74
     0
  0
LTYPE
  5
20
330
5
100
AcDbSymbolTableRecord
100
AcDbLinetypeTableRecord
  2
AIGENLINE002
 70
     0
  3
generate AI->DXF Converter
 72
    65
 73
     4
 40
5.856144999999999
 49
3.5278
 74
     0
 49
-0.776115
 74
     0
 49
0.776115
 74
     0
 49
-0.776115
 74
     0
  0
LTYPE
  5
21
330
5
100
AcDbSymbolTableRecord
100
AcDbLinetypeTableRecord
  2
AIGENLINE003
 70
     0
  3
generate AI->DXF Converter
 72
    65
 73
     6
 40
7.408375
 49
3.5278
 74
     0
 49
-0.776115
 74
     0
 49
0.776115
 74
     0
 49
-0.776115
 74
     0
 49
0.776115
 74
     0
 49
-0.776115
 74
     0
  0
ENDTAB
  0
TABLE
  2
LAYER
  5
2
330
0
100
AcDbSymbolTable
 70
     2
  0
LAYER
  5
E
330
2
100
AcDbSymbolTableRecord
100
AcDbLayerTableRecord
  2
0
 70
     0
 62
     7
  6
CONTINUOUS
370
    -3
390
27E
  0
LAYER
  5
22
330
2
100
AcDbSymbolTableRecord
100
AcDbLayerTableRecord
  2
_________2
 70
     0
 62
     7
  6
CONTINUOUS
370
    -3
390
27E
  0
ENDTAB
  0
TABLE
  2
STYLE
  5
3
330
0
100
AcDbSymbolTable
 70
     1
  0
STYLE
  5
F
330
3
100
AcDbSymbolTableRecord
100
AcDbTextStyleTableRecord
  2
STANDARD
 70
     0
 40
0.0
 41
0.0
 50
0.0
 71
     0
 42
0.0
  3
TXT
  4
BIGFONT
  0
ENDTAB
  0
TABLE
  2
VIEW
  5
6
330
0
100
AcDbSymbolTable
 70
     0
  0
ENDTAB
  0
TABLE
  2
UCS
  5
7
330
0
100
AcDbSymbolTable
 70
     0
  0
ENDTAB
  0
TABLE
  2
APPID
  5
9
330
0
100
AcDbSymbolTable
 70
     1
  0
APPID
  5
10
330
9
100
AcDbSymbolTableRecord
100
AcDbRegAppTableRecord
  2
ACAD
 70
     0
  0
ENDTAB
  0
TABLE
  2
DIMSTYLE
  5
A
330
0
100
AcDbSymbolTable
 70
     1
100
AcDbDimStyleTable
 71
     0
  0
DIMSTYLE
105
27A
330
A
100
AcDbSymbolTableRecord
100
AcDbDimStyleTableRecord
  2
STANDARD
 70
     0
340
F
  0
ENDTAB
  0
TABLE
  2
BLOCK_RECORD
  5
1
330
0
100
AcDbSymbolTable
 70
     0
  0
BLOCK_RECORD
  5
18
330
1
100
AcDbSymbolTableRecord
100
AcDbBlockTableRecord
  2
*MODEL_SPACE
340
281
  0
BLOCK_RECORD
  5
15
330
1
100
AcDbSymbolTableRecord
100
AcDbBlockTableRecord
  2
*PAPER_SPACE
340
282
  0
ENDTAB
  0
ENDSEC
  0
SECTION
  2
BLOCKS
  0
BLOCK
  5
19
330
18
100
AcDbEntity
  8
0
100
AcDbBlockBegin
  2
*MODEL_SPACE
 70
     0
 10
0.0
 20
0.0
 30
0.0
  3
*MODEL_SPACE
  1

  0
ENDBLK
  5
1A
330
18
100
AcDbEntity
  8
0
100
AcDbBlockEnd
  0
BLOCK
  5
16
330
15
100
AcDbEntity
 67
     1
  8
0
100
AcDbBlockBegin
  2
*PAPER_SPACE
 70
     0
 10
0.0
 20
0.0
 30
0.0
  3
*PAPER_SPACE
  1

  0
ENDBLK
  5
17
330
15
100
AcDbEntity
 67
     1
  8
0
100
AcDbBlockEnd
  0
ENDSEC
  0
SECTION
  2
ENTITIES
  0
TEXT
  5
24
330
18
100
AcDbEntity
  8
0
100
AcDbText
 10
142.498122
 20
53.7507
 30
0.0
 40
3.09234
  1
排水目皿付（尺度 1：5）
 41
0.5
 72
     1
 11
152.909
 21
53.7507
 31
0.0
100
AcDbText
  0
TEXT
  5
25
330
18
100
AcDbEntity
  8
0
100
AcDbText
 10
149.3018089999999
 20
62.378
 30
0.0
 40
3.09234
  1
G1 1/4
 41
0.5
 72
     1
 11
152.858
 21
62.378
 31
0.0
100
AcDbText
  0
TEXT
  5
26
330
18
100
AcDbEntity
  8
0
100
AcDbText
 10
151.3541349999999
 20
95.5844
 30
0.0
 40
3.09234
  1
%%c81
 41
0.5
 72
     1
 11
153.1579999999999
 21
95.5844
 31
0.0
100
AcDbText
  0
TEXT
  5
27
330
18
100
AcDbEntity
  8
0
100
AcDbText
 10
27.0333
 20
120.1994225
 30
0.0
 40
3.09234
  1
max.30
 50
90.0
 41
0.5
 72
     1
 11
27.0333
 21
123.936
 31
0.0
100
AcDbText
  0
TEXT
  5
28
330
18
100
AcDbEntity
  8
0
100
AcDbText
 10
23.6418
 20
200.879135
 30
0.0
 40
3.09234
  1
415
 50
90.0
 41
0.5
 72
     1
 11
23.6418
 21
202.6829999999999
 31
0.0
100
AcDbText
  0
TEXT
  5
29
330
18
100
AcDbEntity
  8
0
100
AcDbText
 10
30.521
 20
200.62144
 30
0.0
 40
3.09234
  1
355
 50
90.0
 41
0.5
 72
     1
 11
30.521
 21
202.6829999999999
 31
0.0
100
AcDbText
  0
TEXT
  5
2A
330
18
100
AcDbEntity
  8
0
100
AcDbText
 10
114.8349999999999
 20
210.7032874999999
 30
0.0
 40
3.09234
  1
205
 50
90.0
 41
0.5
 72
     1
 11
114.8349999999999
 21
212.636
 31
0.0
100
AcDbText
  0
TEXT
  5
2B
330
18
100
AcDbEntity
  8
0
100
AcDbText
 10
166.6109999999999
 20
201.0079825
 30
0.0
 40
3.09234
  1
150
 50
90.0
 41
0.5
 72
     1
 11
166.6109999999999
 21
202.6829999999999
 31
0.0
100
AcDbText
  0
TEXT
  5
2C
330
18
100
AcDbEntity
  8
0
100
AcDbText
 10
114.8349999999999
 20
190.2879825
 30
0.0
 40
3.09234
  1
210
 50
90.0
 41
0.5
 72
     1
 11
114.8349999999999
 21
191.9629999999999
 31
0.0
100
AcDbText
  0
TEXT
  5
2D
330
18
100
AcDbEntity
  8
0
100
AcDbText
 10
120.3969999999999
 20
125.71383
 30
0.0
 40
3.09234
  1
100
 50
90.0
 41
0.5
 72
     1
 11
120.3969999999999
 21
127.26
 31
0.0
100
AcDbText
  0
TEXT
  5
2E
330
18
100
AcDbEntity
  8
0
100
AcDbText
 10
114.148
 20
127.4895249999999
 30
0.0
 40
3.09234
  1
75
 50
90.0
 41
0.5
 72
     1
 11
114.148
 21
128.7779999999999
 31
0.0
100
AcDbText
  0
TEXT
  5
2F
330
18
100
AcDbEntity
  8
0
100
AcDbText
 10
68.4645
 20
128.3583724999999
 30
0.0
 40
3.09234
  1
60
 50
90.0
 41
0.5
 72
     1
 11
68.4645
 21
129.518
 31
0.0
100
AcDbText
  0
TEXT
  5
30
330
18
100
AcDbEntity
  8
0
100
AcDbText
 10
165.479
 20
75.08422499999999
 30
0.0
 40
3.09234
  1
32
 50
90.0
 41
0.5
 72
     1
 11
165.479
 21
76.3727
 31
0.0
100
AcDbText
  0
TEXT
  5
31
330
18
100
AcDbEntity
  8
0
100
AcDbText
 10
80.66138
 20
196.804
 30
0.0
 40
3.09234
  1
%%c46
 41
0.5
 72
     2
 11
84.7845
 21
196.804
 31
0.0
100
AcDbText
  0
TEXT
  5
32
330
18
100
AcDbEntity
  8
0
100
AcDbText
 10
138.3059824999999
 20
187.8909999999999
 30
0.0
 40
3.09234
  1
R10
 41
0.5
 72
     1
 11
139.9809999999999
 21
187.8909999999999
 31
0.0
100
AcDbText
  0
TEXT
  5
33
330
18
100
AcDbEntity
  8
0
100
AcDbText
 10
150.3229825
 20
217.209
 30
0.0
 40
3.09234
  1
150
 41
0.5
 72
     1
 11
151.9979999999999
 21
217.209
 31
0.0
100
AcDbText
  0
TEXT
  5
34
330
18
100
AcDbEntity
  8
0
100
AcDbText
 10
160.5202874999999
 20
116.6819999999999
 30
0.0
 40
3.09234
  1
205
 41
0.5
 72
     1
 11
162.453
 21
116.6819999999999
 31
0.0
100
AcDbText
  0
TEXT
  5
35
330
18
100
AcDbEntity
  8
0
100
AcDbText
 10
133.6588019999999
 20
204.125
 30
0.0
 40
3.09234
  1
（2ケ所）
 41
0.5
 72
     1
 11
137.8849999999999
 21
204.125
 31
0.0
100
AcDbText
  0
TEXT
  5
36
330
18
100
AcDbEntity
  8
0
100
AcDbText
 10
135.1097415
 20
209.812
 30
0.0
 40
3.09234
  1
%%c10穴
 41
0.5
 72
     1
 11
137.764
 21
209.812
 31
0.0
100
AcDbText
  0
TEXT
  5
37
330
18
100
AcDbEntity
  8
0
100
AcDbText
 10
139.3389999999999
 20
174.1349999999999
 30
0.0
 40
3.09234
  1
注）A寸法は洗面器現品を
 41
0.5
100
AcDbText
  0
TEXT
  5
38
330
18
100
AcDbEntity
  8
0
100
AcDbText
 10
139.3389999999999
 20
170.27
 30
0.0
 40
3.09234
  1
　　測定して穴あけしてください。
 41
0.5
100
AcDbText
  0
TEXT
  5
39
330
18
100
AcDbEntity
  8
0
100
AcDbText
 10
143.8032989999999
 20
179.889
 30
0.0
 40
3.09234
  1
カウンター切込寸法
 41
0.5
 72
     1
 11
151.9979999999999
 21
179.889
 31
0.0
100
AcDbText
  0
TEXT
  5
3A
330
18
100
AcDbEntity
  8
0
100
AcDbText
 10
151.48261
 20
224.8079999999999
 30
0.0
 40
3.09234
  1
A
 41
0.5
 72
     1
 11
151.9979999999999
 21
224.8079999999999
 31
0.0
100
AcDbText
  0
TEXT
  5
3B
330
18
100
AcDbEntity
  8
0
100
AcDbText
 10
150.0652874999999
 20
109.949
 30
0.0
 40
3.09234
  1
280
 41
0.5
 72
     1
 11
151.9979999999999
 21
109.949
 31
0.0
100
AcDbText
  0
TEXT
  5
3C
330
18
100
AcDbEntity
  8
0
100
AcDbText
 10
69.47798750000001
 20
112.681
 30
0.0
 40
3.09234
  1
560
 41
0.5
 72
     1
 11
71.4107
 21
112.681
 31
0.0
100
AcDbText
  0
TEXT
  5
3D
330
18
100
AcDbEntity
  8
0
100
AcDbText
 10
69.34914
 20
165.139
 30
0.0
 40
3.09234
  1
695
 41
0.5
 72
     1
 11
71.4107
 21
165.139
 31
0.0
100
AcDbText
  0
TEXT
  5
3E
330
18
100
AcDbEntity
  8
0
100
AcDbText
 10
69.34914
 20
172.759
 30
0.0
 40
3.09234
  1
635
 41
0.5
 72
     1
 11
71.4107
 21
172.759
 31
0.0
100
AcDbText
  0
LINE
  5
3F
330
18
100
AcDbEntity
  8
0
100
AcDbLine
 10
160.714
 20
86.8828
 30
0.0
 11
160.9789999999999
 21
87.6579
 31
0.0
  0
ARC
  5
40
330
18
100
AcDbEntity
  8
0
100
AcDbCircle
 10
160.4062169999999
 20
87.847754
 30
0.0
 40
0.603061
100
AcDbArc
 50
341.651038
 51
359.998116
  0
ARC
  5
41
330
18
100
AcDbEntity
  8
0
100
AcDbCircle
 10
160.3776639999999
 20
87.816723
 30
0.0
 40
0.6323750000000001
100
AcDbArc
 50
2.810861
 51
84.80004800000001
  0
LINE
  5
42
330
18
100
AcDbEntity
  8
0
100
AcDbLine
 10
160.132
 20
86.4724
 30
0.0
 11
152.909
 21
86.4724
 31
0.0
  0
ARC
  5
43
330
18
100
AcDbEntity
  8
0
100
AcDbCircle
 10
160.1292699999999
 20
87.09476999999999
 30
0.0
 40
0.6223330000000001
100
AcDbArc
 50
270.265286
 51
340.082014
  0
ARC
  5
44
330
18
100
AcDbEntity
  8
0
100
AcDbCircle
 10
152.903932
 20
-36.919894
 30
0.0
 40
125.5923899999999
100
AcDbArc
 50
86.562234
 51
89.99746700000001
  0
LINE
  5
45
330
18
100
AcDbEntity
  8
0
100
AcDbLine
 10
145.1049999999999
 20
86.8828
 30
0.0
 11
144.841
 21
87.6579
 31
0.0
  0
ARC
  5
46
330
18
100
AcDbEntity
  8
0
100
AcDbCircle
 10
145.392159
 20
87.847494
 30
0.0
 40
0.5828560000000001
100
AcDbArc
 50
179.976382
 51
198.9819839999999
  0
ARC
  5
47
330
18
100
AcDbEntity
  8
0
100
AcDbCircle
 10
145.442879
 20
87.814808
 30
0.0
 40
0.6344310000000001
100
AcDbArc
 50
95.32968000000002
 51
177.0250409999999
  0
LINE
  5
48
330
18
100
AcDbEntity
  8
0
100
AcDbLine
 10
145.6859999999999
 20
86.4724
 30
0.0
 11
152.909
 21
86.4724
 31
0.0
  0
ARC
  5
49
330
18
100
AcDbEntity
  8
0
100
AcDbCircle
 10
145.688856
 20
87.092653
 30
0.0
 40
0.620215
100
AcDbArc
 50
199.781001
 51
269.77584
  0
ARC
  5
4A
330
18
100
AcDbEntity
  8
0
100
AcDbCircle
 10
152.915005
 20
-36.920288
 30
0.0
 40
125.592784
100
AcDbArc
 50
90.002519
 51
93.43774099999999
  0
LINE
  5
4B
330
18
100
AcDbEntity
  8
0
100
AcDbLine
 10
143.3179999999999
 20
208.3779999999999
 30
0.0
 11
132.692
 21
208.3779999999999
 31
0.0
  0
ARC
  5
4C
330
18
100
AcDbEntity
  8
0
100
AcDbCircle
 10
158.459498
 20
196.2220289999999
 30
0.0
 40
1.03947
100
AcDbArc
 50
272.1490309999999
 51
357.870719
  0
ARC
  5
4D
330
18
100
AcDbEntity
  8
0
100
AcDbCircle
 10
145.536961
 20
196.2220289999999
 30
0.0
 40
1.03947
100
AcDbArc
 50
182.1293009999999
 51
267.850989
  0
ARC
  5
4E
330
18
100
AcDbEntity
  8
0
100
AcDbCircle
 10
158.459498
 20
209.1449379999999
 30
0.0
 40
1.03947
100
AcDbArc
 50
2.129281
 51
87.85096899999999
  0
ARC
  5
4F
330
18
100
AcDbEntity
  8
0
100
AcDbCircle
 10
145.536961
 20
209.1449379999999
 30
0.0
 40
1.03947
100
AcDbArc
 50
92.149011
 51
177.870699
  0
ARC
  5
50
330
18
100
AcDbEntity
  8
0
  6
AIGENLINE001
100
AcDbCircle
 10
151.998229
 20
202.683312
 30
0.0
 40
3.299733999999999
100
AcDbArc
 50
270.00002
 51
359.9999899999999
  0
ARC
  5
51
330
18
100
AcDbEntity
  8
0
  6
AIGENLINE001
100
AcDbCircle
 10
151.998229
 20
202.683311
 30
0.0
 40
3.299733
100
AcDbArc
 50
179.9999699999999
 51
270.00002
  0
ARC
  5
52
330
18
100
AcDbEntity
  8
0
  6
AIGENLINE001
100
AcDbCircle
 10
151.998402
 20
202.6834829999999
 30
0.0
 40
3.299905999999999
100
AcDbArc
 50
90.00299100000002
 51
180.003001
  0
ARC
  5
53
330
18
100
AcDbEntity
  8
0
  6
AIGENLINE001
100
AcDbCircle
 10
151.998056
 20
202.6834829999999
 30
0.0
 40
3.299905999999999
100
AcDbArc
 50
359.9970189999999
 51
89.996989
  0
ARC
  5
54
330
18
100
AcDbEntity
  8
0
  6
AIGENLINE001
100
AcDbCircle
 10
151.910477
 20
202.771063
 30
0.0
 40
2.389324
100
AcDbArc
 50
272.1047669999999
 51
357.895243
  0
ARC
  5
55
330
18
100
AcDbEntity
  8
0
  6
AIGENLINE001
100
AcDbCircle
 10
152.0867649999999
 20
202.7718469999999
 30
0.0
 40
2.390136
100
AcDbArc
 50
182.1228639999999
 51
267.8771649999999
  0
ARC
  5
56
330
18
100
AcDbEntity
  8
0
  6
AIGENLINE001
100
AcDbCircle
 10
152.086329
 20
202.5955689999999
 30
0.0
 40
2.389670999999999
100
AcDbArc
 50
92.11278699999999
 51
177.8957649999999
  0
ARC
  5
57
330
18
100
AcDbEntity
  8
0
  6
AIGENLINE001
100
AcDbCircle
 10
151.909649
 20
202.5950879999999
 30
0.0
 40
2.390169999999999
100
AcDbArc
 50
2.115306
 51
87.87610200000001
  0
LINE
  5
58
330
18
100
AcDbEntity
  8
0
100
AcDbLine
 10
145.4979999999999
 20
210.184
 30
0.0
 11
158.4979999999999
 21
210.184
 31
0.0
  0
LINE
  5
59
330
18
100
AcDbEntity
  8
0
100
AcDbLine
 10
128.496
 20
205.02
 30
0.0
 11
127.3509999999999
 21
203.037
 31
0.0
  0
LINE
  5
5A
330
18
100
AcDbEntity
  8
0
100
AcDbLine
 10
127.3509999999999
 20
203.037
 30
0.0
 11
129.334
 21
204.182
 31
0.0
  0
LINE
  5
5B
330
18
100
AcDbEntity
  8
0
100
AcDbLine
 10
129.334
 20
204.182
 30
0.0
 11
128.496
 21
205.02
 31
0.0
  0
LINE
  5
5C
330
18
100
AcDbEntity
  8
0
100
AcDbLine
 10
125.441
 20
200.2879999999999
 30
0.0
 11
126.5849999999999
 21
202.271
 31
0.0
  0
LINE
  5
5D
330
18
100
AcDbEntity
  8
0
100
AcDbLine
 10
126.5849999999999
 20
202.271
 30
0.0
 11
124.602
 21
201.1259999999999
 31
0.0
  0
LINE
  5
5E
330
18
100
AcDbEntity
  8
0
100
AcDbLine
 10
124.602
 20
201.1259999999999
 30
0.0
 11
125.441
 21
200.2879999999999
 31
0.0
  0
LINE
  5
5F
330
18
100
AcDbEntity
  8
0
100
AcDbLine
 10
123.672
 20
199.358
 30
0.0
 11
132.692
 21
208.3779999999999
 31
0.0
  0
LINE
  5
60
330
18
100
AcDbEntity
  8
0
100
AcDbLine
 10
143.646
 20
193.4929999999999
 30
0.0
 11
144.791
 21
195.476
 31
0.0
  0
LINE
  5
61
330
18
100
AcDbEntity
  8
0
100
AcDbLine
 10
144.791
 20
195.476
 30
0.0
 11
142.808
 21
194.3319999999999
 31
0.0
  0
LINE
  5
62
330
18
100
AcDbEntity
  8
0
100
AcDbLine
 10
142.808
 20
194.3319999999999
 30
0.0
 11
143.646
 21
193.4929999999999
 31
0.0
  0
LINE
  5
63
330
18
100
AcDbEntity
  8
0
100
AcDbLine
 10
144.791
 20
195.476
 30
0.0
 11
140.751
 21
191.437
 31
0.0
  0
LINE
  5
64
330
18
100
AcDbEntity
  8
0
100
AcDbLine
 10
145.4979999999999
 20
195.1829999999999
 30
0.0
 11
158.4979999999999
 21
195.1829999999999
 31
0.0
  0
LINE
  5
65
330
18
100
AcDbEntity
  8
0
100
AcDbLine
 10
159.4979999999999
 20
209.184
 30
0.0
 11
159.4979999999999
 21
196.1829999999999
 31
0.0
  0
LINE
  5
66
330
18
100
AcDbEntity
  8
0
100
AcDbLine
 10
144.4979999999999
 20
209.184
 30
0.0
 11
144.4979999999999
 21
196.1829999999999
 31
0.0
  0
LINE
  5
67
330
18
100
AcDbEntity
  8
0
  6
AIGENLINE002
100
AcDbLine
 10
175.577
 20
202.6829999999999
 30
0.0
 11
178.643
 21
202.6829999999999
 31
0.0
  0
LINE
  5
68
330
18
100
AcDbEntity
  8
0
  6
AIGENLINE002
100
AcDbLine
 10
176.9979999999999
 20
204.2549999999999
 30
0.0
 11
176.9979999999999
 21
201.1899999999999
 31
0.0
  0
ARC
  5
69
330
18
100
AcDbEntity
  8
0
100
AcDbCircle
 10
176.9793629999999
 20
202.7023729999999
 30
0.0
 40
0.519285
100
AcDbArc
 50
272.064209
 51
357.896327
  0
ARC
  5
6A
330
18
100
AcDbEntity
  8
0
100
AcDbCircle
 10
177.017527
 20
202.7024139999999
 30
0.0
 40
0.519354
100
AcDbArc
 50
182.107895
 51
267.8526339999999
  0
ARC
  5
6B
330
18
100
AcDbEntity
  8
0
100
AcDbCircle
 10
177.0177689999999
 20
202.6643249999999
 30
0.0
 40
0.5195910000000001
100
AcDbArc
 50
92.17301799999999
 51
177.9059259999999
  0
ARC
  5
6C
330
18
100
AcDbEntity
  8
0
100
AcDbCircle
 10
176.9980669999999
 20
202.683311
 30
0.0
 40
0.5002310000000002
100
AcDbArc
 50
0.00001
 51
89.99998000000001
  0
LINE
  5
6D
330
18
100
AcDbEntity
  8
0
100
AcDbLine
 10
176.9979999999999
 20
204.9549999999999
 30
0.0
 11
176.9979999999999
 21
224.8079999999999
 31
0.0
  0
LINE
  5
6E
330
18
100
AcDbEntity
  8
0
  6
AIGENLINE002
100
AcDbLine
 10
142.3029999999999
 20
202.6829999999999
 30
0.0
 11
161.355
 21
202.6829999999999
 31
0.0
  0
LINE
  5
6F
330
18
100
AcDbEntity
  8
0
  6
AIGENLINE002
100
AcDbLine
 10
125.577
 20
202.6829999999999
 30
0.0
 11
128.6419999999999
 21
202.6829999999999
 31
0.0
  0
LINE
  5
70
330
18
100
AcDbEntity
  8
0
  6
AIGENLINE002
100
AcDbLine
 10
151.9979999999999
 20
212.599
 30
0.0
 11
151.9979999999999
 21
193.124
 31
0.0
  0
LINE
  5
71
330
18
100
AcDbEntity
  8
0
  6
AIGENLINE002
100
AcDbLine
 10
126.9979999999999
 20
204.2549999999999
 30
0.0
 11
126.9979999999999
 21
201.1899999999999
 31
0.0
  0
ARC
  5
72
330
18
100
AcDbEntity
  8
0
100
AcDbCircle
 10
126.978998
 20
202.7023729999999
 30
0.0
 40
0.519285
100
AcDbArc
 50
272.064209
 51
357.896327
  0
ARC
  5
73
330
18
100
AcDbEntity
  8
0
100
AcDbCircle
 10
127.017162
 20
202.7024139999999
 30
0.0
 40
0.519354
100
AcDbArc
 50
182.107895
 51
267.8526339999999
  0
ARC
  5
74
330
18
100
AcDbEntity
  8
0
100
AcDbCircle
 10
127.017404
 20
202.6643249999999
 30
0.0
 40
0.5195910000000001
100
AcDbArc
 50
92.17301799999999
 51
177.9059259999999
  0
ARC
  5
75
330
18
100
AcDbEntity
  8
0
100
AcDbCircle
 10
126.997702
 20
202.683311
 30
0.0
 40
0.5002310000000002
100
AcDbArc
 50
0.00001
 51
89.99998000000001
  0
ARC
  5
76
330
18
100
AcDbEntity
  8
0
  6
AIGENLINE001
100
AcDbCircle
 10
125.217573
 20
362.700341
 30
0.0
 40
238.198493
100
AcDbArc
 50
277.684109
 51
278.259491
  0
ARC
  5
77
330
18
100
AcDbEntity
  8
0
  6
AIGENLINE001
100
AcDbCircle
 10
154.6714629999999
 20
156.0424219999999
 30
0.0
 40
29.457806
100
AcDbArc
 50
279.308593
 51
287.068988
  0
ARC
  5
78
330
18
100
AcDbEntity
  8
0
  6
AIGENLINE001
100
AcDbCircle
 10
157.961802
 20
144.833687
 30
0.0
 40
17.777591
100
AcDbArc
 50
287.535071
 51
298.0366899999999
  0
ARC
  5
79
330
18
100
AcDbEntity
  8
0
  6
AIGENLINE001
100
AcDbCircle
 10
160.891639
 20
139.066634
 30
0.0
 40
11.31087699999999
100
AcDbArc
 50
298.668455
 51
311.1278549999999
  0
ARC
  5
7A
330
18
100
AcDbEntity
  8
0
  6
AIGENLINE001
100
AcDbCircle
 10
163.0452939999999
 20
136.47167
 30
0.0
 40
7.940139
100
AcDbArc
 50
311.738251
 51
329.274118
  0
ARC
  5
7B
330
18
100
AcDbEntity
  8
0
  6
AIGENLINE001
100
AcDbCircle
 10
170.2267459999999
 20
132.056585
 30
0.0
 40
0.504988
100
AcDbArc
 50
90.28003100000002
 51
134.816851
  0
ARC
  5
7C
330
18
100
AcDbEntity
  8
0
  6
AIGENLINE001
100
AcDbCircle
 10
178.744706
 20
362.452312
 30
0.0
 40
237.9482139999999
100
AcDbArc
 50
261.73995
 51
262.315917
  0
ARC
  5
7D
330
18
100
AcDbEntity
  8
0
  6
AIGENLINE001
100
AcDbCircle
 10
149.3245749999999
 20
156.041568
 30
0.0
 40
29.456993
100
AcDbArc
 50
252.9305229999999
 51
260.690806
  0
ARC
  5
7E
330
18
100
AcDbEntity
  8
0
  6
AIGENLINE001
100
AcDbCircle
 10
146.034796
 20
144.834759
 30
0.0
 40
17.77878499999999
100
AcDbArc
 50
241.963454
 51
252.464237
  0
ARC
  5
7F
330
18
100
AcDbEntity
  8
0
  6
AIGENLINE001
100
AcDbCircle
 10
143.104852
 20
139.0676929999999
 30
0.0
 40
11.312008
100
AcDbArc
 50
228.87376
 51
241.33227
  0
ARC
  5
80
330
18
100
AcDbEntity
  8
0
  6
AIGENLINE001
100
AcDbCircle
 10
140.952037
 20
136.4735669999999
 30
0.0
 40
7.942450999999999
100
AcDbArc
 50
210.7319069999999
 51
228.263629
  0
ARC
  5
81
330
18
100
AcDbEntity
  8
0
  6
AIGENLINE001
100
AcDbCircle
 10
133.7695239999999
 20
132.0577889999999
 30
0.0
 40
0.5037810000000001
100
AcDbArc
 50
45.12692499999999
 51
89.77615300000001
  0
LINE
  5
82
330
18
100
AcDbEntity
  8
0
100
AcDbLine
 10
151.747
 20
120.7789999999999
 30
0.0
 11
151.747
 21
121.082
 31
0.0
  0
LINE
  5
83
330
18
100
AcDbEntity
  8
0
100
AcDbLine
 10
151.747
 20
121.082
 30
0.0
 11
151.747
 21
121.716
 31
0.0
  0
LINE
  5
84
330
18
100
AcDbEntity
  8
0
100
AcDbLine
 10
152.2489999999999
 20
120.7789999999999
 30
0.0
 11
152.2489999999999
 21
121.082
 31
0.0
  0
LINE
  5
85
330
18
100
AcDbEntity
  8
0
100
AcDbLine
 10
152.2489999999999
 20
121.082
 30
0.0
 11
152.2489999999999
 21
121.716
 31
0.0
  0
LINE
  5
86
330
18
100
AcDbEntity
  8
0
100
AcDbLine
 10
152.2489999999999
 20
120.7789999999999
 30
0.0
 11
152.1779999999999
 21
120.5929999999999
 31
0.0
  0
LINE
  5
87
330
18
100
AcDbEntity
  8
0
100
AcDbLine
 10
151.8179999999999
 20
120.5929999999999
 30
0.0
 11
151.747
 21
120.7789999999999
 31
0.0
  0
LINE
  5
88
330
18
100
AcDbEntity
  8
0
100
AcDbLine
 10
151.8179999999999
 20
120.5929999999999
 30
0.0
 11
152.1779999999999
 21
120.5929999999999
 31
0.0
  0
LINE
  5
89
330
18
100
AcDbEntity
  8
0
100
AcDbLine
 10
151.747
 20
120.7789999999999
 30
0.0
 11
152.2489999999999
 21
120.7789999999999
 31
0.0
  0
LINE
  5
8A
330
18
100
AcDbEntity
  8
0
100
AcDbLine
 10
152.6189999999999
 20
121.082
 30
0.0
 11
152.6189999999999
 21
121.716
 31
0.0
  0
LINE
  5
8B
330
18
100
AcDbEntity
  8
0
100
AcDbLine
 10
151.377
 20
121.082
 30
0.0
 11
151.377
 21
121.716
 31
0.0
  0
LINE
  5
8C
330
18
100
AcDbEntity
  8
0
100
AcDbLine
 10
151.377
 20
121.082
 30
0.0
 11
152.6189999999999
 21
121.082
 31
0.0
  0
LINE
  5
8D
330
18
100
AcDbEntity
  8
0
100
AcDbLine
 10
151.114
 20
121.716
 30
0.0
 11
152.8829999999999
 21
121.716
 31
0.0
  0
LINE
  5
8E
330
18
100
AcDbEntity
  8
0
100
AcDbLine
 10
151.114
 20
121.716
 30
0.0
 11
151.114
 21
122.061
 31
0.0
  0
LINE
  5
8F
330
18
100
AcDbEntity
  8
0
100
AcDbLine
 10
152.8829999999999
 20
121.716
 30
0.0
 11
152.8829999999999
 21
122.061
 31
0.0
  0
LINE
  5
90
330
18
100
AcDbEntity
  8
0
100
AcDbLine
 10
151.114
 20
122.061
 30
0.0
 11
152.8829999999999
 21
122.061
 31
0.0
  0
LINE
  5
91
330
18
100
AcDbEntity
  8
0
100
AcDbLine
 10
151.747
 20
122.061
 30
0.0
 11
151.747
 21
125.0609999999999
 31
0.0
  0
LINE
  5
92
330
18
100
AcDbEntity
  8
0
100
AcDbLine
 10
152.2489999999999
 20
122.061
 30
0.0
 11
152.2489999999999
 21
125.0609999999999
 31
0.0
  0
ARC
  5
93
330
18
100
AcDbEntity
  8
0
100
AcDbCircle
 10
155.646784
 20
124.4666229999999
 30
0.0
 40
0.979808
100
AcDbArc
 50
304.8086879999999
 51
320.340436
  0
LINE
  5
94
330
18
100
AcDbEntity
  8
0
100
AcDbLine
 10
157.0929999999999
 20
124.685
 30
0.0
 11
156.401
 21
123.841
 31
0.0
  0
ARC
  5
95
330
18
100
AcDbEntity
  8
0
100
AcDbCircle
 10
155.705804
 20
122.822278
 30
0.0
 40
0.407862
100
AcDbArc
 50
125.1642149999999
 51
179.427409
  0
ARC
  5
96
330
18
100
AcDbEntity
  8
0
  6
AIGENLINE001
100
AcDbCircle
 10
154.80784
 20
123.294037
 30
0.0
 40
0.509668
100
AcDbArc
 50
125.227024
 51
179.5167989999999
  0
ARC
  5
97
330
18
100
AcDbEntity
  8
0
100
AcDbCircle
 10
156.5594609999999
 20
125.217222
 30
0.0
 40
0.753761
100
AcDbArc
 50
315.0449019999999
 51
341.4547109999999
  0
ARC
  5
98
330
18
100
AcDbEntity
  8
0
  6
AIGENLINE001
100
AcDbCircle
 10
155.80587
 20
125.335456
 30
0.0
 40
0.5064060000000001
100
AcDbArc
 50
315.0180189999999
 51
341.2263549999999
  0
ARC
  5
99
330
18
100
AcDbEntity
  8
0
  6
AIGENLINE001
100
AcDbCircle
 10
157.2210949999999
 20
126.0496089999999
 30
0.0
 40
0.610837
100
AcDbArc
 50
104.5755019999999
 51
160.97467
  0
LINE
  5
9A
330
18
100
AcDbEntity
  8
0
100
AcDbLine
 10
155.2979999999999
 20
122.561
 30
0.0
 11
155.2979999999999
 21
122.826
 31
0.0
  0
LINE
  5
9B
330
18
100
AcDbEntity
  8
0
  6
AIGENLINE001
100
AcDbLine
 10
154.298
 20
122.561
 30
0.0
 11
154.298
 21
123.2979999999999
 31
0.0
  0
LINE
  5
9C
330
18
100
AcDbEntity
  8
0
100
AcDbLine
 10
156.206
 20
123.662
 30
0.0
 11
155.471
 21
123.1559999999999
 31
0.0
  0
LINE
  5
9D
330
18
100
AcDbEntity
  8
0
  6
AIGENLINE001
100
AcDbLine
 10
155.7479999999999
 20
124.561
 30
0.0
 11
154.514
 21
123.7099999999999
 31
0.0
  0
LINE
  5
9E
330
18
100
AcDbEntity
  8
0
  6
AIGENLINE001
100
AcDbLine
 10
155.7479999999999
 20
124.561
 30
0.0
 11
156.1639999999999
 21
124.977
 31
0.0
  0
LINE
  5
9F
330
18
100
AcDbEntity
  8
0
100
AcDbLine
 10
157.302
 20
125.0609999999999
 30
0.0
 11
157.274
 21
124.977
 31
0.0
  0
LINE
  5
A0
330
18
100
AcDbEntity
  8
0
  6
AIGENLINE001
100
AcDbLine
 10
156.644
 20
126.2489999999999
 30
0.0
 11
156.285
 21
125.172
 31
0.0
  0
LINE
  5
A1
330
18
100
AcDbEntity
  8
0
100
AcDbLine
 10
165.7479999999999
 20
125.9539999999999
 30
0.0
 11
165.7479999999999
 21
125.0609999999999
 31
0.0
  0
LINE
  5
A2
330
18
100
AcDbEntity
  8
0
100
AcDbLine
 10
152.2489999999999
 20
122.561
 30
0.0
 11
155.2979999999999
 21
122.561
 31
0.0
  0
LINE
  5
A3
330
18
100
AcDbEntity
  8
0
100
AcDbLine
 10
165.7479999999999
 20
125.0609999999999
 30
0.0
 11
151.9979999999999
 21
125.0609999999999
 31
0.0
  0
LINE
  5
A4
330
18
100
AcDbEntity
  8
0
100
AcDbLine
 10
165.144
 20
126.107
 30
0.0
 11
151.9979999999999
 21
126.107
 31
0.0
  0
LINE
  5
A5
330
18
100
AcDbEntity
  8
0
  6
AIGENLINE001
100
AcDbLine
 10
155.8779999999999
 20
126.561
 30
0.0
 11
151.9979999999999
 21
126.561
 31
0.0
  0
LINE
  5
A6
330
18
100
AcDbEntity
  8
0
  6
AIGENLINE001
100
AcDbLine
 10
155.1549999999999
 20
125.0609999999999
 30
0.0
 11
151.9979999999999
 21
125.0609999999999
 31
0.0
  0
LINE
  5
A7
330
18
100
AcDbEntity
  8
0
  6
AIGENLINE001
100
AcDbLine
 10
154.696
 20
124.561
 30
0.0
 11
151.9979999999999
 21
124.561
 31
0.0
  0
LINE
  5
A8
330
18
100
AcDbEntity
  8
0
  6
AIGENLINE001
100
AcDbLine
 10
153.852
 20
123.561
 30
0.0
 11
151.9979999999999
 21
123.561
 31
0.0
  0
ARC
  5
A9
330
18
100
AcDbEntity
  8
0
100
AcDbCircle
 10
148.3308599999999
 20
124.4440639999999
 30
0.0
 40
0.950941
100
AcDbArc
 50
219.336682
 51
235.312114
  0
LINE
  5
AA
330
18
100
AcDbEntity
  8
0
100
AcDbLine
 10
146.9039999999999
 20
124.685
 30
0.0
 11
147.595
 21
123.841
 31
0.0
  0
ARC
  5
AB
330
18
100
AcDbEntity
  8
0
100
AcDbCircle
 10
148.2902349999999
 20
122.8224199999999
 30
0.0
 40
0.407591
100
AcDbArc
 50
0.553067
 51
54.85526800000001
  0
ARC
  5
AC
330
18
100
AcDbEntity
  8
0
  6
AIGENLINE001
100
AcDbCircle
 10
149.1868489999999
 20
123.292617
 30
0.0
 40
0.5114520000000001
100
AcDbArc
 50
0.640637
 51
54.76581300000001
  0
ARC
  5
AD
330
18
100
AcDbEntity
  8
0
100
AcDbCircle
 10
147.4300629999999
 20
125.2145979999999
 30
0.0
 40
0.7470060000000001
100
AcDbArc
 50
198.506779
 51
225.188408
  0
ARC
  5
AE
330
18
100
AcDbEntity
  8
0
  6
AIGENLINE001
100
AcDbCircle
 10
148.1871379999999
 20
125.332055
 30
0.0
 40
0.502048
100
AcDbArc
 50
198.532936
 51
224.930281
  0
ARC
  5
AF
330
18
100
AcDbEntity
  8
0
  6
AIGENLINE001
100
AcDbCircle
 10
146.7744079999999
 20
126.049322
 30
0.0
 40
0.6111830000000001
100
AcDbArc
 50
19.04267699999999
 51
75.407111
  0
LINE
  5
B0
330
18
100
AcDbEntity
  8
0
100
AcDbLine
 10
148.6979999999999
 20
122.561
 30
0.0
 11
148.6979999999999
 21
122.826
 31
0.0
  0
LINE
  5
B1
330
18
100
AcDbEntity
  8
0
  6
AIGENLINE001
100
AcDbLine
 10
149.6979999999999
 20
122.561
 30
0.0
 11
149.6979999999999
 21
123.2979999999999
 31
0.0
  0
LINE
  5
B2
330
18
100
AcDbEntity
  8
0
100
AcDbLine
 10
147.7899999999999
 20
123.662
 30
0.0
 11
148.525
 21
123.1559999999999
 31
0.0
  0
LINE
  5
B3
330
18
100
AcDbEntity
  8
0
  6
AIGENLINE001
100
AcDbLine
 10
148.2479999999999
 20
124.561
 30
0.0
 11
149.4819999999999
 21
123.7099999999999
 31
0.0
  0
LINE
  5
B4
330
18
100
AcDbEntity
  8
0
  6
AIGENLINE001
100
AcDbLine
 10
148.2479999999999
 20
124.561
 30
0.0
 11
147.8319999999999
 21
124.977
 31
0.0
  0
LINE
  5
B5
330
18
100
AcDbEntity
  8
0
100
AcDbLine
 10
146.6939999999999
 20
125.0609999999999
 30
0.0
 11
146.722
 21
124.977
 31
0.0
  0
LINE
  5
B6
330
18
100
AcDbEntity
  8
0
  6
AIGENLINE001
100
AcDbLine
 10
147.352
 20
126.2489999999999
 30
0.0
 11
147.711
 21
125.172
 31
0.0
  0
LINE
  5
B7
330
18
100
AcDbEntity
  8
0
100
AcDbLine
 10
137.748
 20
125.9539999999999
 30
0.0
 11
137.748
 21
125.0609999999999
 31
0.0
  0
LINE
  5
B8
330
18
100
AcDbEntity
  8
0
100
AcDbLine
 10
151.747
 20
122.561
 30
0.0
 11
148.6979999999999
 21
122.561
 31
0.0
  0
LINE
  5
B9
330
18
100
AcDbEntity
  8
0
100
AcDbLine
 10
151.9979999999999
 20
132.562
 30
0.0
 11
172.1999999999999
 21
132.562
 31
0.0
  0
ARC
  5
BA
330
18
100
AcDbEntity
  8
0
100
AcDbCircle
 10
172.1981959999999
 20
132.2601799999999
 30
0.0
 40
0.3013949999999999
100
AcDbArc
 50
45.205359
 51
89.58157699999999
  0
ARC
  5
BB
330
18
100
AcDbEntity
  8
0
100
AcDbCircle
 10
172.1955439999999
 20
132.2612469999999
 30
0.0
 40
0.302518
100
AcDbArc
 50
0.3735820000000001
 51
44.706507
  0
LINE
  5
BC
330
18
100
AcDbEntity
  8
0
100
AcDbLine
 10
172.4979999999999
 20
132.2629999999999
 30
0.0
 11
172.4979999999999
 21
132.112
 31
0.0
  0
ARC
  5
BD
330
18
100
AcDbEntity
  8
0
100
AcDbCircle
 10
172.301777
 20
132.112445
 30
0.0
 40
0.196278
100
AcDbArc
 50
332.5813589999999
 51
359.964451
  0
ARC
  5
BE
330
18
100
AcDbEntity
  8
0
100
AcDbCircle
 10
157.283761
 20
139.782306
 30
0.0
 40
17.059476
100
AcDbArc
 50
323.3462339999999
 51
332.9419209999999
  0
ARC
  5
BF
330
18
100
AcDbEntity
  8
0
100
AcDbCircle
 10
162.932881
 20
135.7467199999999
 30
0.0
 40
10.11916899999999
100
AcDbArc
 50
299.5366649999999
 51
322.582838
  0
ARC
  5
C0
330
18
100
AcDbEntity
  8
0
100
AcDbCircle
 10
163.589437
 20
134.9847959999999
 30
0.0
 40
9.134688999999999
100
AcDbArc
 50
284.624772
 51
298.309603
  0
ARC
  5
C1
330
18
100
AcDbEntity
  8
0
100
AcDbCircle
 10
165.952931
 20
125.949605
 30
0.0
 40
0.204594
100
AcDbArc
 50
106.205616
 51
178.816131
  0
LINE
  5
C2
330
18
100
AcDbEntity
  8
0
100
AcDbLine
 10
151.9979999999999
 20
132.562
 30
0.0
 11
131.2959999999999
 21
132.562
 31
0.0
  0
LINE
  5
C3
330
18
100
AcDbEntity
  8
0
100
AcDbLine
 10
137.748
 20
125.0609999999999
 30
0.0
 11
151.9979999999999
 21
125.0609999999999
 31
0.0
  0
ARC
  5
C4
330
18
100
AcDbEntity
  8
0
100
AcDbCircle
 10
131.2972639999999
 20
132.260354
 30
0.0
 40
0.301216
100
AcDbArc
 50
90.27270300000003
 51
134.807367
  0
ARC
  5
C5
330
18
100
AcDbEntity
  8
0
100
AcDbCircle
 10
131.298199
 20
132.2629739999999
 30
0.0
 40
0.300026
100
AcDbArc
 50
135.286608
 51
179.953087
  0
LINE
  5
C6
330
18
100
AcDbEntity
  8
0
100
AcDbLine
 10
130.9979999999999
 20
132.2629999999999
 30
0.0
 11
130.9979999999999
 21
132.112
 31
0.0
  0
ARC
  5
C7
330
18
100
AcDbEntity
  8
0
100
AcDbCircle
 10
131.197403
 20
132.111811
 30
0.0
 40
0.199231
100
AcDbArc
 50
179.852677
 51
206.7745849999999
  0
ARC
  5
C8
330
18
100
AcDbEntity
  8
0
100
AcDbCircle
 10
146.203898
 20
139.77826
 30
0.0
 40
17.050619
100
AcDbArc
 50
207.058036
 51
216.658988
  0
ARC
  5
C9
330
18
100
AcDbEntity
  8
0
100
AcDbCircle
 10
140.563344
 20
135.7481649999999
 30
0.0
 40
10.120472
100
AcDbArc
 50
217.421833
 51
240.46692
  0
ARC
  5
CA
330
18
100
AcDbEntity
  8
0
100
AcDbCircle
 10
139.907574
 20
134.9873129999999
 30
0.0
 40
9.137323
100
AcDbArc
 50
241.693047
 51
255.374484
  0
ARC
  5
CB
330
18
100
AcDbEntity
  8
0
100
AcDbCircle
 10
137.542799
 20
125.9492239999999
 30
0.0
 40
0.205098
100
AcDbArc
 50
1.287358
 51
73.69085600000001
  0
LINE
  5
CC
330
18
100
AcDbEntity
  8
0
100
AcDbLine
 10
138.352
 20
126.107
 30
0.0
 11
151.9979999999999
 21
126.107
 31
0.0
  0
LINE
  5
CD
330
18
100
AcDbEntity
  8
0
  6
AIGENLINE001
100
AcDbLine
 10
148.1179999999999
 20
126.561
 30
0.0
 11
151.9979999999999
 21
126.561
 31
0.0
  0
LINE
  5
CE
330
18
100
AcDbEntity
  8
0
  6
AIGENLINE001
100
AcDbLine
 10
148.841
 20
125.0609999999999
 30
0.0
 11
151.9979999999999
 21
125.0609999999999
 31
0.0
  0
LINE
  5
CF
330
18
100
AcDbEntity
  8
0
  6
AIGENLINE001
100
AcDbLine
 10
149.2989999999999
 20
124.561
 30
0.0
 11
151.9979999999999
 21
124.561
 31
0.0
  0
LINE
  5
D0
330
18
100
AcDbEntity
  8
0
  6
AIGENLINE001
100
AcDbLine
 10
150.143
 20
123.561
 30
0.0
 11
151.9979999999999
 21
123.561
 31
0.0
  0
LINE
  5
D1
330
18
100
AcDbEntity
  8
0
  6
AIGENLINE003
100
AcDbLine
 10
129.5239999999999
 20
122.061
 30
0.0
 11
173.8329999999999
 21
122.061
 31
0.0
  0
LINE
  5
D2
330
18
100
AcDbEntity
  8
0
  6
AIGENLINE003
100
AcDbLine
 10
129.5239999999999
 20
125.0609999999999
 30
0.0
 11
173.8329999999999
 21
125.0609999999999
 31
0.0
  0
LINE
  5
D3
330
18
100
AcDbEntity
  8
0
100
AcDbLine
 10
154.21
 20
116.5739999999999
 30
0.0
 11
151.9989999999999
 21
115.982
 31
0.0
  0
LINE
  5
D4
330
18
100
AcDbEntity
  8
0
100
AcDbLine
 10
151.9989999999999
 20
115.982
 30
0.0
 11
154.21
 21
115.389
 31
0.0
  0
LINE
  5
D5
330
18
100
AcDbEntity
  8
0
100
AcDbLine
 10
154.21
 20
115.389
 30
0.0
 11
154.21
 21
116.5739999999999
 31
0.0
  0
LINE
  5
D6
330
18
100
AcDbEntity
  8
0
100
AcDbLine
 10
170.287
 20
115.4039999999999
 30
0.0
 11
172.497
 21
115.996
 31
0.0
  0
LINE
  5
D7
330
18
100
AcDbEntity
  8
0
100
AcDbLine
 10
172.497
 20
115.996
 30
0.0
 11
170.287
 21
116.588
 31
0.0
  0
LINE
  5
D8
330
18
100
AcDbEntity
  8
0
100
AcDbLine
 10
170.287
 20
116.588
 30
0.0
 11
170.287
 21
115.4039999999999
 31
0.0
  0
LINE
  5
D9
330
18
100
AcDbEntity
  8
0
100
AcDbLine
 10
151.9979999999999
 20
115.982
 30
0.0
 11
172.4979999999999
 21
115.982
 31
0.0
  0
LINE
  5
DA
330
18
100
AcDbEntity
  8
0
100
AcDbLine
 10
172.4979999999999
 20
131.274
 30
0.0
 11
172.4979999999999
 21
115.282
 31
0.0
  0
LINE
  5
DB
330
18
100
AcDbEntity
  8
0
100
AcDbLine
 10
151.9979999999999
 20
119.5149999999999
 30
0.0
 11
151.9979999999999
 21
115.282
 31
0.0
  0
LINE
  5
DC
330
18
100
AcDbEntity
  8
0
100
AcDbLine
 10
129.2089999999999
 20
224.6999999999999
 30
0.0
 11
126.9979999999999
 21
224.108
 31
0.0
  0
LINE
  5
DD
330
18
100
AcDbEntity
  8
0
100
AcDbLine
 10
126.9979999999999
 20
224.108
 30
0.0
 11
129.2089999999999
 21
223.5149999999999
 31
0.0
  0
LINE
  5
DE
330
18
100
AcDbEntity
  8
0
100
AcDbLine
 10
129.2089999999999
 20
223.5149999999999
 30
0.0
 11
129.2089999999999
 21
224.6999999999999
 31
0.0
  0
LINE
  5
DF
330
18
100
AcDbEntity
  8
0
100
AcDbLine
 10
174.7869999999999
 20
223.53
 30
0.0
 11
176.997
 21
224.122
 31
0.0
  0
LINE
  5
E0
330
18
100
AcDbEntity
  8
0
100
AcDbLine
 10
176.997
 20
224.122
 30
0.0
 11
174.7869999999999
 21
224.7149999999999
 31
0.0
  0
LINE
  5
E1
330
18
100
AcDbEntity
  8
0
100
AcDbLine
 10
174.7869999999999
 20
224.7149999999999
 30
0.0
 11
174.7869999999999
 21
223.53
 31
0.0
  0
LINE
  5
E2
330
18
100
AcDbEntity
  8
0
100
AcDbLine
 10
126.9979999999999
 20
224.108
 30
0.0
 11
176.9979999999999
 21
224.108
 31
0.0
  0
LINE
  5
E3
330
18
100
AcDbEntity
  8
0
100
AcDbLine
 10
126.9979999999999
 20
204.9549999999999
 30
0.0
 11
126.9979999999999
 21
224.8079999999999
 31
0.0
  0
LINE
  5
E4
330
18
100
AcDbEntity
  8
0
100
AcDbLine
 10
166.9769999999999
 20
197.395
 30
0.0
 11
167.569
 21
195.184
 31
0.0
  0
LINE
  5
E5
330
18
100
AcDbEntity
  8
0
100
AcDbLine
 10
167.569
 20
195.184
 30
0.0
 11
168.1609999999999
 21
197.395
 31
0.0
  0
LINE
  5
E6
330
18
100
AcDbEntity
  8
0
100
AcDbLine
 10
168.1609999999999
 20
197.395
 30
0.0
 11
166.9769999999999
 21
197.395
 31
0.0
  0
LINE
  5
E7
330
18
100
AcDbEntity
  8
0
100
AcDbLine
 10
168.147
 20
207.972
 30
0.0
 11
167.5539999999999
 21
210.183
 31
0.0
  0
LINE
  5
E8
330
18
100
AcDbEntity
  8
0
100
AcDbLine
 10
167.5539999999999
 20
210.183
 30
0.0
 11
166.962
 21
207.972
 31
0.0
  0
LINE
  5
E9
330
18
100
AcDbEntity
  8
0
100
AcDbLine
 10
166.962
 20
207.972
 30
0.0
 11
168.147
 21
207.972
 31
0.0
  0
LINE
  5
EA
330
18
100
AcDbEntity
  8
0
100
AcDbLine
 10
167.5539999999999
 20
195.1829999999999
 30
0.0
 11
167.5539999999999
 21
210.184
 31
0.0
  0
LINE
  5
EB
330
18
100
AcDbEntity
  8
0
100
AcDbLine
 10
159.793
 20
210.184
 30
0.0
 11
168.254
 21
210.184
 31
0.0
  0
LINE
  5
EC
330
18
100
AcDbEntity
  8
0
100
AcDbLine
 10
141.043
 20
178.7919999999999
 30
0.0
 11
163.053
 21
178.7919999999999
 31
0.0
  0
LINE
  5
ED
330
18
100
AcDbEntity
  8
0
100
AcDbLine
 10
159.793
 20
195.1829999999999
 30
0.0
 11
168.254
 21
195.1829999999999
 31
0.0
  0
LINE
  5
EE
330
18
100
AcDbEntity
  8
0
100
AcDbLine
 10
146.71
 20
217.1009999999999
 30
0.0
 11
144.4989999999999
 21
216.509
 31
0.0
  0
LINE
  5
EF
330
18
100
AcDbEntity
  8
0
100
AcDbLine
 10
144.4989999999999
 20
216.509
 30
0.0
 11
146.71
 21
215.917
 31
0.0
  0
LINE
  5
F0
330
18
100
AcDbEntity
  8
0
100
AcDbLine
 10
146.71
 20
215.917
 30
0.0
 11
146.71
 21
217.1009999999999
 31
0.0
  0
LINE
  5
F1
330
18
100
AcDbEntity
  8
0
100
AcDbLine
 10
157.2869999999999
 20
215.932
 30
0.0
 11
159.4979999999999
 21
216.524
 31
0.0
  0
LINE
  5
F2
330
18
100
AcDbEntity
  8
0
100
AcDbLine
 10
159.4979999999999
 20
216.524
 30
0.0
 11
157.2869999999999
 21
217.1159999999999
 31
0.0
  0
LINE
  5
F3
330
18
100
AcDbEntity
  8
0
100
AcDbLine
 10
157.2869999999999
 20
217.1159999999999
 30
0.0
 11
157.2869999999999
 21
215.932
 31
0.0
  0
LINE
  5
F4
330
18
100
AcDbEntity
  8
0
100
AcDbLine
 10
144.4979999999999
 20
216.509
 30
0.0
 11
159.4979999999999
 21
216.509
 31
0.0
  0
LINE
  5
F5
330
18
100
AcDbEntity
  8
0
100
AcDbLine
 10
159.4979999999999
 20
217.209
 30
0.0
 11
159.4979999999999
 21
210.731
 31
0.0
  0
LINE
  5
F6
330
18
100
AcDbEntity
  8
0
100
AcDbLine
 10
144.4979999999999
 20
217.209
 30
0.0
 11
144.4979999999999
 21
210.731
 31
0.0
  0
LINE
  5
F7
330
18
100
AcDbEntity
  8
0
100
AcDbLine
 10
139.959
 20
109.841
 30
0.0
 11
137.7489999999999
 21
109.2489999999999
 31
0.0
  0
LINE
  5
F8
330
18
100
AcDbEntity
  8
0
100
AcDbLine
 10
137.7489999999999
 20
109.2489999999999
 30
0.0
 11
139.959
 21
108.657
 31
0.0
  0
LINE
  5
F9
330
18
100
AcDbEntity
  8
0
100
AcDbLine
 10
139.959
 20
108.657
 30
0.0
 11
139.959
 21
109.841
 31
0.0
  0
LINE
  5
FA
330
18
100
AcDbEntity
  8
0
100
AcDbLine
 10
163.5369999999999
 20
108.671
 30
0.0
 11
165.7479999999999
 21
109.264
 31
0.0
  0
LINE
  5
FB
330
18
100
AcDbEntity
  8
0
100
AcDbLine
 10
165.7479999999999
 20
109.264
 30
0.0
 11
163.5369999999999
 21
109.856
 31
0.0
  0
LINE
  5
FC
330
18
100
AcDbEntity
  8
0
100
AcDbLine
 10
163.5369999999999
 20
109.856
 30
0.0
 11
163.5369999999999
 21
108.671
 31
0.0
  0
LINE
  5
FD
330
18
100
AcDbEntity
  8
0
100
AcDbLine
 10
137.748
 20
109.2489999999999
 30
0.0
 11
165.7479999999999
 21
109.2489999999999
 31
0.0
  0
LINE
  5
FE
330
18
100
AcDbEntity
  8
0
100
AcDbLine
 10
165.7479999999999
 20
124.361
 30
0.0
 11
165.7479999999999
 21
108.5489999999999
 31
0.0
  0
LINE
  5
FF
330
18
100
AcDbEntity
  8
0
100
AcDbLine
 10
137.748
 20
124.361
 30
0.0
 11
137.748
 21
108.5489999999999
 31
0.0
  0
LINE
  5
100
330
18
100
AcDbEntity
  8
0
  6
AIGENLINE002
100
AcDbLine
 10
151.9979999999999
 20
134.466
 30
0.0
 11
151.9979999999999
 21
120.215
 31
0.0
  0
LINE
  5
101
330
18
100
AcDbEntity
  8
0
100
AcDbLine
 10
96.16010000000001
 20
120.7789999999999
 30
0.0
 11
96.16010000000001
 21
121.082
 31
0.0
  0
LINE
  5
102
330
18
100
AcDbEntity
  8
0
100
AcDbLine
 10
96.16010000000001
 20
121.082
 30
0.0
 11
96.16010000000001
 21
121.716
 31
0.0
  0
LINE
  5
103
330
18
100
AcDbEntity
  8
0
100
AcDbLine
 10
96.66170000000001
 20
120.7789999999999
 30
0.0
 11
96.66170000000001
 21
121.082
 31
0.0
  0
LINE
  5
104
330
18
100
AcDbEntity
  8
0
100
AcDbLine
 10
96.66170000000001
 20
121.082
 30
0.0
 11
96.66170000000001
 21
121.716
 31
0.0
  0
LINE
  5
105
330
18
100
AcDbEntity
  8
0
100
AcDbLine
 10
96.66170000000001
 20
120.7789999999999
 30
0.0
 11
96.59080000000001
 21
120.5929999999999
 31
0.0
  0
LINE
  5
106
330
18
100
AcDbEntity
  8
0
100
AcDbLine
 10
96.2311
 20
120.5929999999999
 30
0.0
 11
96.16010000000001
 21
120.7789999999999
 31
0.0
  0
LINE
  5
107
330
18
100
AcDbEntity
  8
0
100
AcDbLine
 10
96.2311
 20
120.5929999999999
 30
0.0
 11
96.59080000000001
 21
120.5929999999999
 31
0.0
  0
LINE
  5
108
330
18
100
AcDbEntity
  8
0
100
AcDbLine
 10
96.16010000000001
 20
120.7789999999999
 30
0.0
 11
96.66170000000001
 21
120.7789999999999
 31
0.0
  0
LINE
  5
109
330
18
100
AcDbEntity
  8
0
100
AcDbLine
 10
97.0317
 20
121.082
 30
0.0
 11
97.0317
 21
121.716
 31
0.0
  0
LINE
  5
10A
330
18
100
AcDbEntity
  8
0
100
AcDbLine
 10
95.7901
 20
121.082
 30
0.0
 11
95.7901
 21
121.716
 31
0.0
  0
LINE
  5
10B
330
18
100
AcDbEntity
  8
0
100
AcDbLine
 10
95.7901
 20
121.082
 30
0.0
 11
97.0317
 21
121.082
 31
0.0
  0
LINE
  5
10C
330
18
100
AcDbEntity
  8
0
100
AcDbLine
 10
95.5262
 20
121.716
 30
0.0
 11
97.29559999999999
 21
121.716
 31
0.0
  0
LINE
  5
10D
330
18
100
AcDbEntity
  8
0
100
AcDbLine
 10
95.5262
 20
121.716
 30
0.0
 11
95.5262
 21
122.061
 31
0.0
  0
LINE
  5
10E
330
18
100
AcDbEntity
  8
0
100
AcDbLine
 10
97.29559999999999
 20
121.716
 30
0.0
 11
97.29559999999999
 21
122.061
 31
0.0
  0
LINE
  5
10F
330
18
100
AcDbEntity
  8
0
100
AcDbLine
 10
95.5262
 20
122.061
 30
0.0
 11
97.29559999999999
 21
122.061
 31
0.0
  0
LINE
  5
110
330
18
100
AcDbEntity
  8
0
100
AcDbLine
 10
96.16010000000001
 20
122.061
 30
0.0
 11
96.16010000000001
 21
125.0609999999999
 31
0.0
  0
LINE
  5
111
330
18
100
AcDbEntity
  8
0
100
AcDbLine
 10
96.66170000000001
 20
122.061
 30
0.0
 11
96.66170000000001
 21
125.0609999999999
 31
0.0
  0
LINE
  5
112
330
18
100
AcDbEntity
  8
0
100
AcDbLine
 10
46.15969999999999
 20
120.7789999999999
 30
0.0
 11
46.15969999999999
 21
121.082
 31
0.0
  0
LINE
  5
113
330
18
100
AcDbEntity
  8
0
100
AcDbLine
 10
46.15969999999999
 20
121.082
 30
0.0
 11
46.15969999999999
 21
121.716
 31
0.0
  0
LINE
  5
114
330
18
100
AcDbEntity
  8
0
100
AcDbLine
 10
46.6614
 20
120.7789999999999
 30
0.0
 11
46.6614
 21
121.082
 31
0.0
  0
LINE
  5
115
330
18
100
AcDbEntity
  8
0
100
AcDbLine
 10
46.6614
 20
121.082
 30
0.0
 11
46.6614
 21
121.716
 31
0.0
  0
LINE
  5
116
330
18
100
AcDbEntity
  8
0
100
AcDbLine
 10
46.6614
 20
120.7789999999999
 30
0.0
 11
46.5904
 21
120.5929999999999
 31
0.0
  0
LINE
  5
117
330
18
100
AcDbEntity
  8
0
100
AcDbLine
 10
46.2307
 20
120.5929999999999
 30
0.0
 11
46.15969999999999
 21
120.7789999999999
 31
0.0
  0
LINE
  5
118
330
18
100
AcDbEntity
  8
0
100
AcDbLine
 10
46.2307
 20
120.5929999999999
 30
0.0
 11
46.5904
 21
120.5929999999999
 31
0.0
  0
LINE
  5
119
330
18
100
AcDbEntity
  8
0
100
AcDbLine
 10
46.15969999999999
 20
120.7789999999999
 30
0.0
 11
46.6614
 21
120.7789999999999
 31
0.0
  0
LINE
  5
11A
330
18
100
AcDbEntity
  8
0
100
AcDbLine
 10
47.0314
 20
121.082
 30
0.0
 11
47.0314
 21
121.716
 31
0.0
  0
LINE
  5
11B
330
18
100
AcDbEntity
  8
0
100
AcDbLine
 10
45.7897
 20
121.082
 30
0.0
 11
45.7897
 21
121.716
 31
0.0
  0
LINE
  5
11C
330
18
100
AcDbEntity
  8
0
100
AcDbLine
 10
45.7897
 20
121.082
 30
0.0
 11
47.0314
 21
121.082
 31
0.0
  0
LINE
  5
11D
330
18
100
AcDbEntity
  8
0
100
AcDbLine
 10
45.52579999999999
 20
121.716
 30
0.0
 11
47.29529999999999
 21
121.716
 31
0.0
  0
LINE
  5
11E
330
18
100
AcDbEntity
  8
0
100
AcDbLine
 10
45.52579999999999
 20
121.716
 30
0.0
 11
45.52579999999999
 21
122.061
 31
0.0
  0
LINE
  5
11F
330
18
100
AcDbEntity
  8
0
100
AcDbLine
 10
47.29529999999999
 20
121.716
 30
0.0
 11
47.29529999999999
 21
122.061
 31
0.0
  0
LINE
  5
120
330
18
100
AcDbEntity
  8
0
100
AcDbLine
 10
45.52579999999999
 20
122.061
 30
0.0
 11
47.29529999999999
 21
122.061
 31
0.0
  0
LINE
  5
121
330
18
100
AcDbEntity
  8
0
100
AcDbLine
 10
46.15969999999999
 20
122.061
 30
0.0
 11
46.15969999999999
 21
125.0609999999999
 31
0.0
  0
LINE
  5
122
330
18
100
AcDbEntity
  8
0
100
AcDbLine
 10
46.6614
 20
122.061
 30
0.0
 11
46.6614
 21
125.0609999999999
 31
0.0
  0
LINE
  5
123
330
18
100
AcDbEntity
  8
0
100
AcDbLine
 10
27.8066
 20
127.272
 30
0.0
 11
28.3988
 21
125.0609999999999
 31
0.0
  0
LINE
  5
124
330
18
100
AcDbEntity
  8
0
100
AcDbLine
 10
28.3988
 20
125.0609999999999
 30
0.0
 11
28.99119999999999
 21
127.272
 31
0.0
  0
LINE
  5
125
330
18
100
AcDbEntity
  8
0
100
AcDbLine
 10
28.99119999999999
 20
127.272
 30
0.0
 11
27.8066
 21
127.272
 31
0.0
  0
LINE
  5
126
330
18
100
AcDbEntity
  8
0
100
AcDbLine
 10
28.991
 20
119.8499999999999
 30
0.0
 11
28.3988
 21
122.061
 31
0.0
  0
LINE
  5
127
330
18
100
AcDbEntity
  8
0
100
AcDbLine
 10
28.3988
 20
122.061
 30
0.0
 11
27.8064
 21
119.8499999999999
 31
0.0
  0
LINE
  5
128
330
18
100
AcDbEntity
  8
0
100
AcDbLine
 10
27.8064
 20
119.8499999999999
 30
0.0
 11
28.991
 21
119.8499999999999
 31
0.0
  0
LINE
  5
129
330
18
100
AcDbEntity
  8
0
100
AcDbLine
 10
28.3988
 20
118.131
 30
0.0
 11
28.3988
 21
129.9879999999999
 31
0.0
  0
ARC
  5
12A
330
18
100
AcDbEntity
  8
0
100
AcDbCircle
 10
75.06981299999999
 20
124.4537389999999
 30
0.0
 40
0.9632229999999999
100
AcDbArc
 50
304.732224
 51
320.517864
  0
ARC
  5
12B
330
18
100
AcDbEntity
  8
0
  6
AIGENLINE001
100
AcDbCircle
 10
84.682188
 20
115.874494
 30
0.0
 40
12.434782
100
AcDbArc
 50
99.286448
 51
103.9796809999999
  0
ARC
  5
12C
330
18
100
AcDbEntity
  8
0
  6
AIGENLINE001
100
AcDbCircle
 10
101.031406
 20
133.336056
 30
0.0
 40
2.13205
100
AcDbArc
 50
279.592781
 51
319.9502589999999
  0
ARC
  5
12D
330
18
100
AcDbEntity
  8
0
  6
AIGENLINE001
100
AcDbCircle
 10
103.398206
 20
132.0554939999999
 30
0.0
 40
0.506083
100
AcDbArc
 50
90.37890500000001
 51
139.9639099999999
  0
LINE
  5
12E
330
18
100
AcDbEntity
  8
0
100
AcDbLine
 10
76.50539999999999
 20
124.685
 30
0.0
 11
75.8133
 21
123.841
 31
0.0
  0
ARC
  5
12F
330
18
100
AcDbEntity
  8
0
100
AcDbCircle
 10
75.119017
 20
122.822334
 30
0.0
 40
0.408224
100
AcDbArc
 50
125.249877
 51
179.435746
  0
ARC
  5
130
330
18
100
AcDbEntity
  8
0
  6
AIGENLINE001
100
AcDbCircle
 10
74.22011999999999
 20
123.29391
 30
0.0
 40
0.5094440000000001
100
AcDbArc
 50
125.1664099999999
 51
179.502231
  0
ARC
  5
131
330
18
100
AcDbEntity
  8
0
100
AcDbCircle
 10
75.969601
 20
125.219531
 30
0.0
 40
0.7570670000000001
100
AcDbArc
 50
315.047835
 51
341.354346
  0
ARC
  5
132
330
18
100
AcDbEntity
  8
0
  6
AIGENLINE001
100
AcDbCircle
 10
75.215125
 20
125.3368389999999
 30
0.0
 40
0.509929
100
AcDbArc
 50
315.193683
 51
341.1967999999999
  0
ARC
  5
133
330
18
100
AcDbEntity
  8
0
  6
AIGENLINE001
100
AcDbCircle
 10
76.63352900000001
 20
126.05006
 30
0.0
 40
0.610296
100
AcDbArc
 50
104.548255
 51
161.001916
  0
LINE
  5
134
330
18
100
AcDbEntity
  8
0
  6
AIGENLINE001
100
AcDbLine
 10
78.16079999999999
 20
127.061
 30
0.0
 11
76.48019999999999
 21
126.641
 31
0.0
  0
LINE
  5
135
330
18
100
AcDbEntity
  8
0
100
AcDbLine
 10
74.7108
 20
122.561
 30
0.0
 11
74.7108
 21
122.826
 31
0.0
  0
LINE
  5
136
330
18
100
AcDbEntity
  8
0
  6
AIGENLINE001
100
AcDbLine
 10
73.7107
 20
122.561
 30
0.0
 11
73.7107
 21
123.2979999999999
 31
0.0
  0
LINE
  5
137
330
18
100
AcDbEntity
  8
0
100
AcDbLine
 10
75.6186
 20
123.662
 30
0.0
 11
74.88339999999999
 21
123.1559999999999
 31
0.0
  0
LINE
  5
138
330
18
100
AcDbEntity
  8
0
  6
AIGENLINE001
100
AcDbLine
 10
75.1607
 20
124.561
 30
0.0
 11
73.92669999999999
 21
123.7099999999999
 31
0.0
  0
LINE
  5
139
330
18
100
AcDbEntity
  8
0
  6
AIGENLINE001
100
AcDbLine
 10
75.1607
 20
124.561
 30
0.0
 11
75.5769
 21
124.977
 31
0.0
  0
LINE
  5
13A
330
18
100
AcDbEntity
  8
0
100
AcDbLine
 10
76.71479999999999
 20
125.0609999999999
 30
0.0
 11
76.68689999999999
 21
124.977
 31
0.0
  0
LINE
  5
13B
330
18
100
AcDbEntity
  8
0
  6
AIGENLINE001
100
AcDbLine
 10
76.0565
 20
126.2489999999999
 30
0.0
 11
75.6978
 21
125.172
 31
0.0
  0
LINE
  5
13C
330
18
100
AcDbEntity
  8
0
100
AcDbLine
 10
99.4109
 20
125.9539999999999
 30
0.0
 11
99.4109
 21
125.0609999999999
 31
0.0
  0
LINE
  5
13D
330
18
100
AcDbEntity
  8
0
100
AcDbLine
 10
71.4107
 20
122.561
 30
0.0
 11
74.7108
 21
122.561
 31
0.0
  0
LINE
  5
13E
330
18
100
AcDbEntity
  8
0
100
AcDbLine
 10
99.4109
 20
125.0609999999999
 30
0.0
 11
71.4107
 21
125.0609999999999
 31
0.0
  0
LINE
  5
13F
330
18
100
AcDbEntity
  8
0
100
AcDbLine
 10
98.8063
 20
126.107
 30
0.0
 11
71.4107
 21
126.107
 31
0.0
  0
LINE
  5
140
330
18
100
AcDbEntity
  8
0
  6
AIGENLINE001
100
AcDbLine
 10
75.29099999999999
 20
126.561
 30
0.0
 11
71.4107
 21
126.561
 31
0.0
  0
LINE
  5
141
330
18
100
AcDbEntity
  8
0
  6
AIGENLINE001
100
AcDbLine
 10
74.56749999999999
 20
125.0609999999999
 30
0.0
 11
71.4107
 21
125.0609999999999
 31
0.0
  0
LINE
  5
142
330
18
100
AcDbEntity
  8
0
  6
AIGENLINE001
100
AcDbLine
 10
74.10899999999999
 20
124.561
 30
0.0
 11
71.4107
 21
124.561
 31
0.0
  0
LINE
  5
143
330
18
100
AcDbEntity
  8
0
  6
AIGENLINE001
100
AcDbLine
 10
73.26489999999999
 20
123.561
 30
0.0
 11
71.4107
 21
123.561
 31
0.0
  0
LINE
  5
144
330
18
100
AcDbEntity
  8
0
  6
AIGENLINE001
100
AcDbLine
 10
78.16079999999999
 20
127.061
 30
0.0
 11
81.6782
 21
127.941
 31
0.0
  0
LINE
  5
145
330
18
100
AcDbEntity
  8
0
  6
AIGENLINE001
100
AcDbLine
 10
82.67560000000001
 20
128.146
 30
0.0
 11
101.387
 21
131.234
 31
0.0
  0
LINE
  5
146
330
18
100
AcDbEntity
  8
0
  6
AIGENLINE001
100
AcDbLine
 10
103.011
 20
132.3809999999999
 30
0.0
 11
102.6629999999999
 21
131.9639999999999
 31
0.0
  0
ARC
  5
147
330
18
100
AcDbEntity
  8
0
100
AcDbCircle
 10
67.75112299999999
 20
124.453533
 30
0.0
 40
0.9629459999999998
100
AcDbArc
 50
219.479871
 51
235.2700819999999
  0
ARC
  5
148
330
18
100
AcDbEntity
  8
0
  6
AIGENLINE001
100
AcDbCircle
 10
58.14207099999999
 20
115.889709
 30
0.0
 40
12.419261
100
AcDbArc
 50
76.017365
 51
80.716467
  0
ARC
  5
149
330
18
100
AcDbEntity
  8
0
  6
AIGENLINE001
100
AcDbCircle
 10
41.78971899999999
 20
133.336056
 30
0.0
 40
2.13205
100
AcDbArc
 50
220.0497609999999
 51
260.407239
  0
ARC
  5
14A
330
18
100
AcDbEntity
  8
0
  6
AIGENLINE001
100
AcDbCircle
 10
39.423283
 20
132.0562679999999
 30
0.0
 40
0.505308
100
AcDbArc
 50
39.995449
 51
89.661697
  0
LINE
  5
14B
330
18
100
AcDbEntity
  8
0
100
AcDbLine
 10
66.31579999999999
 20
124.685
 30
0.0
 11
67.00790000000001
 21
123.841
 31
0.0
  0
ARC
  5
14C
330
18
100
AcDbEntity
  8
0
100
AcDbCircle
 10
67.701883
 20
122.8217879999999
 30
0.0
 40
0.4088
100
AcDbArc
 50
0.639937
 51
54.768398
  0
ARC
  5
14D
330
18
100
AcDbEntity
  8
0
  6
AIGENLINE001
100
AcDbCircle
 10
68.60096099999999
 20
123.293886
 30
0.0
 40
0.5094890000000002
100
AcDbArc
 50
0.5003340000000001
 51
54.830985
  0
ARC
  5
14E
330
18
100
AcDbEntity
  8
0
100
AcDbCircle
 10
66.851674
 20
125.219623
 30
0.0
 40
0.757237
100
AcDbArc
 50
198.6486769999999
 51
224.9491819999999
  0
ARC
  5
14F
330
18
100
AcDbEntity
  8
0
  6
AIGENLINE001
100
AcDbCircle
 10
67.606965
 20
125.337436
 30
0.0
 40
0.511033
100
AcDbArc
 50
198.831817
 51
224.7777399999999
  0
ARC
  5
150
330
18
100
AcDbEntity
  8
0
  6
AIGENLINE001
100
AcDbCircle
 10
66.18728199999999
 20
126.0497199999999
 30
0.0
 40
0.6107050000000001
100
AcDbArc
 50
19.018639
 51
75.43115
  0
LINE
  5
151
330
18
100
AcDbEntity
  8
0
  6
AIGENLINE001
100
AcDbLine
 10
64.66070000000001
 20
127.061
 30
0.0
 11
66.3409
 21
126.641
 31
0.0
  0
LINE
  5
152
330
18
100
AcDbEntity
  8
0
100
AcDbLine
 10
68.11069999999999
 20
122.561
 30
0.0
 11
68.11069999999999
 21
122.826
 31
0.0
  0
LINE
  5
153
330
18
100
AcDbEntity
  8
0
  6
AIGENLINE001
100
AcDbLine
 10
69.11039999999999
 20
122.561
 30
0.0
 11
69.11039999999999
 21
123.2979999999999
 31
0.0
  0
LINE
  5
154
330
18
100
AcDbEntity
  8
0
100
AcDbLine
 10
67.2025
 20
123.662
 30
0.0
 11
67.93770000000001
 21
123.1559999999999
 31
0.0
  0
LINE
  5
155
330
18
100
AcDbEntity
  8
0
  6
AIGENLINE001
100
AcDbLine
 10
67.6607
 20
124.561
 30
0.0
 11
68.8944
 21
123.7099999999999
 31
0.0
  0
LINE
  5
156
330
18
100
AcDbEntity
  8
0
  6
AIGENLINE001
100
AcDbLine
 10
67.6607
 20
124.561
 30
0.0
 11
67.24420000000001
 21
124.977
 31
0.0
  0
LINE
  5
157
330
18
100
AcDbEntity
  8
0
100
AcDbLine
 10
66.1066
 20
125.0609999999999
 30
0.0
 11
66.13420000000001
 21
124.977
 31
0.0
  0
LINE
  5
158
330
18
100
AcDbEntity
  8
0
  6
AIGENLINE001
100
AcDbLine
 10
66.76470000000001
 20
126.2489999999999
 30
0.0
 11
67.1233
 21
125.172
 31
0.0
  0
LINE
  5
159
330
18
100
AcDbEntity
  8
0
100
AcDbLine
 10
43.4105
 20
125.9539999999999
 30
0.0
 11
43.4105
 21
125.0609999999999
 31
0.0
  0
LINE
  5
15A
330
18
100
AcDbEntity
  8
0
100
AcDbLine
 10
71.4107
 20
122.561
 30
0.0
 11
68.11069999999999
 21
122.561
 31
0.0
  0
LINE
  5
15B
330
18
100
AcDbEntity
  8
0
100
AcDbLine
 10
71.4107
 20
132.562
 30
0.0
 11
105.8629999999999
 21
132.562
 31
0.0
  0
ARC
  5
15C
330
18
100
AcDbEntity
  8
0
100
AcDbCircle
 10
105.8607399999999
 20
132.2601799999999
 30
0.0
 40
0.3013949999999999
100
AcDbArc
 50
45.205359
 51
89.58157699999999
  0
ARC
  5
15D
330
18
100
AcDbEntity
  8
0
100
AcDbCircle
 10
105.858088
 20
132.2612469999999
 30
0.0
 40
0.302518
100
AcDbArc
 50
0.3735820000000001
 51
44.706507
  0
LINE
  5
15E
330
18
100
AcDbEntity
  8
0
100
AcDbLine
 10
106.1609999999999
 20
132.2629999999999
 30
0.0
 11
106.1609999999999
 21
132.112
 31
0.0
  0
ARC
  5
15F
330
18
100
AcDbEntity
  8
0
100
AcDbCircle
 10
105.9643209999999
 20
132.112445
 30
0.0
 40
0.196278
100
AcDbArc
 50
332.5813589999999
 51
359.964451
  0
ARC
  5
160
330
18
100
AcDbEntity
  8
0
100
AcDbCircle
 10
90.94968299999999
 20
139.780571
 30
0.0
 40
17.055679
100
AcDbArc
 50
323.344005
 51
332.941948
  0
ARC
  5
161
330
18
100
AcDbEntity
  8
0
100
AcDbCircle
 10
96.595098
 20
135.747184
 30
0.0
 40
10.119659
100
AcDbArc
 50
299.536242
 51
322.581658
  0
ARC
  5
162
330
18
100
AcDbEntity
  8
0
100
AcDbCircle
 10
97.25155200000001
 20
134.9850669999999
 30
0.0
 40
9.135060000000001
100
AcDbArc
 50
284.6269459999999
 51
298.310333
  0
ARC
  5
163
330
18
100
AcDbEntity
  8
0
100
AcDbCircle
 10
99.615895
 20
125.9489149999999
 30
0.0
 40
0.205373
100
AcDbArc
 50
106.264283
 51
178.628281
  0
LINE
  5
164
330
18
100
AcDbEntity
  8
0
100
AcDbLine
 10
71.4107
 20
132.562
 30
0.0
 11
36.95819999999999
 21
132.562
 31
0.0
  0
LINE
  5
165
330
18
100
AcDbEntity
  8
0
100
AcDbLine
 10
43.4105
 20
125.0609999999999
 30
0.0
 11
71.4107
 21
125.0609999999999
 31
0.0
  0
ARC
  5
166
330
18
100
AcDbEntity
  8
0
100
AcDbCircle
 10
36.959664
 20
132.2610779999999
 30
0.0
 40
0.300492
100
AcDbArc
 50
90.28214799999998
 51
134.864306
  0
ARC
  5
167
330
18
100
AcDbEntity
  8
0
100
AcDbCircle
 10
36.961609
 20
132.2621889999999
 30
0.0
 40
0.301085
100
AcDbArc
 50
135.275816
 51
179.803874
  0
LINE
  5
168
330
18
100
AcDbEntity
  8
0
100
AcDbLine
 10
36.6605
 20
132.2629999999999
 30
0.0
 11
36.6605
 21
132.112
 31
0.0
  0
ARC
  5
169
330
18
100
AcDbEntity
  8
0
100
AcDbCircle
 10
36.858263
 20
132.11213
 30
0.0
 40
0.197737
100
AcDbArc
 50
179.944016
 51
207.097069
  0
ARC
  5
16A
330
18
100
AcDbEntity
  8
0
100
AcDbCircle
 10
51.878014
 20
139.785325
 30
0.0
 40
17.064
100
AcDbArc
 50
207.0617229999999
 51
216.655118
  0
ARC
  5
16B
330
18
100
AcDbEntity
  8
0
100
AcDbCircle
 10
46.226089
 20
135.747952
 30
0.0
 40
10.120384
100
AcDbArc
 50
217.420695
 51
240.4653529999999
  0
ARC
  5
16C
330
18
100
AcDbEntity
  8
0
100
AcDbCircle
 10
45.569934
 20
134.986275
 30
0.0
 40
9.136319999999999
100
AcDbArc
 50
241.690995
 51
255.372802
  0
ARC
  5
16D
330
18
100
AcDbEntity
  8
0
100
AcDbCircle
 10
43.205426
 20
125.9490659999999
 30
0.0
 40
0.205174
100
AcDbArc
 50
1.330979999999999
 51
73.77641700000001
  0
LINE
  5
16E
330
18
100
AcDbEntity
  8
0
100
AcDbLine
 10
44.0148
 20
126.107
 30
0.0
 11
71.4107
 21
126.107
 31
0.0
  0
LINE
  5
16F
330
18
100
AcDbEntity
  8
0
  6
AIGENLINE001
100
AcDbLine
 10
67.5305
 20
126.561
 30
0.0
 11
71.4107
 21
126.561
 31
0.0
  0
LINE
  5
170
330
18
100
AcDbEntity
  8
0
  6
AIGENLINE001
100
AcDbLine
 10
68.2536
 20
125.0609999999999
 30
0.0
 11
71.4107
 21
125.0609999999999
 31
0.0
  0
LINE
  5
171
330
18
100
AcDbEntity
  8
0
  6
AIGENLINE001
100
AcDbLine
 10
68.7122
 20
124.561
 30
0.0
 11
71.4107
 21
124.561
 31
0.0
  0
LINE
  5
172
330
18
100
AcDbEntity
  8
0
  6
AIGENLINE001
100
AcDbLine
 10
69.5562
 20
123.561
 30
0.0
 11
71.4107
 21
123.561
 31
0.0
  0
LINE
  5
173
330
18
100
AcDbEntity
  8
0
100
AcDbLine
 10
35.5915
 20
122.061
 30
0.0
 11
27.6987
 21
122.061
 31
0.0
  0
LINE
  5
174
330
18
100
AcDbEntity
  8
0
100
AcDbLine
 10
35.5915
 20
125.0609999999999
 30
0.0
 11
27.6987
 21
125.0609999999999
 31
0.0
  0
LINE
  5
175
330
18
100
AcDbEntity
  8
0
  6
AIGENLINE003
100
AcDbLine
 10
36.2916
 20
122.061
 30
0.0
 11
106.142
 21
122.061
 31
0.0
  0
LINE
  5
176
330
18
100
AcDbEntity
  8
0
  6
AIGENLINE003
100
AcDbLine
 10
36.2916
 20
125.0609999999999
 30
0.0
 11
106.142
 21
125.0609999999999
 31
0.0
  0
LINE
  5
177
330
18
100
AcDbEntity
  8
0
100
AcDbLine
 10
84.7845
 20
195.547
 30
0.0
 11
78.5473
 21
195.547
 31
0.0
  0
LINE
  5
178
330
18
100
AcDbEntity
  8
0
100
AcDbLine
 10
38.8718
 20
165.0309999999999
 30
0.0
 11
36.6614
 21
164.439
 31
0.0
  0
LINE
  5
179
330
18
100
AcDbEntity
  8
0
100
AcDbLine
 10
36.6614
 20
164.439
 30
0.0
 11
38.8718
 21
163.847
 31
0.0
  0
LINE
  5
17A
330
18
100
AcDbEntity
  8
0
100
AcDbLine
 10
38.8718
 20
163.847
 30
0.0
 11
38.8718
 21
165.0309999999999
 31
0.0
  0
LINE
  5
17B
330
18
100
AcDbEntity
  8
0
100
AcDbLine
 10
103.949
 20
163.8609999999999
 30
0.0
 11
106.1599999999999
 21
164.453
 31
0.0
  0
LINE
  5
17C
330
18
100
AcDbEntity
  8
0
100
AcDbLine
 10
106.1599999999999
 20
164.453
 30
0.0
 11
103.949
 21
165.0459999999999
 31
0.0
  0
LINE
  5
17D
330
18
100
AcDbEntity
  8
0
100
AcDbLine
 10
103.949
 20
165.0459999999999
 30
0.0
 11
103.949
 21
163.8609999999999
 31
0.0
  0
LINE
  5
17E
330
18
100
AcDbEntity
  8
0
100
AcDbLine
 10
36.6605
 20
164.439
 30
0.0
 11
106.1609999999999
 21
164.439
 31
0.0
  0
LINE
  5
17F
330
18
100
AcDbEntity
  8
0
100
AcDbLine
 10
106.1609999999999
 20
186.3979999999999
 30
0.0
 11
106.1609999999999
 21
163.739
 31
0.0
  0
LINE
  5
180
330
18
100
AcDbEntity
  8
0
  6
AIGENLINE001
100
AcDbLine
 10
64.66070000000001
 20
127.061
 30
0.0
 11
61.1429
 21
127.941
 31
0.0
  0
LINE
  5
181
330
18
100
AcDbEntity
  8
0
  6
AIGENLINE001
100
AcDbLine
 10
60.14549999999999
 20
128.146
 30
0.0
 11
41.4344
 21
131.234
 31
0.0
  0
LINE
  5
182
330
18
100
AcDbEntity
  8
0
  6
AIGENLINE001
100
AcDbLine
 10
39.8104
 20
132.3809999999999
 30
0.0
 11
40.15769999999999
 21
131.9639999999999
 31
0.0
  0
LINE
  5
183
330
18
100
AcDbEntity
  8
0
100
AcDbLine
 10
36.6605
 20
186.3979999999999
 30
0.0
 11
36.6605
 21
163.739
 31
0.0
  0
LINE
  5
184
330
18
100
AcDbEntity
  8
0
100
AcDbLine
 10
45.6218
 20
112.5729999999999
 30
0.0
 11
43.4114
 21
111.981
 31
0.0
  0
LINE
  5
185
330
18
100
AcDbEntity
  8
0
100
AcDbLine
 10
43.4114
 20
111.981
 30
0.0
 11
45.6218
 21
111.389
 31
0.0
  0
LINE
  5
186
330
18
100
AcDbEntity
  8
0
100
AcDbLine
 10
45.6218
 20
111.389
 30
0.0
 11
45.6218
 21
112.5729999999999
 31
0.0
  0
LINE
  5
187
330
18
100
AcDbEntity
  8
0
100
AcDbLine
 10
97.1995
 20
111.4029999999999
 30
0.0
 11
99.41020000000001
 21
111.996
 31
0.0
  0
LINE
  5
188
330
18
100
AcDbEntity
  8
0
100
AcDbLine
 10
99.41020000000001
 20
111.996
 30
0.0
 11
97.1995
 21
112.5879999999999
 31
0.0
  0
LINE
  5
189
330
18
100
AcDbEntity
  8
0
100
AcDbLine
 10
97.1995
 20
112.5879999999999
 30
0.0
 11
97.1995
 21
111.4029999999999
 31
0.0
  0
LINE
  5
18A
330
18
100
AcDbEntity
  8
0
100
AcDbLine
 10
43.4105
 20
111.981
 30
0.0
 11
99.4109
 21
111.981
 31
0.0
  0
LINE
  5
18B
330
18
100
AcDbEntity
  8
0
100
AcDbLine
 10
99.4109
 20
124.361
 30
0.0
 11
99.4109
 21
111.281
 31
0.0
  0
LINE
  5
18C
330
18
100
AcDbEntity
  8
0
100
AcDbLine
 10
43.4105
 20
124.361
 30
0.0
 11
43.4105
 21
111.281
 31
0.0
  0
LINE
  5
18D
330
18
100
AcDbEntity
  8
0
100
AcDbLine
 10
41.8718
 20
172.6509999999999
 30
0.0
 11
39.6614
 21
172.059
 31
0.0
  0
LINE
  5
18E
330
18
100
AcDbEntity
  8
0
100
AcDbLine
 10
39.6614
 20
172.059
 30
0.0
 11
41.8718
 21
171.4659999999999
 31
0.0
  0
LINE
  5
18F
330
18
100
AcDbEntity
  8
0
100
AcDbLine
 10
41.8718
 20
171.4659999999999
 30
0.0
 11
41.8718
 21
172.6509999999999
 31
0.0
  0
LINE
  5
190
330
18
100
AcDbEntity
  8
0
100
AcDbLine
 10
100.95
 20
171.4809999999999
 30
0.0
 11
103.16
 21
172.0729999999999
 31
0.0
  0
LINE
  5
191
330
18
100
AcDbEntity
  8
0
100
AcDbLine
 10
103.16
 20
172.0729999999999
 30
0.0
 11
100.95
 21
172.666
 31
0.0
  0
LINE
  5
192
330
18
100
AcDbEntity
  8
0
100
AcDbLine
 10
100.95
 20
172.666
 30
0.0
 11
100.95
 21
171.4809999999999
 31
0.0
  0
LINE
  5
193
330
18
100
AcDbEntity
  8
0
100
AcDbLine
 10
39.6605
 20
172.059
 30
0.0
 11
103.161
 21
172.059
 31
0.0
  0
LINE
  5
194
330
18
100
AcDbEntity
  8
0
100
AcDbLine
 10
75.01879999999999
 20
199.9129999999999
 30
0.0
 11
73.03699999999999
 21
201.057
 31
0.0
  0
LINE
  5
195
330
18
100
AcDbEntity
  8
0
100
AcDbLine
 10
73.03699999999999
 20
201.057
 30
0.0
 11
74.1811
 21
199.075
 31
0.0
  0
LINE
  5
196
330
18
100
AcDbEntity
  8
0
100
AcDbLine
 10
74.1811
 20
199.075
 30
0.0
 11
75.01879999999999
 21
199.9129999999999
 31
0.0
  0
LINE
  5
197
330
18
100
AcDbEntity
  8
0
100
AcDbLine
 10
67.8077
 20
205.459
 30
0.0
 11
69.78950000000001
 21
204.3149999999999
 31
0.0
  0
LINE
  5
198
330
18
100
AcDbEntity
  8
0
100
AcDbLine
 10
69.78950000000001
 20
204.3149999999999
 30
0.0
 11
68.64530000000001
 21
206.2969999999999
 31
0.0
  0
LINE
  5
199
330
18
100
AcDbEntity
  8
0
100
AcDbLine
 10
68.64530000000001
 20
206.2969999999999
 30
0.0
 11
67.8077
 21
205.459
 31
0.0
  0
LINE
  5
19A
330
18
100
AcDbEntity
  8
0
100
AcDbLine
 10
65.5651
 20
208.529
 30
0.0
 11
78.5473
 21
195.547
 31
0.0
  0
LINE
  5
19B
330
18
100
AcDbEntity
  8
0
100
AcDbLine
 10
24.934
 20
220.972
 30
0.0
 11
24.3418
 21
223.1829999999999
 31
0.0
  0
LINE
  5
19C
330
18
100
AcDbEntity
  8
0
100
AcDbLine
 10
24.3418
 20
223.1829999999999
 30
0.0
 11
23.7494
 21
220.972
 31
0.0
  0
LINE
  5
19D
330
18
100
AcDbEntity
  8
0
100
AcDbLine
 10
23.7494
 20
220.972
 30
0.0
 11
24.934
 21
220.972
 31
0.0
  0
LINE
  5
19E
330
18
100
AcDbEntity
  8
0
100
AcDbLine
 10
23.76409999999999
 20
183.895
 30
0.0
 11
24.3563
 21
181.684
 31
0.0
  0
LINE
  5
19F
330
18
100
AcDbEntity
  8
0
100
AcDbLine
 10
24.3563
 20
181.684
 30
0.0
 11
24.9487
 21
183.895
 31
0.0
  0
LINE
  5
1A0
330
18
100
AcDbEntity
  8
0
100
AcDbLine
 10
24.9487
 20
183.895
 30
0.0
 11
23.76409999999999
 21
183.895
 31
0.0
  0
LINE
  5
1A1
330
18
100
AcDbEntity
  8
0
100
AcDbLine
 10
24.3418
 20
223.1829999999999
 30
0.0
 11
24.3418
 21
181.6829999999999
 31
0.0
  0
LINE
  5
1A2
330
18
100
AcDbEntity
  8
0
100
AcDbLine
 10
46.5249
 20
181.6829999999999
 30
0.0
 11
23.6418
 21
181.6829999999999
 31
0.0
  0
LINE
  5
1A3
330
18
100
AcDbEntity
  8
0
100
AcDbLine
 10
45.5372
 20
223.1829999999999
 30
0.0
 11
23.6418
 21
223.1829999999999
 31
0.0
  0
LINE
  5
1A4
330
18
100
AcDbEntity
  8
0
100
AcDbLine
 10
31.81319999999999
 20
217.972
 30
0.0
 11
31.221
 21
220.183
 31
0.0
  0
LINE
  5
1A5
330
18
100
AcDbEntity
  8
0
100
AcDbLine
 10
31.221
 20
220.183
 30
0.0
 11
30.6286
 21
217.972
 31
0.0
  0
LINE
  5
1A6
330
18
100
AcDbEntity
  8
0
100
AcDbLine
 10
30.6286
 20
217.972
 30
0.0
 11
31.81319999999999
 21
217.972
 31
0.0
  0
LINE
  5
1A7
330
18
100
AcDbEntity
  8
0
100
AcDbLine
 10
30.64329999999999
 20
186.895
 30
0.0
 11
31.23549999999999
 21
184.684
 31
0.0
  0
LINE
  5
1A8
330
18
100
AcDbEntity
  8
0
100
AcDbLine
 10
31.23549999999999
 20
184.684
 30
0.0
 11
31.8279
 21
186.895
 31
0.0
  0
LINE
  5
1A9
330
18
100
AcDbEntity
  8
0
100
AcDbLine
 10
31.8279
 20
186.895
 30
0.0
 11
30.64329999999999
 21
186.895
 31
0.0
  0
LINE
  5
1AA
330
18
100
AcDbEntity
  8
0
100
AcDbLine
 10
31.221
 20
220.183
 30
0.0
 11
31.221
 21
184.6829999999999
 31
0.0
  0
LINE
  5
1AB
330
18
100
AcDbEntity
  8
0
100
AcDbLine
 10
47.08059999999999
 20
184.6829999999999
 30
0.0
 11
30.521
 21
184.6829999999999
 31
0.0
  0
LINE
  5
1AC
330
18
100
AcDbEntity
  8
0
100
AcDbLine
 10
45.4135
 20
220.183
 30
0.0
 11
30.521
 21
220.183
 31
0.0
  0
LINE
  5
1AD
330
18
100
AcDbEntity
  8
0
100
AcDbLine
 10
121.8579999999999
 20
130.3499999999999
 30
0.0
 11
121.265
 21
132.561
 31
0.0
  0
LINE
  5
1AE
330
18
100
AcDbEntity
  8
0
100
AcDbLine
 10
121.265
 20
132.561
 30
0.0
 11
120.6729999999999
 21
130.3499999999999
 31
0.0
  0
LINE
  5
1AF
330
18
100
AcDbEntity
  8
0
100
AcDbLine
 10
120.6729999999999
 20
130.3499999999999
 30
0.0
 11
121.8579999999999
 21
130.3499999999999
 31
0.0
  0
LINE
  5
1B0
330
18
100
AcDbEntity
  8
0
100
AcDbLine
 10
120.6879999999999
 20
124.773
 30
0.0
 11
121.28
 21
122.562
 31
0.0
  0
LINE
  5
1B1
330
18
100
AcDbEntity
  8
0
100
AcDbLine
 10
121.28
 20
122.562
 30
0.0
 11
121.872
 21
124.773
 31
0.0
  0
LINE
  5
1B2
330
18
100
AcDbEntity
  8
0
100
AcDbLine
 10
121.872
 20
124.773
 30
0.0
 11
120.6879999999999
 21
124.773
 31
0.0
  0
LINE
  5
1B3
330
18
100
AcDbEntity
  8
0
100
AcDbLine
 10
121.265
 20
132.562
 30
0.0
 11
121.265
 21
122.561
 31
0.0
  0
LINE
  5
1B4
330
18
100
AcDbEntity
  8
0
100
AcDbLine
 10
75.4109
 20
122.561
 30
0.0
 11
121.965
 21
122.561
 31
0.0
  0
LINE
  5
1B5
330
18
100
AcDbEntity
  8
0
100
AcDbLine
 10
70.0325
 20
130.3499999999999
 30
0.0
 11
69.44029999999999
 21
132.561
 31
0.0
  0
LINE
  5
1B6
330
18
100
AcDbEntity
  8
0
100
AcDbLine
 10
69.44029999999999
 20
132.561
 30
0.0
 11
68.84789999999999
 21
130.3499999999999
 31
0.0
  0
LINE
  5
1B7
330
18
100
AcDbEntity
  8
0
100
AcDbLine
 10
68.84789999999999
 20
130.3499999999999
 30
0.0
 11
70.0325
 21
130.3499999999999
 31
0.0
  0
LINE
  5
1B8
330
18
100
AcDbEntity
  8
0
100
AcDbLine
 10
68.8626
 20
128.772
 30
0.0
 11
69.4548
 21
126.562
 31
0.0
  0
LINE
  5
1B9
330
18
100
AcDbEntity
  8
0
100
AcDbLine
 10
69.4548
 20
126.562
 30
0.0
 11
70.0472
 21
128.772
 31
0.0
  0
LINE
  5
1BA
330
18
100
AcDbEntity
  8
0
100
AcDbLine
 10
70.0472
 20
128.772
 30
0.0
 11
68.8626
 21
128.772
 31
0.0
  0
LINE
  5
1BB
330
18
100
AcDbEntity
  8
0
100
AcDbLine
 10
69.44029999999999
 20
132.562
 30
0.0
 11
69.44029999999999
 21
126.561
 31
0.0
  0
LINE
  5
1BC
330
18
100
AcDbEntity
  8
0
100
AcDbLine
 10
115.616
 20
130.3499999999999
 30
0.0
 11
115.0239999999999
 21
132.561
 31
0.0
  0
LINE
  5
1BD
330
18
100
AcDbEntity
  8
0
100
AcDbLine
 10
115.0239999999999
 20
132.561
 30
0.0
 11
114.4309999999999
 21
130.3499999999999
 31
0.0
  0
LINE
  5
1BE
330
18
100
AcDbEntity
  8
0
100
AcDbLine
 10
114.4309999999999
 20
130.3499999999999
 30
0.0
 11
115.616
 21
130.3499999999999
 31
0.0
  0
LINE
  5
1BF
330
18
100
AcDbEntity
  8
0
100
AcDbLine
 10
114.446
 20
127.2729999999999
 30
0.0
 11
115.0379999999999
 21
125.062
 31
0.0
  0
LINE
  5
1C0
330
18
100
AcDbEntity
  8
0
100
AcDbLine
 10
115.0379999999999
 20
125.062
 30
0.0
 11
115.6299999999999
 21
127.2729999999999
 31
0.0
  0
LINE
  5
1C1
330
18
100
AcDbEntity
  8
0
100
AcDbLine
 10
115.6299999999999
 20
127.2729999999999
 30
0.0
 11
114.446
 21
127.2729999999999
 31
0.0
  0
LINE
  5
1C2
330
18
100
AcDbEntity
  8
0
100
AcDbLine
 10
115.0239999999999
 20
132.562
 30
0.0
 11
115.0239999999999
 21
125.062
 31
0.0
  0
LINE
  5
1C3
330
18
100
AcDbEntity
  8
0
100
AcDbLine
 10
106.842
 20
125.062
 30
0.0
 11
115.7239999999999
 21
125.062
 31
0.0
  0
LINE
  5
1C4
330
18
100
AcDbEntity
  8
0
100
AcDbLine
 10
106.773
 20
132.562
 30
0.0
 11
121.965
 21
132.562
 31
0.0
  0
LINE
  5
1C5
330
18
100
AcDbEntity
  8
0
100
AcDbLine
 10
116.1279999999999
 20
200.4729999999999
 30
0.0
 11
115.535
 21
202.6829999999999
 31
0.0
  0
LINE
  5
1C6
330
18
100
AcDbEntity
  8
0
100
AcDbLine
 10
115.535
 20
202.6829999999999
 30
0.0
 11
114.9429999999999
 21
200.4729999999999
 31
0.0
  0
LINE
  5
1C7
330
18
100
AcDbEntity
  8
0
100
AcDbLine
 10
114.9429999999999
 20
200.4729999999999
 30
0.0
 11
116.1279999999999
 21
200.4729999999999
 31
0.0
  0
LINE
  5
1C8
330
18
100
AcDbEntity
  8
0
100
AcDbLine
 10
116.1279999999999
 20
220.972
 30
0.0
 11
115.535
 21
223.1829999999999
 31
0.0
  0
LINE
  5
1C9
330
18
100
AcDbEntity
  8
0
100
AcDbLine
 10
115.535
 20
223.1829999999999
 30
0.0
 11
114.9429999999999
 21
220.972
 31
0.0
  0
LINE
  5
1CA
330
18
100
AcDbEntity
  8
0
100
AcDbLine
 10
114.9429999999999
 20
220.972
 30
0.0
 11
116.1279999999999
 21
220.972
 31
0.0
  0
LINE
  5
1CB
330
18
100
AcDbEntity
  8
0
100
AcDbLine
 10
114.958
 20
204.8939999999999
 30
0.0
 11
115.5499999999999
 21
202.6829999999999
 31
0.0
  0
LINE
  5
1CC
330
18
100
AcDbEntity
  8
0
100
AcDbLine
 10
115.5499999999999
 20
202.6829999999999
 30
0.0
 11
116.142
 21
204.8939999999999
 31
0.0
  0
LINE
  5
1CD
330
18
100
AcDbEntity
  8
0
100
AcDbLine
 10
116.142
 20
204.8939999999999
 30
0.0
 11
114.958
 21
204.8939999999999
 31
0.0
  0
LINE
  5
1CE
330
18
100
AcDbEntity
  8
0
100
AcDbLine
 10
114.958
 20
183.895
 30
0.0
 11
115.5499999999999
 21
181.684
 31
0.0
  0
LINE
  5
1CF
330
18
100
AcDbEntity
  8
0
100
AcDbLine
 10
115.5499999999999
 20
181.684
 30
0.0
 11
116.142
 21
183.895
 31
0.0
  0
LINE
  5
1D0
330
18
100
AcDbEntity
  8
0
100
AcDbLine
 10
116.142
 20
183.895
 30
0.0
 11
114.958
 21
183.895
 31
0.0
  0
LINE
  5
1D1
330
18
100
AcDbEntity
  8
0
100
AcDbLine
 10
115.535
 20
223.1829999999999
 30
0.0
 11
115.535
 21
181.6829999999999
 31
0.0
  0
ARC
  5
1D2
330
18
100
AcDbEntity
  8
0
100
AcDbCircle
 10
71.410562
 20
202.683484
 30
0.0
 40
4.749956
100
AcDbArc
 50
270.002098
 51
0.002068
  0
ARC
  5
1D3
330
18
100
AcDbEntity
  8
0
100
AcDbCircle
 10
71.41073399999999
 20
202.683655
 30
0.0
 40
4.750126999999999
100
AcDbArc
 50
179.9999699999999
 51
270.00002
  0
ARC
  5
1D4
330
18
100
AcDbEntity
  8
0
100
AcDbCircle
 10
71.410564
 20
202.6834829999999
 30
0.0
 40
4.749956
100
AcDbArc
 50
89.99792199999999
 51
179.9978919999999
  0
ARC
  5
1D5
330
18
100
AcDbEntity
  8
0
100
AcDbCircle
 10
71.41073399999999
 20
202.683655
 30
0.0
 40
4.749784
100
AcDbArc
 50
0.00001
 51
89.99998000000001
  0
ARC
  5
1D6
330
18
100
AcDbEntity
  8
0
100
AcDbCircle
 10
71.410735
 20
202.683312
 30
0.0
 40
3.750011
100
AcDbArc
 50
270.00002
 51
359.9999899999999
  0
ARC
  5
1D7
330
18
100
AcDbEntity
  8
0
100
AcDbCircle
 10
71.410735
 20
202.683311
 30
0.0
 40
3.750008999999999
100
AcDbArc
 50
179.9999699999999
 51
270.00002
  0
ARC
  5
1D8
330
18
100
AcDbEntity
  8
0
100
AcDbCircle
 10
71.410736
 20
202.683311
 30
0.0
 40
3.750011
100
AcDbArc
 50
90.0
 51
179.9999699999999
  0
ARC
  5
1D9
330
18
100
AcDbEntity
  8
0
100
AcDbCircle
 10
71.410735
 20
202.683311
 30
0.0
 40
3.750011
100
AcDbArc
 50
0.00001
 51
89.99998000000001
  0
ARC
  5
1DA
330
18
100
AcDbEntity
  8
0
100
AcDbCircle
 10
71.410735
 20
202.683312
 30
0.0
 40
2.299961
100
AcDbArc
 50
270.00002
 51
359.9999899999999
  0
ARC
  5
1DB
330
18
100
AcDbEntity
  8
0
100
AcDbCircle
 10
71.41056299999999
 20
202.6834829999999
 30
0.0
 40
2.300132
100
AcDbArc
 50
180.0043009999999
 51
270.0043109999999
  0
ARC
  5
1DC
330
18
100
AcDbEntity
  8
0
100
AcDbCircle
 10
71.410736
 20
202.683311
 30
0.0
 40
2.300304999999999
100
AcDbArc
 50
90.0
 51
179.9999699999999
  0
ARC
  5
1DD
330
18
100
AcDbEntity
  8
0
100
AcDbCircle
 10
71.41056299999999
 20
202.6834829999999
 30
0.0
 40
2.300133
100
AcDbArc
 50
359.995719
 51
89.99568899999999
  0
ARC
  5
1DE
330
18
100
AcDbEntity
  8
0
100
AcDbCircle
 10
-183.896359
 20
202.433712
 30
0.0
 40
290.0570349999999
100
AcDbArc
 50
357.108078
 51
2.891922
  0
ARC
  5
1DF
330
18
100
AcDbEntity
  8
0
100
AcDbCircle
 10
99.66770699999999
 20
216.561831
 30
0.0
 40
6.144435999999999
100
AcDbArc
 50
4.72257
 51
86.47154499999999
  0
ARC
  5
1E0
330
18
100
AcDbEntity
  8
0
100
AcDbCircle
 10
71.410735
 20
-615.744134
 30
0.0
 40
838.927598
100
AcDbArc
 50
88.04393299999999
 51
91.956047
  0
ARC
  5
1E1
330
18
100
AcDbEntity
  8
0
100
AcDbCircle
 10
43.179014
 20
216.536425
 30
0.0
 40
6.171393
100
AcDbArc
 50
93.74790799999999
 51
175.061372
  0
ARC
  5
1E2
330
18
100
AcDbEntity
  8
0
100
AcDbCircle
 10
326.607229
 20
202.433712
 30
0.0
 40
289.9462319999999
100
AcDbArc
 50
177.106952
 51
182.893048
  0
ARC
  5
1E3
330
18
100
AcDbEntity
  8
0
100
AcDbCircle
 10
43.154864
 20
188.3055919999999
 30
0.0
 40
6.14519
100
AcDbArc
 50
184.721992
 51
266.4617129999999
  0
ARC
  5
1E4
330
18
100
AcDbEntity
  8
0
100
AcDbCircle
 10
71.410735
 20
1020.631
 30
0.0
 40
838.9476039999999
100
AcDbArc
 50
268.043999
 51
271.956021
  0
ARC
  5
1E5
330
18
100
AcDbEntity
  8
0
100
AcDbCircle
 10
99.64244800000001
 20
188.330631
 30
0.0
 40
6.171713999999999
100
AcDbArc
 50
273.7478129999999
 51
355.065086
  0
ARC
  5
1E6
330
18
100
AcDbEntity
  8
0
100
AcDbCircle
 10
99.739632
 20
216.636738
 30
0.0
 40
3.066193
100
AcDbArc
 50
4.723912999999999
 51
86.54810600000001
  0
ARC
  5
1E7
330
18
100
AcDbEntity
  8
0
100
AcDbCircle
 10
99.72367699999999
 20
188.246311
 30
0.0
 40
3.083473
100
AcDbArc
 50
273.72957
 51
354.998412
  0
ARC
  5
1E8
330
18
100
AcDbEntity
  8
0
100
AcDbCircle
 10
-183.1394379999999
 20
202.433368
 30
0.0
 40
286.3000339999999
100
AcDbArc
 50
357.105787
 51
2.894213
  0
LINE
  5
1E9
330
18
100
AcDbEntity
  8
0
100
AcDbLine
 10
103.161
 20
187.324
 30
0.0
 11
103.161
 21
171.359
 31
0.0
  0
LINE
  5
1EA
330
18
100
AcDbEntity
  8
0
100
AcDbLine
 10
39.6605
 20
187.324
 30
0.0
 11
39.6605
 21
171.359
 31
0.0
  0
LINE
  5
1EB
330
18
100
AcDbEntity
  8
0
  6
AIGENLINE002
100
AcDbLine
 10
71.4107
 20
134.466
 30
0.0
 11
71.4107
 21
120.215
 31
0.0
  0
LINE
  5
1EC
330
18
100
AcDbEntity
  8
0
  6
AIGENLINE002
100
AcDbLine
 10
71.4107
 20
226.291
 30
0.0
 11
71.4107
 21
178.127
 31
0.0
  0
LINE
  5
1ED
330
18
100
AcDbEntity
  8
0
100
AcDbLine
 10
100.428
 20
181.6829999999999
 30
0.0
 11
116.236
 21
181.6829999999999
 31
0.0
  0
LINE
  5
1EE
330
18
100
AcDbEntity
  8
0
100
AcDbLine
 10
78.79430000000001
 20
202.6829999999999
 30
0.0
 11
116.236
 21
202.6829999999999
 31
0.0
  0
LINE
  5
1EF
330
18
100
AcDbEntity
  8
0
100
AcDbLine
 10
100.428
 20
223.1829999999999
 30
0.0
 11
116.236
 21
223.1829999999999
 31
0.0
  0
LINE
  5
1F0
330
18
100
AcDbEntity
  8
0
  6
AIGENLINE002
100
AcDbLine
 10
64.27559999999999
 20
202.6829999999999
 30
0.0
 11
78.0943
 21
202.6829999999999
 31
0.0
  0
ARC
  5
1F1
330
18
100
AcDbEntity
  8
0
100
AcDbCircle
 10
43.097419
 20
216.621208
 30
0.0
 40
3.082688999999999
100
AcDbArc
 50
93.729954
 51
175.011736
  0
ARC
  5
1F2
330
18
100
AcDbEntity
  8
0
100
AcDbCircle
 10
43.08186
 20
188.229622
 30
0.0
 40
3.06584
100
AcDbArc
 50
184.7174309999999
 51
266.5408799999999
  0
ARC
  5
1F3
330
18
100
AcDbEntity
  8
0
100
AcDbCircle
 10
325.660833
 20
202.433368
 30
0.0
 40
285.999997
100
AcDbArc
 50
177.102728
 51
182.8972719999999
  0
ARC
  5
1F4
330
18
100
AcDbEntity
  8
0
100
AcDbCircle
 10
71.41056299999999
 20
1021.266
 30
0.0
 40
836.5826419999999
100
AcDbArc
 50
268.04679
 51
271.9532299999999
  0
ARC
  5
1F5
330
18
100
AcDbEntity
  8
0
100
AcDbCircle
 10
71.41056299999999
 20
-616.3791629999999
 30
0.0
 40
836.562606
100
AcDbArc
 50
88.046723
 51
91.95325700000001
  0
LINE
  5
1F6
330
18
100
AcDbEntity
  8
0
100
AcDbLine
 10
151.02
 20
61.9577
 30
0.0
 11
148.81
 21
61.36549999999999
 31
0.0
  0
LINE
  5
1F7
330
18
100
AcDbEntity
  8
0
100
AcDbLine
 10
148.81
 20
61.36549999999999
 30
0.0
 11
151.02
 21
60.7732
 31
0.0
  0
LINE
  5
1F8
330
18
100
AcDbEntity
  8
0
100
AcDbLine
 10
151.02
 20
60.7732
 30
0.0
 11
151.02
 21
61.9577
 31
0.0
  0
LINE
  5
1F9
330
18
100
AcDbEntity
  8
0
100
AcDbLine
 10
154.799
 20
60.7877
 30
0.0
 11
157.01
 21
61.3799
 31
0.0
  0
LINE
  5
1FA
330
18
100
AcDbEntity
  8
0
100
AcDbLine
 10
157.01
 20
61.3799
 30
0.0
 11
154.799
 21
61.9721
 31
0.0
  0
LINE
  5
1FB
330
18
100
AcDbEntity
  8
0
100
AcDbLine
 10
154.799
 20
61.9721
 30
0.0
 11
154.799
 21
60.7877
 31
0.0
  0
LINE
  5
1FC
330
18
100
AcDbEntity
  8
0
100
AcDbLine
 10
148.81
 20
61.3727
 30
0.0
 11
157.01
 21
61.3727
 31
0.0
  0
LINE
  5
1FD
330
18
100
AcDbEntity
  8
0
100
AcDbLine
 10
147.02
 20
94.89679999999999
 30
0.0
 11
144.809
 21
94.3046
 31
0.0
  0
LINE
  5
1FE
330
18
100
AcDbEntity
  8
0
100
AcDbLine
 10
144.809
 20
94.3046
 30
0.0
 11
147.02
 21
93.7124
 31
0.0
  0
LINE
  5
1FF
330
18
100
AcDbEntity
  8
0
100
AcDbLine
 10
147.02
 20
93.7124
 30
0.0
 11
147.02
 21
94.89679999999999
 31
0.0
  0
LINE
  5
200
330
18
100
AcDbEntity
  8
0
100
AcDbLine
 10
158.799
 20
93.7124
 30
0.0
 11
161.0099999999999
 21
94.3046
 31
0.0
  0
LINE
  5
201
330
18
100
AcDbEntity
  8
0
100
AcDbLine
 10
161.0099999999999
 20
94.3046
 30
0.0
 11
158.799
 21
94.89679999999999
 31
0.0
  0
LINE
  5
202
330
18
100
AcDbEntity
  8
0
100
AcDbLine
 10
158.799
 20
94.89679999999999
 30
0.0
 11
158.799
 21
93.7124
 31
0.0
  0
LINE
  5
203
330
18
100
AcDbEntity
  8
0
100
AcDbLine
 10
144.809
 20
94.3046
 30
0.0
 11
161.0099999999999
 21
94.3046
 31
0.0
  0
LINE
  5
204
330
18
100
AcDbEntity
  8
0
100
AcDbLine
 10
157.01
 20
75.17279999999999
 30
0.0
 11
156.81
 21
74.9726
 31
0.0
  0
LINE
  5
205
330
18
100
AcDbEntity
  8
0
100
AcDbLine
 10
157.01
 20
73.3727
 30
0.0
 11
156.81
 21
73.1726
 31
0.0
  0
ARC
  5
206
330
18
100
AcDbEntity
  8
0
100
AcDbCircle
 10
158.49533
 20
79.55767699999999
 30
0.0
 40
0.4151170000000001
100
AcDbArc
 50
2.102500999999999
 51
87.996189
  0
LINE
  5
207
330
18
100
AcDbEntity
  8
0
100
AcDbLine
 10
157.01
 20
72.5352
 30
0.0
 11
157.01
 21
60.6086
 31
0.0
  0
LINE
  5
208
330
18
100
AcDbEntity
  8
0
100
AcDbLine
 10
148.81
 20
72.5352
 30
0.0
 11
148.81
 21
60.6086
 31
0.0
  0
LINE
  5
209
330
18
100
AcDbEntity
  8
0
100
AcDbLine
 10
157.01
 20
75.17279999999999
 30
0.0
 11
157.01
 21
73.3727
 31
0.0
  0
LINE
  5
20A
330
18
100
AcDbEntity
  8
0
100
AcDbLine
 10
159.11
 20
79.5729
 30
0.0
 11
159.11
 21
78.3726
 31
0.0
  0
ARC
  5
20B
330
18
100
AcDbEntity
  8
0
100
AcDbCircle
 10
159.194087
 20
81.688155
 30
0.0
 40
2.285715
100
AcDbArc
 50
92.108644
 51
177.8823529999999
  0
LINE
  5
20C
330
18
100
AcDbEntity
  8
0
100
AcDbLine
 10
159.11
 20
84.2727
 30
0.0
 11
159.11
 21
83.9723
 31
0.0
  0
ARC
  5
20D
330
18
100
AcDbEntity
  8
0
100
AcDbCircle
 10
158.117711
 20
86.26442500000001
 30
0.0
 40
0.208153
100
AcDbArc
 50
92.064614
 51
177.836826
  0
LINE
  5
20E
330
18
100
AcDbEntity
  8
0
100
AcDbLine
 10
161.0099999999999
 20
94.70489999999999
 30
0.0
 11
161.0099999999999
 21
89.02219999999999
 31
0.0
  0
LINE
  5
20F
330
18
100
AcDbEntity
  8
0
100
AcDbLine
 10
144.809
 20
94.70489999999999
 30
0.0
 11
144.809
 21
89.02219999999999
 31
0.0
  0
LINE
  5
210
330
18
100
AcDbEntity
  8
0
100
AcDbLine
 10
156.81
 20
73.1726
 30
0.0
 11
156.81
 21
74.9726
 31
0.0
  0
LINE
  5
211
330
18
100
AcDbEntity
  8
0
100
AcDbLine
 10
156.9099999999999
 20
79.9725
 30
0.0
 11
156.9099999999999
 21
81.7726
 31
0.0
  0
LINE
  5
212
330
18
100
AcDbEntity
  8
0
100
AcDbLine
 10
153.5099999999999
 20
67.57290000000001
 30
0.0
 11
152.309
 21
67.57290000000001
 31
0.0
  0
LINE
  5
213
330
18
100
AcDbEntity
  8
0
100
AcDbLine
 10
153.5099999999999
 20
67.57290000000001
 30
0.0
 11
153.31
 21
67.37269999999999
 31
0.0
  0
LINE
  5
214
330
18
100
AcDbEntity
  8
0
100
AcDbLine
 10
152.5099999999999
 20
67.37269999999999
 30
0.0
 11
152.309
 21
67.57290000000001
 31
0.0
  0
LINE
  5
215
330
18
100
AcDbEntity
  8
0
100
AcDbLine
 10
152.5099999999999
 20
67.37269999999999
 30
0.0
 11
153.31
 21
67.37269999999999
 31
0.0
  0
LINE
  5
216
330
18
100
AcDbEntity
  8
0
100
AcDbLine
 10
148.81
 20
75.17279999999999
 30
0.0
 11
149.0099999999999
 21
74.9726
 31
0.0
  0
LINE
  5
217
330
18
100
AcDbEntity
  8
0
100
AcDbLine
 10
148.81
 20
73.3727
 30
0.0
 11
149.0099999999999
 21
73.1726
 31
0.0
  0
ARC
  5
218
330
18
100
AcDbEntity
  8
0
100
AcDbCircle
 10
147.324284
 20
79.55767800000001
 30
0.0
 40
0.4151170000000001
100
AcDbArc
 50
92.00377299999999
 51
177.897496
  0
LINE
  5
219
330
18
100
AcDbEntity
  8
0
100
AcDbLine
 10
154.11
 20
73.1726
 30
0.0
 11
154.11
 21
72.3726
 31
0.0
  0
LINE
  5
21A
330
18
100
AcDbEntity
  8
0
100
AcDbLine
 10
151.71
 20
73.1726
 30
0.0
 11
151.71
 21
72.3726
 31
0.0
  0
LINE
  5
21B
330
18
100
AcDbEntity
  8
0
100
AcDbLine
 10
148.81
 20
75.17279999999999
 30
0.0
 11
148.81
 21
73.3727
 31
0.0
  0
LINE
  5
21C
330
18
100
AcDbEntity
  8
0
100
AcDbLine
 10
157.9099999999999
 20
78.3726
 30
0.0
 11
157.9099999999999
 21
75.17279999999999
 31
0.0
  0
LINE
  5
21D
330
18
100
AcDbEntity
  8
0
100
AcDbLine
 10
147.909
 20
78.3726
 30
0.0
 11
147.909
 21
75.17279999999999
 31
0.0
  0
LINE
  5
21E
330
18
100
AcDbEntity
  8
0
100
AcDbLine
 10
146.71
 20
79.5729
 30
0.0
 11
146.71
 21
78.3726
 31
0.0
  0
ARC
  5
21F
330
18
100
AcDbEntity
  8
0
100
AcDbCircle
 10
146.6255169999999
 20
81.688144
 30
0.0
 40
2.285725999999999
100
AcDbArc
 50
2.117884999999999
 51
87.89107800000001
  0
LINE
  5
220
330
18
100
AcDbEntity
  8
0
100
AcDbLine
 10
146.71
 20
84.2727
 30
0.0
 11
146.71
 21
83.9723
 31
0.0
  0
ARC
  5
221
330
18
100
AcDbEntity
  8
0
100
AcDbCircle
 10
147.7017189999999
 20
86.26495600000001
 30
0.0
 40
0.20763
100
AcDbArc
 50
2.022046
 51
87.879243
  0
LINE
  5
222
330
18
100
AcDbEntity
  8
0
100
AcDbLine
 10
157.01
 20
74.9726
 30
0.0
 11
148.81
 21
74.9726
 31
0.0
  0
LINE
  5
223
330
18
100
AcDbEntity
  8
0
100
AcDbLine
 10
157.01
 20
73.3727
 30
0.0
 11
148.81
 21
73.3727
 31
0.0
  0
LINE
  5
224
330
18
100
AcDbEntity
  8
0
100
AcDbLine
 10
156.81
 20
73.1726
 30
0.0
 11
149.0099999999999
 21
73.1726
 31
0.0
  0
LINE
  5
225
330
18
100
AcDbEntity
  8
0
100
AcDbLine
 10
157.9099999999999
 20
75.17279999999999
 30
0.0
 11
147.909
 21
75.17279999999999
 31
0.0
  0
LINE
  5
226
330
18
100
AcDbEntity
  8
0
100
AcDbLine
 10
159.11
 20
78.3726
 30
0.0
 11
146.71
 21
78.3726
 31
0.0
  0
LINE
  5
227
330
18
100
AcDbEntity
  8
0
100
AcDbLine
 10
159.11
 20
79.5729
 30
0.0
 11
146.71
 21
79.5729
 31
0.0
  0
LINE
  5
228
330
18
100
AcDbEntity
  8
0
100
AcDbLine
 10
158.5099999999999
 20
79.9725
 30
0.0
 11
147.31
 21
79.9725
 31
0.0
  0
LINE
  5
229
330
18
100
AcDbEntity
  8
0
100
AcDbLine
 10
154.11
 20
72.3726
 30
0.0
 11
151.71
 21
72.3726
 31
0.0
  0
LINE
  5
22A
330
18
100
AcDbEntity
  8
0
100
AcDbLine
 10
159.11
 20
84.2727
 30
0.0
 11
146.71
 21
84.2727
 31
0.0
  0
LINE
  5
22B
330
18
100
AcDbEntity
  8
0
100
AcDbLine
 10
157.9099999999999
 20
86.2723
 30
0.0
 11
147.909
 21
86.2723
 31
0.0
  0
LINE
  5
22C
330
18
100
AcDbEntity
  8
0
100
AcDbLine
 10
153.31
 20
67.37269999999999
 30
0.0
 11
153.31
 21
72.3726
 31
0.0
  0
LINE
  5
22D
330
18
100
AcDbEntity
  8
0
100
AcDbLine
 10
153.5099999999999
 20
67.57290000000001
 30
0.0
 11
153.5099999999999
 21
72.3726
 31
0.0
  0
LINE
  5
22E
330
18
100
AcDbEntity
  8
0
100
AcDbLine
 10
152.5099999999999
 20
67.37269999999999
 30
0.0
 11
152.5099999999999
 21
72.3726
 31
0.0
  0
LINE
  5
22F
330
18
100
AcDbEntity
  8
0
100
AcDbLine
 10
152.309
 20
67.57290000000001
 30
0.0
 11
152.309
 21
72.3726
 31
0.0
  0
LINE
  5
230
330
18
100
AcDbEntity
  8
0
100
AcDbLine
 10
149.0099999999999
 20
73.1726
 30
0.0
 11
149.0099999999999
 21
74.9726
 31
0.0
  0
LINE
  5
231
330
18
100
AcDbEntity
  8
0
100
AcDbLine
 10
154.41
 20
84.2727
 30
0.0
 11
154.41
 21
86.2723
 31
0.0
  0
LINE
  5
232
330
18
100
AcDbEntity
  8
0
100
AcDbLine
 10
148.91
 20
79.9725
 30
0.0
 11
148.91
 21
81.7726
 31
0.0
  0
LINE
  5
233
330
18
100
AcDbEntity
  8
0
100
AcDbLine
 10
151.4089999999999
 20
84.2727
 30
0.0
 11
151.4089999999999
 21
86.2723
 31
0.0
  0
LINE
  5
234
330
18
100
AcDbEntity
  8
0
  6
AIGENLINE002
100
AcDbLine
 10
152.909
 20
66.60169999999999
 30
0.0
 11
152.909
 21
90.79089999999998
 31
0.0
  0
LINE
  5
235
330
18
100
AcDbEntity
  8
0
100
AcDbLine
 10
167.3779999999999
 20
77.3608
 30
0.0
 11
166.785
 21
79.57259999999999
 31
0.0
  0
LINE
  5
236
330
18
100
AcDbEntity
  8
0
100
AcDbLine
 10
166.785
 20
79.57259999999999
 30
0.0
 11
166.192
 21
77.3608
 31
0.0
  0
LINE
  5
237
330
18
100
AcDbEntity
  8
0
100
AcDbLine
 10
166.192
 20
77.3608
 30
0.0
 11
167.3779999999999
 21
77.3608
 31
0.0
  0
LINE
  5
238
330
18
100
AcDbEntity
  8
0
100
AcDbLine
 10
166.2069999999999
 20
75.384
 30
0.0
 11
166.799
 21
73.1722
 31
0.0
  0
LINE
  5
239
330
18
100
AcDbEntity
  8
0
100
AcDbLine
 10
166.799
 20
73.1722
 30
0.0
 11
167.392
 21
75.384
 31
0.0
  0
LINE
  5
23A
330
18
100
AcDbEntity
  8
0
100
AcDbLine
 10
167.392
 20
75.384
 30
0.0
 11
166.2069999999999
 21
75.384
 31
0.0
  0
LINE
  5
23B
330
18
100
AcDbEntity
  8
0
100
AcDbLine
 10
166.785
 20
79.57259999999999
 30
0.0
 11
166.785
 21
73.1726
 31
0.0
  0
LINE
  5
23C
330
18
100
AcDbEntity
  8
0
100
AcDbLine
 10
160.11
 20
79.5729
 30
0.0
 11
167.785
 21
79.5729
 31
0.0
  0
LINE
  5
23D
330
18
100
AcDbEntity
  8
0
100
AcDbLine
 10
157.81
 20
73.1726
 30
0.0
 11
167.785
 21
73.1726
 31
0.0
  0
LINE
  5
23E
330
18
100
AcDbEntity
  8
_________2
100
AcDbLine
 10
205.301
 20
127.411
 30
0.0
 11
183.55
 21
127.411
 31
0.0
  0
LINE
  5
23F
330
18
100
AcDbEntity
  8
_________2
100
AcDbLine
 10
100.2999999999999
 20
-4.09108
 30
0.0
 11
100.2999999999999
 21
-21.0714
 31
0.0
  0
LINE
  5
240
330
18
100
AcDbEntity
  8
_________2
100
AcDbLine
 10
100.2999999999999
 20
275.9309999999999
 30
0.0
 11
100.2999999999999
 21
258.911
 31
0.0
  0
LINE
  5
241
330
18
100
AcDbEntity
  8
_________2
100
AcDbLine
 10
17.0495
 20
127.411
 30
0.0
 11
-4.70052
 21
127.411
 31
0.0
  0
LINE
  5
242
330
18
100
AcDbEntity
  8
_________2
100
AcDbLine
 10
76.741
 20
29.8047
 30
0.0
 11
74.5547
 21
29.8047
 31
0.0
  0
LINE
  5
243
330
18
100
AcDbEntity
  8
_________2
100
AcDbLine
 10
77.2337
 20
29.8047
 30
0.0
 11
76.9815
 21
29.8047
 31
0.0
  0
LINE
  5
244
330
18
100
AcDbEntity
  8
_________2
100
AcDbLine
 10
77.72629999999999
 20
29.8047
 30
0.0
 11
80.6512
 21
29.8047
 31
0.0
  0
LINE
  5
245
330
18
100
AcDbEntity
  8
_________2
100
AcDbLine
 10
77.2337
 20
29.8047
 30
0.0
 11
77.4855
 21
29.8047
 31
0.0
  0
LINE
  5
246
330
18
100
AcDbEntity
  8
_________2
100
AcDbLine
 10
70.8371
 20
29.8047
 30
0.0
 11
68.6505
 21
29.8047
 31
0.0
  0
LINE
  5
247
330
18
100
AcDbEntity
  8
_________2
100
AcDbLine
 10
71.32940000000001
 20
29.8047
 30
0.0
 11
71.0776
 21
29.8047
 31
0.0
  0
LINE
  5
248
330
18
100
AcDbEntity
  8
_________2
100
AcDbLine
 10
71.32940000000001
 20
30.2974
 30
0.0
 11
71.32940000000001
 21
32.4844
 31
0.0
  0
LINE
  5
249
330
18
100
AcDbEntity
  8
_________2
100
AcDbLine
 10
71.32940000000001
 20
29.8047
 30
0.0
 11
71.32940000000001
 21
30.05689999999999
 31
0.0
  0
LINE
  5
24A
330
18
100
AcDbEntity
  8
_________2
100
AcDbLine
 10
71.82210000000001
 20
29.8047
 30
0.0
 11
74.009
 21
29.8047
 31
0.0
  0
LINE
  5
24B
330
18
100
AcDbEntity
  8
_________2
100
AcDbLine
 10
71.32940000000001
 20
29.8047
 30
0.0
 11
71.58159999999999
 21
29.8047
 31
0.0
  0
LINE
  5
24C
330
18
100
AcDbEntity
  8
_________2
100
AcDbLine
 10
71.32940000000001
 20
29.3128
 30
0.0
 11
71.32940000000001
 21
27.1258
 31
0.0
  0
LINE
  5
24D
330
18
100
AcDbEntity
  8
_________2
100
AcDbLine
 10
71.32940000000001
 20
29.8047
 30
0.0
 11
71.32940000000001
 21
29.5532
 31
0.0
  0
LINE
  5
24E
330
18
100
AcDbEntity
  8
_________2
100
AcDbLine
 10
75.04049999999999
 20
28.5852
 30
0.0
 11
80.2185
 21
27.7204
 31
0.0
  0
LINE
  5
24F
330
18
100
AcDbEntity
  8
_________2
100
AcDbLine
 10
75.04049999999999
 20
31.0243
 30
0.0
 11
80.2185
 21
31.8897
 31
0.0
  0
LINE
  5
250
330
18
100
AcDbEntity
  8
_________2
100
AcDbLine
 10
80.2185
 20
27.7204
 30
0.0
 11
80.2185
 21
31.8897
 31
0.0
  0
LINE
  5
251
330
18
100
AcDbEntity
  8
_________2
100
AcDbLine
 10
75.04049999999999
 20
28.5852
 30
0.0
 11
75.04049999999999
 21
31.0243
 31
0.0
  0
ARC
  5
252
330
18
100
AcDbEntity
  8
_________2
100
AcDbCircle
 10
71.28285600000001
 20
29.757811
 30
0.0
 40
1.267359
100
AcDbArc
 50
2.122214
 51
87.893959
  0
ARC
  5
253
330
18
100
AcDbEntity
  8
_________2
100
AcDbCircle
 10
71.37595999999999
 20
29.758213
 30
0.0
 40
1.266955999999999
100
AcDbArc
 50
92.104701
 51
177.8952689999999
  0
ARC
  5
254
330
18
100
AcDbEntity
  8
_________2
100
AcDbCircle
 10
71.37635799999999
 20
29.851671
 30
0.0
 40
1.267368
100
AcDbArc
 50
182.122036
 51
267.877993
  0
ARC
  5
255
330
18
100
AcDbEntity
  8
_________2
100
AcDbCircle
 10
71.28253199999999
 20
29.85199899999999
 30
0.0
 40
1.267695999999999
100
AcDbArc
 50
272.120153
 51
357.863674
  0
ARC
  5
256
330
18
100
AcDbEntity
  8
_________2
100
AcDbCircle
 10
71.32943
 20
29.804743
 30
0.0
 40
2.084984999999999
100
AcDbArc
 50
0.00001
 51
89.99998000000001
  0
ARC
  5
257
330
18
100
AcDbEntity
  8
_________2
100
AcDbCircle
 10
71.329603
 20
29.804915
 30
0.0
 40
2.084813
100
AcDbArc
 50
90.004734
 51
180.004744
  0
ARC
  5
258
330
18
100
AcDbEntity
  8
_________2
100
AcDbCircle
 10
71.40910600000001
 20
29.884776
 30
0.0
 40
2.165795
100
AcDbArc
 50
182.117766
 51
267.891734
  0
ARC
  5
259
330
18
100
AcDbEntity
  8
_________2
100
AcDbCircle
 10
71.249459
 20
29.88542999999999
 30
0.0
 40
2.166459
100
AcDbArc
 50
272.115468
 51
357.865604
  0
TEXT
  5
25A
330
18
100
AcDbEntity
  8
_________2
100
AcDbText
 10
104.605
 20
1.67949
 30
0.0
 40
3.09234
  1
図番
 41
0.5
100
AcDbText
  0
LINE
  5
25B
330
18
100
AcDbEntity
  8
_________2
100
AcDbLine
 10
103.55
 20
5.908719999999999
 30
0.0
 11
183.551
 21
5.908719999999999
 31
0.0
  0
TEXT
  5
25C
330
18
100
AcDbEntity
  8
_________2
100
AcDbText
 10
104.605
 20
11.67929999999999
 30
0.0
 40
3.09234
  1
品番
 41
0.5
100
AcDbText
  0
TEXT
  5
25D
330
18
100
AcDbEntity
  8
_________2
100
AcDbText
 10
104.605
 20
31.8181
 30
0.0
 40
3.09234
  1
名称
 41
0.5
100
AcDbText
  0
TEXT
  5
25E
330
18
100
AcDbEntity
  8
_________2
100
AcDbText
 10
91.84505833333334
 20
26.82199999999999
 30
0.0
 40
3.65458
  1
mm
 41
0.5
 72
     1
 11
93.3678
 21
26.82199999999999
 31
0.0
100
AcDbText
  0
TEXT
  5
25F
330
18
100
AcDbEntity
  8
_________2
100
AcDbText
 10
85.6432
 20
31.8181
 30
0.0
 40
3.09234
  1
単位
 41
0.5
100
AcDbText
  0
TEXT
  5
260
330
18
100
AcDbEntity
  8
_________2
100
AcDbText
 10
85.6432
 20
19.41079999999999
 30
0.0
 40
3.09234
  1
尺度
 41
0.5
100
AcDbText
  0
TEXT
  5
261
330
18
100
AcDbEntity
  8
_________2
100
AcDbText
 10
90.09193616666667
 20
13.2179
 30
0.0
 40
3.65458
  1
1 ： 10
 41
0.5
 72
     1
 11
93.9597
 21
13.2179
 31
0.0
100
AcDbText
  0
TEXT
  5
262
330
18
100
AcDbEntity
  8
_________2
100
AcDbText
 10
133.5467624999999
 20
9.10786
 30
0.0
 40
3.9357
  1
DV037070-00
 41
0.5
 72
     1
 11
143.55
 21
9.10786
 31
0.0
100
AcDbText
  0
TEXT
  5
263
330
18
100
AcDbEntity
  8
_________2
100
AcDbText
 10
136.1705625
 20
-0.8926299999999999
 30
0.0
 40
3.9357
  1
DV037070
 41
0.5
 72
     1
 11
143.55
 21
-0.8926299999999999
 31
0.0
100
AcDbText
  0
TEXT
  5
264
330
18
100
AcDbEntity
  8
_________2
100
AcDbText
 10
24.5868
 20
0.707283
 30
0.0
 40
3.9357
  1
重量11.8kg、オーバーフローなし
 41
0.5
100
AcDbText
  0
TEXT
  5
265
330
18
100
AcDbEntity
  8
_________2
100
AcDbText
 10
109.179
 20
24.2257
 30
0.0
 40
3.9357
  1
プラビダ　洗面器
 41
0.5
100
AcDbText
  0
TEXT
  5
266
330
18
100
AcDbEntity
  8
_________2
100
AcDbText
 10
39.30348099999999
 20
13.603
 30
0.0
 40
3.65458
  1
田尻
 41
0.5
 72
     1
 11
41.3135
 21
13.603
 31
0.0
100
AcDbText
  0
TEXT
  5
267
330
18
100
AcDbEntity
  8
_________2
100
AcDbText
 10
20.79009066666666
 20
13.603
 30
0.0
 40
3.65458
  1
石原
 41
0.5
 72
     1
 11
22.73919999999999
 21
13.603
 31
0.0
100
AcDbText
  0
TEXT
  5
268
330
18
100
AcDbEntity
  8
_________2
100
AcDbText
 10
67.78539999999999
 20
13.2179
 30
0.0
 40
3.65458
  1
09.11.25
 41
0.5
100
AcDbText
  0
TEXT
  5
269
330
18
100
AcDbEntity
  8
_________2
100
AcDbText
 10
66.59310000000001
 20
19.41079999999999
 30
0.0
 40
3.09234
  1
日付
 41
0.5
100
AcDbText
  0
TEXT
  5
26A
330
18
100
AcDbEntity
  8
_________2
100
AcDbText
 10
29.6394
 20
19.41079999999999
 30
0.0
 40
3.09234
  1
検図
 41
0.5
100
AcDbText
  0
TEXT
  5
26B
330
18
100
AcDbEntity
  8
_________2
100
AcDbText
 10
18.0211
 20
5.21143
 30
0.0
 40
3.09234
  1
備考
 41
0.5
100
AcDbText
  0
TEXT
  5
26C
330
18
100
AcDbEntity
  8
_________2
100
AcDbText
 10
18.0211
 20
19.41079999999999
 30
0.0
 40
3.09234
  1
製図
 41
0.5
100
AcDbText
  0
TEXT
  5
26D
330
18
100
AcDbEntity
  8
_________2
100
AcDbText
 10
23.863431
 20
27.9368
 30
0.0
 40
4.497939999999999
  1
セラトレーディング株式会社
 41
0.5
 72
     1
 11
41.1805
 21
27.9368
 31
0.0
100
AcDbText
  0
LINE
  5
26E
330
18
100
AcDbEntity
  8
_________2
100
AcDbLine
 10
183.551
 20
-4.09108
 30
0.0
 11
17.0495
 21
-4.09108
 31
0.0
  0
LINE
  5
26F
330
18
100
AcDbEntity
  8
_________2
100
AcDbLine
 10
17.0495
 20
-4.09108
 30
0.0
 11
17.0495
 21
258.911
 31
0.0
  0
LINE
  5
270
330
18
100
AcDbEntity
  8
_________2
100
AcDbLine
 10
17.0495
 20
258.911
 30
0.0
 11
183.551
 21
258.911
 31
0.0
  0
LINE
  5
271
330
18
100
AcDbEntity
  8
_________2
100
AcDbLine
 10
183.551
 20
258.911
 30
0.0
 11
183.551
 21
-4.09108
 31
0.0
  0
LINE
  5
272
330
18
100
AcDbEntity
  8
_________2
100
AcDbLine
 10
65.5496
 20
9.40896
 30
0.0
 11
65.5496
 21
35.9088
 31
0.0
  0
LINE
  5
273
330
18
100
AcDbEntity
  8
_________2
100
AcDbLine
 10
84.54970000000001
 20
9.40896
 30
0.0
 11
84.54970000000001
 21
35.9088
 31
0.0
  0
LINE
  5
274
330
18
100
AcDbEntity
  8
_________2
100
AcDbLine
 10
103.55
 20
-4.09108
 30
0.0
 11
103.55
 21
35.9088
 31
0.0
  0
LINE
  5
275
330
18
100
AcDbEntity
  8
_________2
100
AcDbLine
 10
28.54929999999999
 20
9.40896
 30
0.0
 11
28.54929999999999
 21
23.4092
 31
0.0
  0
LINE
  5
276
330
18
100
AcDbEntity
  8
_________2
100
AcDbLine
 10
17.0495
 20
9.40896
 30
0.0
 11
103.55
 21
9.40896
 31
0.0
  0
LINE
  5
277
330
18
100
AcDbEntity
  8
_________2
100
AcDbLine
 10
17.0495
 20
23.4092
 30
0.0
 11
103.55
 21
23.4092
 31
0.0
  0
LINE
  5
278
330
18
100
AcDbEntity
  8
_________2
100
AcDbLine
 10
103.55
 20
15.9085
 30
0.0
 11
183.551
 21
15.9085
 31
0.0
  0
LINE
  5
279
330
18
100
AcDbEntity
  8
_________2
100
AcDbLine
 10
17.0495
 20
35.9088
 30
0.0
 11
183.551
 21
35.9088
 31
0.0
  0
ENDSEC
  0
SECTION
  2
OBJECTS
  0
DICTIONARY
  5
C
330
0
100
AcDbDictionary
281
     1
  3
ACAD_GROUP
350
D
  3
ACAD_LAYOUT
350
27F
  3
ACAD_MLINESTYLE
350
1B
  3
ACAD_PLOTSETTINGS
350
280
  3
ACAD_PLOTSTYLENAME
350
27D
  0
DICTIONARY
  5
D
102
{ACAD_REACTORS
330
C
102
}
330
C
100
AcDbDictionary
281
     1
  0
DICTIONARY
  5
27F
102
{ACAD_REACTORS
330
C
102
}
330
C
100
AcDbDictionary
281
     1
  3
Model
350
281
  3
ﾚｲｱｳﾄ1
350
282
  0
DICTIONARY
  5
1B
102
{ACAD_REACTORS
330
C
102
}
330
C
100
AcDbDictionary
281
     1
  3
STANDARD
350
1C
  0
DICTIONARY
  5
280
102
{ACAD_REACTORS
330
C
102
}
330
C
100
AcDbDictionary
281
     1
  0
ACDBDICTIONARYWDFLT
  5
27D
102
{ACAD_REACTORS
330
C
102
}
330
C
100
AcDbDictionary
281
     1
  3
Normal
350
27E
100
AcDbDictionaryWithDefault
340
27E
  0
LAYOUT
  5
281
102
{ACAD_REACTORS
330
27F
102
}
330
27F
100
AcDbPlotSettings
  1

  2
DocuPrint2060
  4

  6

 40
0.0
 41
0.0
 42
0.0
 43
0.0
 44
0.0
 45
0.0
 46
0.0
 47
0.0
 48
0.0
 49
0.0
140
0.0
141
0.0
142
1.0
143
1.0
 70
  1712
 72
     0
 73
     0
 74
     0
  7

 75
     0
147
1.0
148
0.0
149
0.0
100
AcDbLayout
  1
Model
 70
     1
 71
     0
 10
0.0
 20
0.0
 11
12.0
 21
9.0
 12
0.0
 22
0.0
 32
0.0
 14
0.0
 24
0.0
 34
0.0
 15
0.0
 25
0.0
 35
0.0
146
0.0
 13
0.0
 23
0.0
 33
0.0
 16
1.0
 26
0.0
 36
0.0
 17
0.0
 27
1.0
 37
0.0
 76
     0
330
18
  0
LAYOUT
  5
282
102
{ACAD_REACTORS
330
27F
102
}
330
27F
100
AcDbPlotSettings
  1

  2
DocuPrint2060
  4

  6

 40
0.0
 41
0.0
 42
0.0
 43
0.0
 44
0.0
 45
0.0
 46
0.0
 47
0.0
 48
0.0
 49
0.0
140
0.0
141
0.0
142
1.0
143
1.0
 70
   688
 72
     0
 73
     0
 74
     5
  7

 75
    16
147
1.0
148
0.0
149
0.0
100
AcDbLayout
  1
ﾚｲｱｳﾄ1
 70
     1
 71
     1
 10
0.0
 20
0.0
 11
12.0
 21
9.0
 12
0.0
 22
0.0
 32
0.0
 14
1.000000000000000E+20
 24
1.000000000000000E+20
 34
1.000000000000000E+20
 15
-1.000000000000000E+20
 25
-1.000000000000000E+20
 35
-1.000000000000000E+20
146
0.0
 13
0.0
 23
0.0
 33
0.0
 16
1.0
 26
0.0
 36
0.0
 17
0.0
 27
1.0
 37
0.0
 76
     0
330
15
  0
MLINESTYLE
  5
1C
102
{ACAD_REACTORS
330
1B
102
}
330
1B
100
AcDbMlineStyle
  2
STANDARD
 70
     0
  3

 62
   256
 51
90.0
 52
90.0
 71
     2
 49
0.5
 62
   256
  6
BYLAYER
 49
-0.5
 62
   256
  6
BYLAYER
  0
ACDBPLACEHOLDER
  5
27E
102
{ACAD_REACTORS
330
27D
102
}
330
27D
  0
ENDSEC
  0
EOF
