  0
SECTION
  2
HEADER
  9
$ACADVER
  1
AC1009
  9
$INSBASE
 10
0.0
 20
0.0
 30
0.0
  9
$EXTMIN
 10
0.238402
 20
0.4485540000000001
 30
0.0
  9
$EXTMAX
 10
210.24000000000001
 20
297.45099999999991
 30
0.0
  9
$LIMMIN
 10
0.0
 20
0.0
  9
$LIMMAX
 10
12.0
 20
9.0
  9
$ORTHOMODE
 70
     0
  9
$REGENMODE
 70
     1
  9
$FILLMODE
 70
     1
  9
$QTEXTMODE
 70
     0
  9
$MIRRTEXT
 70
     1
  9
$DRAGMODE
 70
     2
  9
$LTSCALE
 40
1.0
  9
$OSMODE
 70
    37
  9
$ATTMODE
 70
     1
  9
$TEXTSIZE
 40
0.0
  9
$TRACEWID
 40
0.05
  9
$TEXTSTYLE
  7
STANDARD
  9
$CLAYER
  8
0
  9
$CELTYPE
  6
CONTINUOUS
  9
$CECOLOR
 62
   256
  9
$DIMSCALE
 40
1.0
  9
$DIMASZ
 40
0.18
  9
$DIMEXO
 40
0.0625
  9
$DIMDLI
 40
0.38
  9
$DIMRND
 40
0.0
  9
$DIMDLE
 40
0.0
  9
$DIMEXE
 40
0.18
  9
$DIMTP
 40
0.0
  9
$DIMTM
 40
0.0
  9
$DIMTXT
 40
0.18
  9
$DIMCEN
 40
0.09
  9
$DIMTSZ
 40
0.0
  9
$DIMTOL
 70
     0
  9
$DIMLIM
 70
     0
  9
$DIMTIH
 70
     1
  9
$DIMTOH
 70
     1
  9
$DIMSE1
 70
     0
  9
$DIMSE2
 70
     0
  9
$DIMTAD
 70
     0
  9
$DIMZIN
 70
     0
  9
$DIMBLK
  1

  9
$DIMASO
 70
     1
  9
$DIMSHO
 70
     1
  9
$DIMPOST
  1

  9
$DIMAPOST
  1

  9
$DIMALT
 70
     0
  9
$DIMALTD
 70
     2
  9
$DIMALTF
 40
25.399999999999999
  9
$DIMLFAC
 40
1.0
  9
$DIMTOFL
 70
     0
  9
$DIMTVP
 40
0.0
  9
$DIMTIX
 70
     0
  9
$DIMSOXD
 70
     0
  9
$DIMSAH
 70
     0
  9
$DIMBLK1
  1

  9
$DIMBLK2
  1

  9
$DIMSTYLE
  2
STANDARD
  9
$DIMCLRD
 70
     0
  9
$DIMCLRE
 70
     0
  9
$DIMCLRT
 70
     0
  9
$DIMTFAC
 40
1.0
  9
$DIMGAP
 40
0.09
  9
$LUNITS
 70
     2
  9
$LUPREC
 70
     4
  9
$SKETCHINC
 40
0.1
  9
$FILLETRAD
 40
0.0
  9
$AUNITS
 70
     0
  9
$AUPREC
 70
     0
  9
$MENU
  1
.
  9
$ELEVATION
 40
0.0
  9
$PELEVATION
 40
0.0
  9
$THICKNESS
 40
0.0
  9
$LIMCHECK
 70
     0
  9
$BLIPMODE
 70
     0
  9
$CHAMFERA
 40
0.0
  9
$CHAMFERB
 40
0.0
  9
$SKPOLY
 70
     0
  9
$TDCREATE
 40
2444972.375
  9
$TDUPDATE
 40
2457059.2512978818
  9
$TDINDWG
 40
0.0000063773
  9
$TDUSRTIMER
 40
0.0000063773
  9
$USRTIMER
 70
     1
  9
$ANGBASE
 50
0.0
  9
$ANGDIR
 70
     0
  9
$PDMODE
 70
     0
  9
$PDSIZE
 40
0.0
  9
$PLINEWID
 40
0.0
  9
$COORDS
 70
     1
  9
$SPLFRAME
 70
     0
  9
$SPLINETYPE
 70
     6
  9
$SPLINESEGS
 70
     8
  9
$ATTDIA
 70
     0
  9
$ATTREQ
 70
     1
  9
$HANDLING
 70
     1
  9
$HANDSEED
  5
1FF
  9
$SURFTAB1
 70
     6
  9
$SURFTAB2
 70
     6
  9
$SURFTYPE
 70
     6
  9
$SURFU
 70
     6
  9
$SURFV
 70
     6
  9
$UCSNAME
  2

  9
$UCSORG
 10
0.0
 20
0.0
 30
0.0
  9
$UCSXDIR
 10
1.0
 20
0.0
 30
0.0
  9
$UCSYDIR
 10
0.0
 20
1.0
 30
0.0
  9
$PUCSNAME
  2

  9
$PUCSORG
 10
0.0
 20
0.0
 30
0.0
  9
$PUCSXDIR
 10
1.0
 20
0.0
 30
0.0
  9
$PUCSYDIR
 10
0.0
 20
1.0
 30
0.0
  9
$USERI1
 70
     0
  9
$USERI2
 70
     0
  9
$USERI3
 70
     0
  9
$USERI4
 70
     0
  9
$USERI5
 70
     0
  9
$USERR1
 40
0.0
  9
$USERR2
 40
0.0
  9
$USERR3
 40
0.0
  9
$USERR4
 40
0.0
  9
$USERR5
 40
0.0
  9
$WORLDVIEW
 70
     1
  9
$SHADEDGE
 70
     3
  9
$SHADEDIF
 70
    70
  9
$TILEMODE
 70
     1
  9
$MAXACTVP
 70
    48
  9
$PLIMCHECK
 70
     0
  9
$PEXTMIN
 10
1.0000000000000000E+020
 20
1.0000000000000000E+020
 30
1.0000000000000000E+020
  9
$PEXTMAX
 10
-1.0000000000000000E+020
 20
-1.0000000000000000E+020
 30
-1.0000000000000000E+020
  9
$PLIMMIN
 10
0.0
 20
0.0
  9
$PLIMMAX
 10
12.0
 20
9.0
  9
$UNITMODE
 70
     0
  9
$VISRETAIN
 70
     1
  9
$PLINEGEN
 70
     0
  9
$PSLTSCALE
 70
     1
  0
ENDSEC
  0
SECTION
  2
TABLES
  0
TABLE
  2
VPORT
 70
     2
  0
VPORT
  2
*ACTIVE
 70
     0
 10
0.0
 20
0.0
 11
1.0
 21
1.0
 12
206.64826976736501
 22
148.7254999999999
 13
0.0
 23
0.0
 14
1.0
 24
1.0
 15
0.0
 25
0.0
 16
0.0
 26
0.0
 36
1.0
 17
0.0
 27
0.0
 37
0.0
 40
299.90927272727259
 41
2.2894736842105261
 42
50.0
 43
0.0
 44
0.0
 50
0.0
 51
0.0
 71
     0
 72
   100
 73
     1
 74
     1
 75
     0
 76
     0
 77
     0
 78
     0
  0
ENDTAB
  0
TABLE
  2
LTYPE
 70
     3
  0
LTYPE
  2
CONTINUOUS
 70
     0
  3
Solid line
 72
    65
 73
     0
 40
0.0
  0
LTYPE
  2
AIGENLINE001
 70
     0
  3
generate AI->DXF Converter
 72
    65
 73
     2
 40
1.5522299999999991
 49
0.776115
 49
-0.776115
  0
LTYPE
  2
AIGENLINE002
 70
     0
  3
generate AI->DXF Converter
 72
    65
 73
     4
 40
5.8561449999999988
 49
3.5278
 49
-0.776115
 49
0.776115
 49
-0.776115
  0
ENDTAB
  0
TABLE
  2
LAYER
 70
     2
  0
LAYER
  2
0
 70
     0
 62
     7
  6
CONTINUOUS
  0
LAYER
  2
_________2
 70
     0
 62
     7
  6
CONTINUOUS
  0
ENDTAB
  0
TABLE
  2
STYLE
 70
     1
  0
STYLE
  2
STANDARD
 70
     0
 40
0.0
 41
0.0
 50
0.0
 71
     0
 42
0.0
  3
TXT
  4
EXTFONT.SHX
  0
ENDTAB
  0
TABLE
  2
VIEW
 70
     0
  0
ENDTAB
  0
TABLE
  2
UCS
 70
     0
  0
ENDTAB
  0
TABLE
  2
APPID
 70
     1
  0
APPID
  2
ACAD
 70
     0
  0
ENDTAB
  0
TABLE
  2
DIMSTYLE
 70
     1
  0
DIMSTYLE
  2
STANDARD
 70
     0
  3

  4

  5

  6

  7

 40
1.0
 41
0.18
 42
0.0625
 43
0.38
 44
0.18
 45
0.0
 46
0.0
 47
0.0
 48
0.0
140
0.18
141
0.09
142
0.0
143
25.399999999999999
144
1.0
145
0.0
146
1.0
147
0.09
 71
     0
 72
     0
 73
     1
 74
     1
 75
     0
 76
     0
 77
     0
 78
     0
170
     0
171
     2
172
     0
173
     0
174
     0
175
     0
176
     0
177
     0
178
     0
  0
ENDTAB
  0
ENDSEC
  0
SECTION
  2
BLOCKS
  0
BLOCK
  8
0
  2
$MODEL_SPACE
 70
     0
 10
0.0
 20
0.0
 30
0.0
  3
$MODEL_SPACE
  1

  0
ENDBLK
  5
1A
  8
0
  0
BLOCK
 67
     1
  8
0
  2
$PAPER_SPACE
 70
     0
 10
0.0
 20
0.0
 30
0.0
  3
$PAPER_SPACE
  1

  0
ENDBLK
  5
17
 67
     1
  8
0
  0
ENDSEC
  0
SECTION
  2
ENTITIES
  0
TEXT
  5
23
  8
0
 62
     7
 10
71.622173333333322
 20
206.94200000000001
 30
0.0
 40
3.660169999999999
  1
%%c46
 41
0.5
 72
     2
 11
76.502399999999994
 21
206.94200000000001
 31
0.0
  0
TEXT
  5
24
  8
0
 62
     7
 10
29.700199999999992
 20
62.0032
 30
0.0
 40
4.9911399999999997
  1
※排水栓を閉めた状態で毎分10L以上吐水させないでください。
 41
0.5
  0
TEXT
  5
25
  8
0
 62
     7
 10
45.609400000000001
 20
240.56
 30
0.0
 40
3.660169999999999
  1
%%c35
 41
0.5
  0
TEXT
  5
26
  8
0
 62
     7
 10
61.814993749999992
 20
173.98500000000001
 30
0.0
 40
3.660169999999999
  1
560
 41
0.5
 72
     1
 11
64.102599999999995
 21
173.98500000000001
 31
0.0
  0
TEXT
  5
27
  8
0
 62
     7
 10
61.662486666666659
 20
181.05699999999999
 30
0.0
 40
3.660169999999999
  1
485
 41
0.5
 72
     1
 11
64.102599999999995
 21
181.05699999999999
 31
0.0
  0
TEXT
  5
28
  8
0
 62
     7
 10
67.272615000000002
 20
243.18299999999999
 30
0.0
 40
3.660169999999999
  1
100
 41
0.5
 72
     1
 11
69.102699999999999
 21
243.18299999999999
 31
0.0
  0
TEXT
  5
29
  8
0
 62
     7
 10
57.272415000000002
 20
243.18299999999999
 30
0.0
 40
3.660169999999999
  1
100
 41
0.5
 72
     1
 11
59.102499999999999
 21
243.18299999999999
 31
0.0
  0
TEXT
  5
2A
  8
0
 62
     7
 10
160.69788666666659
 20
241.636
 30
0.0
 40
3.660169999999999
  1
255
 41
0.5
 72
     1
 11
163.13800000000001
 21
241.636
 31
0.0
  0
TEXT
  5
2B
  8
0
 62
     7
 10
133.11099999999999
 20
220.57599999999999
 30
0.0
 40
3.660169999999999
  1
排水口
 41
0.5
  0
TEXT
  5
2C
  8
0
 62
     7
 10
134.33377333333331
 20
199.39299999999989
 30
0.0
 40
3.660169999999999
  1
R75
 41
0.5
 72
     2
 11
139.21399999999991
 21
199.39299999999989
 31
0.0
  0
TEXT
  5
2D
  8
0
 62
     7
 10
140.6275466666666
 20
168.792
 30
0.0
 40
3.660169999999999
  1
カウンタ－切込寸法
 41
0.5
 72
     1
 11
150.38800000000001
 21
168.792
 31
0.0
  0
TEXT
  5
2E
  8
0
 62
     7
 10
159.00290083333331
 20
102.0979999999999
 30
0.0
 40
3.660169999999999
  1
215
 41
0.5
 72
     1
 11
161.13800000000001
 21
102.0979999999999
 31
0.0
  0
TEXT
  5
2F
  8
0
 62
     7
 10
148.4054079166666
 20
181.63499999999991
 30
0.0
 40
3.660169999999999
  1
510
 41
0.5
 72
     1
 11
150.38800000000001
 21
181.63499999999991
 31
0.0
  0
TEXT
  5
30
  8
0
 62
     7
 10
135.19788666666659
 20
241.636
 30
0.0
 40
3.660169999999999
  1
255
 41
0.5
 72
     1
 11
137.63800000000001
 21
241.636
 31
0.0
  0
TEXT
  5
31
  8
0
 62
     7
 10
98.977700000000013
 20
229.3959291666666
 30
0.0
 40
3.660169999999999
  1
65
 50
90.0
 41
0.5
 72
     1
 11
98.977700000000013
 21
230.92099999999991
 31
0.0
  0
TEXT
  5
32
  8
0
 62
     7
 10
98.977700000000013
 20
222.7984362499999
 30
0.0
 40
3.660169999999999
  1
70
 50
90.0
 41
0.5
 72
     1
 11
98.977700000000013
 21
224.17099999999991
 31
0.0
  0
TEXT
  5
33
  8
0
 62
     7
 10
105.8
 20
225.2859008333333
 30
0.0
 40
3.660169999999999
  1
135
 50
90.0
 41
0.5
 72
     1
 11
105.8
 21
227.42099999999999
 31
0.0
  0
TEXT
  5
34
  8
0
 62
     7
 10
105.8
 20
181.999
 30
0.0
 40
3.660169999999999
  1
35
 50
90.0
 41
0.5
  0
TEXT
  5
35
  8
0
 62
     7
 10
105.8
 20
203.98088666666661
 30
0.0
 40
3.660169999999999
  1
285
 50
90.0
 41
0.5
 72
     1
 11
105.8
 21
206.42099999999999
 31
0.0
  0
TEXT
  5
36
  8
0
 62
     7
 10
99.366100000000003
 20
121.9089291666666
 30
0.0
 40
3.660169999999999
  1
45
 50
90.0
 41
0.5
 72
     1
 11
99.366100000000003
 21
123.4339999999999
 31
0.0
  0
TEXT
  5
37
  8
0
 62
     7
 10
106.634
 20
115.2014079166666
 30
0.0
 40
3.660169999999999
  1
170
 50
90.0
 41
0.5
 72
     1
 11
106.634
 21
117.1839999999999
 31
0.0
  0
TEXT
  5
38
  8
0
 62
     7
 10
146.911
 20
116.3624079166666
 30
0.0
 40
3.660169999999999
  1
120
 50
90.0
 41
0.5
 72
     1
 11
146.911
 21
118.345
 31
0.0
  0
TEXT
  5
39
  8
0
 62
     7
 10
162.9439999999999
 20
199.58590083333331
 30
0.0
 40
3.660169999999999
  1
219
 50
90.0
 41
0.5
 72
     1
 11
162.9439999999999
 21
201.72099999999989
 31
0.0
  0
TEXT
  5
3A
  8
0
 62
     7
 10
162.9439999999999
 20
220.23590083333329
 30
0.0
 40
3.660169999999999
  1
194
 50
90.0
 41
0.5
 72
     1
 11
162.9439999999999
 21
222.37100000000001
 31
0.0
  0
TEXT
  5
3B
  8
0
 62
     7
 10
116.73399999999999
 20
209.2859008333333
 30
0.0
 40
3.660169999999999
  1
413
 50
90.0
 41
0.5
 72
     1
 11
116.73399999999999
 21
211.42099999999991
 31
0.0
  0
TEXT
  5
3C
  8
0
 62
     7
 10
27.7471
 20
208.98088666666661
 30
0.0
 40
3.660169999999999
  1
455
 50
90.0
 41
0.5
 72
     1
 11
27.7471
 21
211.42099999999991
 31
0.0
  0
ARC
  5
3D
  8
0
  6
AIGENLINE001
 62
     7
 10
146.75533599999989
 20
113.378525
 30
0.0
 40
0.305529
 50
45.433684999999983
 51
89.591001999999989
  0
LINE
  5
3E
  8
0
  6
AIGENLINE001
 62
     7
 10
146.97
 20
113.596
 30
0.0
 11
148.387
 21
112.084
 31
0.0
  0
ARC
  5
3F
  8
0
  6
AIGENLINE001
 62
     7
 10
154.0195929999999
 20
113.378525
 30
0.0
 40
0.305529
 50
90.408978000000005
 51
134.56629499999991
  0
ARC
  5
40
  8
0
  6
AIGENLINE001
 62
     7
 10
154.01498599999999
 20
115.738905
 30
0.0
 40
2.0548599999999988
 50
270.06766599999997
 51
287.86105600000002
  0
ARC
  5
41
  8
0
  6
AIGENLINE001
 62
     7
 10
153.805046
 20
116.4948719999999
 30
0.0
 40
2.8389630000000001
 50
287.21438899999998
 51
321.47103599999991
  0
ARC
  5
42
  8
0
  6
AIGENLINE001
 62
     7
 10
154.66455899999991
 20
115.765156
 30
0.0
 40
1.712391
 50
322.65735399999988
 51
338.11273499999987
  0
ARC
  5
43
  8
0
  6
AIGENLINE001
 62
     7
 10
155.17696499999991
 20
115.535417
 30
0.0
 40
1.151491
 50
339.21562899999992
 51
344.71901200000002
  0
ARC
  5
44
  8
0
  6
AIGENLINE001
 62
     7
 10
89.334360999999987
 20
133.46700799999999
 30
0.0
 40
69.392169999999993
 50
344.76475299999993
 51
352.57936299999989
  0
ARC
  5
45
  8
0
 62
     7
 10
133.016583
 20
123.303918
 30
0.0
 40
26.577646999999988
 50
345.48126200000002
 51
350.42019599999992
  0
ARC
  5
46
  8
0
 62
     7
 10
118.9748899999999
 20
125.739665
 30
0.0
 40
40.828936999999989
 50
350.32905899999992
 51
352.49490099999991
  0
ARC
  5
47
  8
0
 62
     7
 10
37.097158
 20
136.85675599999999
 30
0.0
 40
123.457728
 50
352.34293899999989
 51
352.70706999999999
  0
ARC
  5
48
  8
0
 62
     7
 10
152.738867
 20
118.18535799999999
 30
0.0
 40
6.202164999999999
 50
271.35013500000002
 51
345.56166899999988
  0
ARC
  5
49
  8
0
  6
AIGENLINE001
 62
     7
 10
159.64634399999991
 20
124.13928
 30
0.0
 40
1.5459020000000001
 50
91.326367000000005
 51
165.427268
  0
ARC
  5
4A
  8
0
  6
AIGENLINE001
 62
     7
 10
154.934245
 20
133.52052499999999
 30
0.0
 40
26.240546999999989
 50
199.5793139999999
 51
204.86954399999991
  0
ARC
  5
4B
  8
0
  6
AIGENLINE001
 62
     7
 10
148.79653099999999
 20
130.75038000000001
 30
0.0
 40
19.507120999999991
 50
205.06919099999999
 51
214.58334500000001
  0
ARC
  5
4C
  8
0
  6
AIGENLINE001
 62
     7
 10
144.370226
 20
127.854349
 30
0.0
 40
14.21971499999999
 50
215.09943899999999
 51
230.493292
  0
ARC
  5
4D
  8
0
  6
AIGENLINE001
 62
     7
 10
143.27636299999989
 20
126.743734
 30
0.0
 40
12.667684
 50
231.11490699999999
 51
248.83676700000001
  0
ARC
  5
4E
  8
0
  6
AIGENLINE001
 62
     7
 10
144.39538999999991
 20
129.4187729999999
 30
0.0
 40
15.566499
 50
248.55042599999999
 51
258.89068500000002
  0
ARC
  5
4F
  8
0
  6
AIGENLINE001
 62
     7
 10
145.5028519999999
 20
134.348184
 30
0.0
 40
20.617381999999999
 50
258.51022999999992
 51
264.01570299999992
  0
ARC
  5
50
  8
0
  6
AIGENLINE001
 62
     7
 10
146.2146469999999
 20
140.4630159999999
 30
0.0
 40
26.773191999999991
 50
263.86502699999988
 51
268.34420599999987
  0
ARC
  5
51
  8
0
  6
AIGENLINE001
 62
     7
 10
146.51587000000001
 20
147.74909
 30
0.0
 40
34.06504799999999
 50
268.19187999999991
 51
270.03038299999997
  0
ARC
  5
52
  8
0
  6
AIGENLINE001
 62
     7
 10
128.7854759999999
 20
124.1454269999999
 30
0.0
 40
1.539568
 50
22.195452
 51
89.016537999999997
  0
ARC
  5
53
  8
0
 62
     7
 10
142.81762399999991
 20
125.5803919999999
 30
0.0
 40
13.184259000000001
 50
199.47531099999989
 51
216.210219
  0
ARC
  5
54
  8
0
 62
     7
 10
141.65882999999991
 20
124.8937429999999
 30
0.0
 40
11.844362
 50
216.841656
 51
237.59893899999989
  0
ARC
  5
55
  8
0
 62
     7
 10
143.04908199999991
 20
126.927246
 30
0.0
 40
14.306488999999999
 50
237.26181799999989
 51
247.9760499999999
  0
ARC
  5
56
  8
0
 62
     7
 10
144.62350399999991
 20
130.55521899999999
 30
0.0
 40
18.26038599999999
 50
247.66521900000001
 51
255.36063799999999
  0
ARC
  5
57
  8
0
 62
     7
 10
146.10308499999999
 20
135.8305179999999
 30
0.0
 40
23.73857099999999
 50
255.12338299999999
 51
261.24866400000002
  0
ARC
  5
58
  8
0
 62
     7
 10
147.46381599999989
 20
143.947776
 30
0.0
 40
31.96854699999999
 50
261.051738
 51
266.93233800000002
  0
ARC
  5
59
  8
0
 62
     7
 10
148.18111899999991
 20
153.44924900000001
 30
0.0
 40
41.495310999999987
 50
266.64541299999991
 51
267.79832299999993
  0
ARC
  5
5A
  8
0
 62
     7
 10
11.32442799999999
 20
151.964752
 30
0.0
 40
153.656454
 50
345.36431499999992
 51
346.8547779999999
  0
ARC
  5
5B
  8
0
 62
     7
 10
-49.020887999999999
 20
166.258476
 30
0.0
 40
215.67129499999999
 50
346.80285400000002
 51
347.93667399999998
  0
ARC
  5
5C
  8
0
 62
     7
 10
155.005841
 20
114.4386429999999
 30
0.0
 40
5.1554209999999987
 50
271.33993500000003
 51
345.41082999999992
  0
ARC
  5
5D
  8
0
 62
     7
 10
146.5757209999999
 20
111.67288000000001
 30
0.0
 40
0.311893
 50
2.1351830000000001
 51
87.930550999999994
  0
LINE
  5
5E
  8
0
  6
AIGENLINE001
 62
     7
 10
146.53399999999991
 20
113.684
 30
0.0
 11
146.887
 21
113.684
 31
0.0
  0
ARC
  5
5F
  8
0
 62
     7
 10
147.095609
 20
108.89270399999999
 30
0.0
 40
0.208367
 50
182.21413399999989
 51
267.78589599999998
  0
LINE
  5
60
  8
0
 62
     7
 10
146.887
 20
111.685
 30
0.0
 11
146.887
 21
108.88500000000001
 31
0.0
  0
ARC
  5
61
  8
0
 62
     7
 10
154.187601
 20
108.984562
 30
0.0
 40
0.30007
 50
90.0
 51
179.99996999999991
  0
LINE
  5
62
  8
0
  6
AIGENLINE001
 62
     7
 10
148.387
 20
112.084
 30
0.0
 11
148.387
 21
108.684
 31
0.0
  0
LINE
  5
63
  8
0
  6
AIGENLINE001
 62
     7
 10
152.38800000000001
 20
112.084
 30
0.0
 11
148.387
 21
112.084
 31
0.0
  0
LINE
  5
64
  8
0
  6
AIGENLINE001
 62
     7
 10
154.01699999999991
 20
113.684
 30
0.0
 11
146.887
 21
113.684
 31
0.0
  0
LINE
  5
65
  8
0
 62
     7
 10
155.126
 20
109.285
 30
0.0
 11
154.1879999999999
 21
109.285
 31
0.0
  0
LINE
  5
66
  8
0
 62
     7
 10
153.68700000000001
 20
108.684
 30
0.0
 11
147.08799999999999
 21
108.684
 31
0.0
  0
LINE
  5
67
  8
0
  6
AIGENLINE001
 62
     7
 10
153.80500000000001
 20
113.596
 30
0.0
 11
152.38800000000001
 21
112.084
 31
0.0
  0
LINE
  5
68
  8
0
  6
AIGENLINE001
 62
     7
 10
152.38800000000001
 20
112.084
 30
0.0
 11
152.38800000000001
 21
108.684
 31
0.0
  0
ARC
  5
69
  8
0
 62
     7
 10
153.67933199999999
 20
108.892692
 30
0.0
 40
0.208355
 50
272.21105299999999
 51
357.78895599999998
  0
LINE
  5
6A
  8
0
 62
     7
 10
153.88799999999989
 20
108.9849999999999
 30
0.0
 11
153.88799999999989
 21
108.88500000000001
 31
0.0
  0
LINE
  5
6B
  8
0
  6
AIGENLINE002
 62
     7
 10
150.38800000000001
 20
127.8
 30
0.0
 11
150.38800000000001
 21
106.845
 31
0.0
  0
ARC
  5
6C
  8
0
 62
     7
 10
126.595783
 20
121.3929669999999
 30
0.0
 40
0.208367
 50
182.21413399999989
 51
267.78589599999998
  0
ARC
  5
6D
  8
0
 62
     7
 10
126.9064139999999
 20
125.16591200000001
 30
0.0
 40
0.5192020000000001
 50
92.092299999999994
 51
177.86816899999991
  0
LINE
  5
6E
  8
0
 62
     7
 10
126.38799999999991
 20
125.185
 30
0.0
 11
126.38799999999991
 21
121.38500000000001
 31
0.0
  0
ARC
  5
6F
  8
0
 62
     7
 10
171.67971299999991
 20
121.3929669999999
 30
0.0
 40
0.208367
 50
272.21412400000003
 51
357.785886
  0
ARC
  5
70
  8
0
 62
     7
 10
171.36908199999999
 20
125.16591200000001
 30
0.0
 40
0.5192020000000001
 50
2.131810999999999
 51
87.907679999999985
  0
LINE
  5
71
  8
0
 62
     7
 10
171.88800000000001
 20
125.185
 30
0.0
 11
171.88800000000001
 21
121.38500000000001
 31
0.0
  0
ARC
  5
72
  8
0
  6
AIGENLINE001
 62
     7
 10
89.381225000000001
 20
124.14922799999999
 30
0.0
 40
1.535704
 50
90.838057000000006
 51
154.58410399999991
  0
ARC
  5
73
  8
0
 62
     7
 10
67.219910999999996
 20
175.4254159999999
 30
0.0
 40
63.455376000000001
 50
271.22619600000002
 51
279.67210899999992
  0
ARC
  5
74
  8
0
 62
     7
 10
75.258505
 20
126.61037399999989
 30
0.0
 40
13.986406000000001
 50
280.8071569999999
 51
334.98386699999998
  0
ARC
  5
75
  8
0
 62
     7
 10
81.228847999999985
 20
123.2470409999999
 30
0.0
 40
7.1729839999999987
 50
339.16607299999993
 51
340.96239800000001
  0
ARC
  5
76
  8
0
 62
     7
 10
76.883977999999999
 20
124.8114469999999
 30
0.0
 40
11.790663
 50
340.66308900000001
 51
342.08594399999998
  0
LINE
  5
77
  8
0
  6
AIGENLINE001
 62
     7
 10
87.994200000000006
 20
124.80799999999989
 30
0.0
 11
86.692599999999985
 21
121.62899999999991
 31
0.0
  0
ARC
  5
78
  8
0
  6
AIGENLINE001
 62
     7
 10
75.086221999999992
 20
127.12309499999991
 30
0.0
 40
12.84113
 50
280.79370699999993
 51
334.667891
  0
LINE
  5
79
  8
0
  6
AIGENLINE001
 62
     7
 10
77.491
 20
114.5089999999999
 30
0.0
 11
77.503799999999984
 21
114.511
 31
0.0
  0
ARC
  5
7A
  8
0
  6
AIGENLINE001
 62
     7
 10
68.501407999999998
 20
167.89484999999991
 30
0.0
 40
54.137368000000002
 50
275.13108299999988
 51
279.57203799999991
  0
ARC
  5
7B
  8
0
  6
AIGENLINE001
 62
     7
 10
67.029430000000005
 20
182.46098599999999
 30
0.0
 40
68.776972000000001
 50
272.02133800000001
 51
275.267177
  0
ARC
  5
7C
  8
0
  6
AIGENLINE001
 62
     7
 10
66.252017000000009
 20
199.733374
 30
0.0
 40
86.066197000000017
 50
271.13443599999999
 51
272.13298199999991
  0
ARC
  5
7D
  8
0
 62
     7
 10
67.914188999999993
 20
111.67305
 30
0.0
 40
0.311724
 50
92.072256999999993
 51
177.89483200000001
  0
LINE
  5
7E
  8
0
  6
AIGENLINE001
 62
     7
 10
67.956000000000003
 20
113.684
 30
0.0
 11
67.602699999999999
 21
113.684
 31
0.0
  0
ARC
  5
7F
  8
0
 62
     7
 10
67.394475
 20
108.892692
 30
0.0
 40
0.208355
 50
272.21105299999999
 51
357.78895599999998
  0
LINE
  5
80
  8
0
 62
     7
 10
67.602699999999999
 20
111.685
 30
0.0
 11
67.602699999999999
 21
108.88500000000001
 31
0.0
  0
ARC
  5
81
  8
0
 62
     7
 10
91.894587000000016
 20
121.3929669999999
 30
0.0
 40
0.208367
 50
272.21412400000003
 51
357.785886
  0
ARC
  5
82
  8
0
 62
     7
 10
91.583956000000001
 20
125.16591200000001
 30
0.0
 40
0.5192020000000001
 50
2.131810999999999
 51
87.907679999999985
  0
LINE
  5
83
  8
0
 62
     7
 10
92.102800000000002
 20
125.185
 30
0.0
 11
92.102800000000002
 21
121.38500000000001
 31
0.0
  0
ARC
  5
84
  8
0
  6
AIGENLINE001
 62
     7
 10
38.823990999999999
 20
124.14922799999999
 30
0.0
 40
1.535704
 50
25.415876000000001
 51
89.161923999999985
  0
ARC
  5
85
  8
0
 62
     7
 10
60.985304000000014
 20
175.4254159999999
 30
0.0
 40
63.455376000000001
 50
260.32791099999992
 51
268.77382399999999
  0
ARC
  5
86
  8
0
 62
     7
 10
52.946711000000001
 20
126.61037399999989
 30
0.0
 40
13.986406000000001
 50
205.01615200000001
 51
259.19286299999987
  0
ARC
  5
87
  8
0
 62
     7
 10
49.129168
 20
124.050101
 30
0.0
 40
9.4706539999999997
 50
197.61084
 51
200.742513
  0
LINE
  5
88
  8
0
  6
AIGENLINE001
 62
     7
 10
40.211100000000002
 20
124.80799999999989
 30
0.0
 11
41.512799999999991
 21
121.62899999999991
 31
0.0
  0
ARC
  5
89
  8
0
  6
AIGENLINE001
 62
     7
 10
53.119228999999997
 20
127.12311800000001
 30
0.0
 40
12.84119699999999
 50
205.33210199999991
 51
259.20530099999991
  0
LINE
  5
8A
  8
0
  6
AIGENLINE001
 62
     7
 10
50.714199999999991
 20
114.5089999999999
 30
0.0
 11
50.701300000000003
 21
114.511
 31
0.0
  0
ARC
  5
8B
  8
0
  6
AIGENLINE001
 62
     7
 10
59.703283999999989
 20
167.89275900000001
 30
0.0
 40
54.135246999999993
 50
260.42797999999999
 51
264.86918300000002
  0
ARC
  5
8C
  8
0
  6
AIGENLINE001
 62
     7
 10
61.175839000000003
 20
182.46431799999991
 30
0.0
 40
68.780304999999998
 50
264.73296899999991
 51
267.97872699999988
  0
ARC
  5
8D
  8
0
  6
AIGENLINE001
 62
     7
 10
61.953251999999999
 20
199.736064
 30
0.0
 40
86.068887000000004
 50
267.86706099999992
 51
268.86558300000002
  0
ARC
  5
8E
  8
0
 62
     7
 10
60.302470999999997
 20
111.6845
 30
0.0
 40
0.30007
 50
0.00001
 51
89.999980000000008
  0
ARC
  5
8F
  8
0
  6
AIGENLINE001
 62
     7
 10
64.058731999999992
 20
122.22874899999999
 30
0.0
 40
1.1946619999999999
 50
272.10476699999992
 51
357.89524299999999
  0
ARC
  5
90
  8
0
  6
AIGENLINE001
 62
     7
 10
64.146881000000008
 20
122.229146
 30
0.0
 40
1.1950730000000001
 50
182.123099
 51
267.87693100000001
  0
ARC
  5
91
  8
0
  6
AIGENLINE001
 62
     7
 10
64.146484000000001
 20
122.140998
 30
0.0
 40
1.1946619999999999
 50
92.104730000000004
 51
177.89524
  0
ARC
  5
92
  8
0
  6
AIGENLINE001
 62
     7
 10
64.058334999999985
 20
122.14059999999991
 30
0.0
 40
1.1950730000000001
 50
2.1230790000000002
 51
87.876910999999993
  0
LINE
  5
93
  8
0
  6
AIGENLINE002
 62
     7
 10
160.0
 20
121.56
 30
0.0
 11
155.739
 21
122.77
 31
0.0
  0
LINE
  5
94
  8
0
  6
AIGENLINE002
 62
     7
 10
61.642099999999999
 20
122.185
 30
0.0
 11
66.530699999999996
 21
122.185
 31
0.0
  0
ARC
  5
95
  8
0
  6
AIGENLINE001
 62
     7
 10
54.102466
 20
227.670919
 30
0.0
 40
1.7499480000000001
 50
270.00002000000001
 51
359.99998999999991
  0
ARC
  5
96
  8
0
  6
AIGENLINE001
 62
     7
 10
54.102466
 20
227.670919
 30
0.0
 40
1.7499469999999999
 50
179.99996999999991
 51
270.00002000000001
  0
ARC
  5
97
  8
0
  6
AIGENLINE001
 62
     7
 10
54.102466
 20
227.670919
 30
0.0
 40
1.7499480000000001
 50
90.0
 51
179.99996999999991
  0
ARC
  5
98
  8
0
  6
AIGENLINE001
 62
     7
 10
54.102466
 20
227.670919
 30
0.0
 40
1.7499480000000001
 50
0.00001
 51
89.999980000000008
  0
LINE
  5
99
  8
0
  6
AIGENLINE002
 62
     7
 10
54.102499999999999
 20
230.75399999999999
 30
0.0
 11
54.102499999999999
 21
224.52600000000001
 31
0.0
  0
ARC
  5
9A
  8
0
  6
AIGENLINE001
 62
     7
 10
74.102749000000003
 20
227.670919
 30
0.0
 40
1.7499480000000001
 50
270.00002000000001
 51
359.99998999999991
  0
ARC
  5
9B
  8
0
  6
AIGENLINE001
 62
     7
 10
74.102749000000003
 20
227.670919
 30
0.0
 40
1.7499469999999999
 50
179.99996999999991
 51
270.00002000000001
  0
ARC
  5
9C
  8
0
  6
AIGENLINE001
 62
     7
 10
74.10275
 20
227.670919
 30
0.0
 40
1.7499480000000001
 50
90.0
 51
179.99996999999991
  0
ARC
  5
9D
  8
0
  6
AIGENLINE001
 62
     7
 10
74.102749000000003
 20
227.670919
 30
0.0
 40
1.7499480000000001
 50
0.00001
 51
89.999980000000008
  0
ARC
  5
9E
  8
0
 62
     7
 10
64.102607999999989
 20
227.670919
 30
0.0
 40
1.7499480000000001
 50
270.00002000000001
 51
359.99998999999991
  0
ARC
  5
9F
  8
0
 62
     7
 10
64.102607999999989
 20
227.670919
 30
0.0
 40
1.7499469999999999
 50
179.99996999999991
 51
270.00002000000001
  0
ARC
  5
A0
  8
0
 62
     7
 10
64.102607999999989
 20
227.670919
 30
0.0
 40
1.7499480000000001
 50
90.0
 51
179.99996999999991
  0
ARC
  5
A1
  8
0
 62
     7
 10
64.102607999999989
 20
227.670919
 30
0.0
 40
1.7499480000000001
 50
0.00001
 51
89.999980000000008
  0
LINE
  5
A2
  8
0
  6
AIGENLINE002
 62
     7
 10
51.016000000000012
 20
227.67099999999999
 30
0.0
 11
78.032600000000002
 21
227.67099999999999
 31
0.0
  0
ARC
  5
A3
  8
0
 62
     7
 10
64.102606999999992
 20
212.67070699999999
 30
0.0
 40
3.500067
 50
270.00002000000001
 51
359.99998999999991
  0
ARC
  5
A4
  8
0
 62
     7
 10
64.102606999999992
 20
212.670706
 30
0.0
 40
3.5000659999999999
 50
179.99996999999991
 51
270.00002000000001
  0
ARC
  5
A5
  8
0
 62
     7
 10
64.102609000000001
 20
212.670706
 30
0.0
 40
3.500067
 50
90.0
 51
179.99996999999991
  0
ARC
  5
A6
  8
0
 62
     7
 10
64.102606999999992
 20
212.670706
 30
0.0
 40
3.500067
 50
0.00001
 51
89.999980000000008
  0
ARC
  5
A7
  8
0
 62
     7
 10
64.102607999999989
 20
212.67070699999999
 30
0.0
 40
2.2999610000000001
 50
270.00002000000001
 51
359.99998999999991
  0
ARC
  5
A8
  8
0
 62
     7
 10
64.102607999999989
 20
212.670706
 30
0.0
 40
2.29996
 50
179.99996999999991
 51
270.00002000000001
  0
ARC
  5
A9
  8
0
 62
     7
 10
64.102607999999989
 20
212.670706
 30
0.0
 40
2.2999610000000001
 50
90.0
 51
179.99996999999991
  0
ARC
  5
AA
  8
0
 62
     7
 10
64.102607999999989
 20
212.670706
 30
0.0
 40
2.2999610000000001
 50
0.00001
 51
89.999980000000008
  0
ARC
  5
AB
  8
0
 62
     7
 10
82.638171
 20
224.704589
 30
0.0
 40
9.0310589999999991
 50
8.4934949999999994
 51
86.111764000000036
  0
ARC
  5
AC
  8
0
 62
     7
 10
64.105964
 20
-168.13619199999999
 30
0.0
 40
402.306828
 50
87.272421999999992
 51
92.723946999999995
  0
ARC
  5
AD
  8
0
 62
     7
 10
45.568266999999999
 20
224.70198500000001
 30
0.0
 40
9.0328229999999987
 50
93.691551000000004
 51
171.49145899999999
  0
ARC
  5
AE
  8
0
 62
     7
 10
240.00333599999999
 20
211.31649999999991
 30
0.0
 40
203.900645
 50
175.85953199999989
 51
184.19044700000001
  0
ARC
  5
AF
  8
0
 62
     7
 10
44.790279999999989
 20
197.336693
 30
0.0
 40
8.1942579999999996
 50
186.44314099999991
 51
262.34370899999988
  0
ARC
  5
B0
  8
0
 62
     7
 10
64.098575999999994
 20
570.85586299999989
 30
0.0
 40
382.18521399999997
 50
266.94026099999991
 51
273.06169299999999
  0
ARC
  5
B1
  8
0
 62
     7
 10
83.414282999999998
 20
197.33737600000001
 30
0.0
 40
8.1949830000000006
 50
277.69425999999987
 51
353.55264599999992
  0
ARC
  5
B2
  8
0
 62
     7
 10
-111.8062
 20
211.3153209999999
 30
0.0
 40
203.90861599999999
 50
355.81006899999988
 51
4.140617999999999
  0
ARC
  5
B3
  8
0
 62
     7
 10
65.010560999999996
 20
219.8578499999999
 30
0.0
 40
0.092166
 50
321.21547900000002
 51
359.715844
  0
ARC
  5
B4
  8
0
 62
     7
 10
64.929208000000003
 20
219.913659
 30
0.0
 40
0.190685
 50
309.37054000000001
 51
323.45612899999992
  0
ARC
  5
B5
  8
0
 62
     7
 10
64.821314999999998
 20
220.0453609999999
 30
0.0
 40
0.360939
 50
298.45559300000002
 51
309.34901200000002
  0
ARC
  5
B6
  8
0
 62
     7
 10
64.662338000000005
 20
220.336209
 30
0.0
 40
0.692398
 50
290.42812700000002
 51
298.55397299999998
  0
ARC
  5
B7
  8
0
 62
     7
 10
64.480789000000001
 20
220.81576200000001
 30
0.0
 40
1.2051620000000001
 50
284.56489699999997
 51
290.55897199999998
  0
ARC
  5
B8
  8
0
 62
     7
 10
64.250422999999998
 20
221.70885699999999
 30
0.0
 40
2.127488
 50
275.28652299999987
 51
284.52101599999997
  0
ARC
  5
B9
  8
0
 62
     7
 10
64.109457999999989
 20
222.87251299999991
 30
0.0
 40
3.299348999999999
 50
269.88105200000001
 51
275.86221
  0
ARC
  5
BA
  8
0
 62
     7
 10
64.101703999999998
 20
222.8057729999999
 30
0.0
 40
3.2326019999999991
 50
260.05689599999988
 51
270.01602200000002
  0
ARC
  5
BB
  8
0
 62
     7
 10
63.817104999999998
 20
221.09748200000001
 30
0.0
 40
1.500899999999999
 50
248.76295699999989
 51
259.49775399999999
  0
ARC
  5
BC
  8
0
 62
     7
 10
63.446120999999991
 20
220.13075499999999
 30
0.0
 40
0.4654640000000001
 50
228.97511
 51
248.22327699999991
  0
ARC
  5
BD
  8
0
 62
     7
 10
63.225616000000002
 20
219.86920099999989
 30
0.0
 40
0.123519
 50
185.48551499999999
 51
226.50355699999989
  0
ARC
  5
BE
  8
0
 62
     7
 10
63.194977000000002
 20
219.856933
 30
0.0
 40
0.092316
 50
141.25347999999991
 51
179.71449599999991
  0
ARC
  5
BF
  8
0
 62
     7
 10
63.276120999999989
 20
219.801466
 30
0.0
 40
0.190466
 50
129.41002999999989
 51
143.51798199999999
  0
ARC
  5
C0
  8
0
 62
     7
 10
63.384343999999992
 20
219.6695049999999
 30
0.0
 40
0.361129
 50
118.495019
 51
129.38437400000001
  0
ARC
  5
C1
  8
0
 62
     7
 10
63.543067999999998
 20
219.37874600000001
 30
0.0
 40
0.69239
 50
110.4355879999999
 51
118.559507
  0
ARC
  5
C2
  8
0
 62
     7
 10
63.72681
 20
218.89284599999999
 30
0.0
 40
1.211865999999999
 50
104.59495200000001
 51
110.554931
  0
ARC
  5
C3
  8
0
 62
     7
 10
63.953607999999988
 20
218.01429799999991
 30
0.0
 40
2.1192159999999989
 50
95.274433999999985
 51
104.5435699999999
  0
ARC
  5
C4
  8
0
 62
     7
 10
64.095742000000001
 20
216.843187
 30
0.0
 40
3.2986070000000001
 50
89.880724999999984
 51
95.862856000000008
  0
ARC
  5
C5
  8
0
 62
     7
 10
64.10351
 20
216.90855499999989
 30
0.0
 40
3.2332329999999998
 50
80.057847999999979
 51
90.015980999999996
  0
ARC
  5
C6
  8
0
 62
     7
 10
64.387112000000002
 20
218.61410299999989
 30
0.0
 40
1.5044079999999991
 50
68.769230000000007
 51
79.481747999999996
  0
ARC
  5
C7
  8
0
 62
     7
 10
64.758831000000001
 20
219.58365199999989
 30
0.0
 40
0.4660770000000001
 50
48.971463
 51
68.202821
  0
ARC
  5
C8
  8
0
 62
     7
 10
64.979818999999992
 20
219.84567100000001
 30
0.0
 40
0.123464
 50
5.4481659999999996
 51
46.516212000000003
  0
ARC
  5
C9
  8
0
 62
     7
 10
82.747435999999979
 20
197.820739
 30
0.0
 40
5.1835239999999994
 50
274.62007499999987
 51
354.71030599999989
  0
ARC
  5
CA
  8
0
 62
     7
 10
-92.099792000000008
 20
210.40453999999991
 30
0.0
 40
180.48194099999989
 50
355.84981399999998
 51
1.036532999999999
  0
ARC
  5
CB
  8
0
 62
     7
 10
46.384036999999999
 20
213.39386400000001
 30
0.0
 40
6.5372190000000003
 50
96.616901999999982
 51
177.5899639999999
  0
ARC
  5
CC
  8
0
 62
     7
 10
81.77704
 20
213.35358599999989
 30
0.0
 40
6.5831580000000001
 50
2.7501029999999989
 51
83.039583999999991
  0
ARC
  5
CD
  8
0
 62
     7
 10
64.106836999999985
 20
2.3880089999999989
 30
0.0
 40
218.28286900000001
 50
85.146640000000005
 51
94.855478000000005
  0
ARC
  5
CE
  8
0
 62
     7
 10
45.489924999999992
 20
197.852881
 30
0.0
 40
5.2182339999999989
 50
185.608937
 51
265.05656099999999
  0
ARC
  5
CF
  8
0
 62
     7
 10
64.10278000000001
 20
568.407015
 30
0.0
 40
376.23618199999993
 50
267.09579699999989
 51
272.904222
  0
ARC
  5
D0
  8
0
 62
     7
 10
220.34498300000001
 20
210.40928799999989
 30
0.0
 40
180.52181200000001
 50
178.96540200000001
 51
184.15079900000001
  0
LINE
  5
D1
  8
0
  6
AIGENLINE002
 62
     7
 10
59.225499999999997
 20
212.67099999999999
 30
0.0
 11
68.747799999999998
 21
212.67099999999999
 31
0.0
  0
LINE
  5
D2
  8
0
  6
AIGENLINE002
 62
     7
 10
74.102699999999999
 20
230.75399999999999
 30
0.0
 11
74.102699999999999
 21
224.52600000000001
 31
0.0
  0
LINE
  5
D3
  8
0
  6
AIGENLINE002
 62
     7
 10
64.102599999999995
 20
236.18700000000001
 30
0.0
 11
64.102599999999995
 21
186.791
 31
0.0
  0
LINE
  5
D4
  8
0
 62
     7
 10
70.531000000000006
 20
206.24199999999999
 30
0.0
 11
76.502399999999994
 21
206.24199999999999
 31
0.0
  0
LINE
  5
D5
  8
0
 62
     7
 10
60.494700000000002
 20
215.44099999999989
 30
0.0
 11
62.476300000000002
 21
214.297
 31
0.0
  0
LINE
  5
D6
  8
0
 62
     7
 10
62.476300000000002
 20
214.297
 30
0.0
 11
61.332599999999992
 21
216.279
 31
0.0
  0
LINE
  5
D7
  8
0
 62
     7
 10
61.332599999999992
 20
216.279
 30
0.0
 11
60.494700000000002
 21
215.44099999999989
 31
0.0
  0
LINE
  5
D8
  8
0
 62
     7
 10
67.710899999999995
 20
209.90000000000001
 30
0.0
 11
65.728899999999996
 21
211.04400000000001
 31
0.0
  0
LINE
  5
D9
  8
0
 62
     7
 10
65.728899999999996
 20
211.04400000000001
 30
0.0
 11
66.873000000000005
 21
209.06200000000001
 31
0.0
  0
LINE
  5
DA
  8
0
 62
     7
 10
66.873000000000005
 20
209.06200000000001
 30
0.0
 11
67.710899999999995
 21
209.90000000000001
 31
0.0
  0
LINE
  5
DB
  8
0
 62
     7
 10
70.531000000000006
 20
206.24199999999999
 30
0.0
 11
59.612099999999998
 21
217.16099999999989
 31
0.0
  0
ARC
  5
DC
  8
0
 62
     7
 10
132.387587
 20
198.27063100000001
 30
0.0
 40
7.5000189999999991
 50
179.99996999999991
 51
270.00002000000001
  0
ARC
  5
DD
  8
0
 62
     7
 10
168.38768400000001
 20
198.270634
 30
0.0
 40
7.5000220000000004
 50
270.00002000000001
 51
359.99998999999991
  0
ARC
  5
DE
  8
0
 62
     7
 10
168.38768400000001
 20
224.570829
 30
0.0
 40
7.5000220000000004
 50
0.00001
 51
89.999980000000008
  0
ARC
  5
DF
  8
0
 62
     7
 10
132.38758899999991
 20
224.570829
 30
0.0
 40
7.5000220000000004
 50
90.0
 51
179.99996999999991
  0
ARC
  5
E0
  8
0
  6
AIGENLINE001
 62
     7
 10
150.38763599999999
 20
212.67070699999999
 30
0.0
 40
2.2999610000000001
 50
270.00002000000001
 51
359.99998999999991
  0
ARC
  5
E1
  8
0
  6
AIGENLINE001
 62
     7
 10
150.38763599999999
 20
212.670706
 30
0.0
 40
2.29996
 50
179.99996999999991
 51
270.00002000000001
  0
ARC
  5
E2
  8
0
  6
AIGENLINE001
 62
     7
 10
150.38763700000001
 20
212.670706
 30
0.0
 40
2.2999610000000001
 50
90.0
 51
179.99996999999991
  0
ARC
  5
E3
  8
0
  6
AIGENLINE001
 62
     7
 10
150.38763599999999
 20
212.670706
 30
0.0
 40
2.2999610000000001
 50
0.00001
 51
89.999980000000008
  0
LINE
  5
E4
  8
0
  6
AIGENLINE002
 62
     7
 10
150.38800000000001
 20
187.30299999999991
 30
0.0
 11
150.38800000000001
 21
234.99000000000001
 31
0.0
  0
LINE
  5
E5
  8
0
 62
     7
 10
175.88799999999989
 20
198.2709999999999
 30
0.0
 11
175.88799999999989
 21
224.57099999999991
 31
0.0
  0
LINE
  5
E6
  8
0
 62
     7
 10
124.88799999999991
 20
198.2709999999999
 30
0.0
 11
124.88799999999991
 21
224.57099999999991
 31
0.0
  0
LINE
  5
E7
  8
0
 62
     7
 10
132.38800000000001
 20
190.7709999999999
 30
0.0
 11
168.38800000000001
 21
190.7709999999999
 31
0.0
  0
LINE
  5
E8
  8
0
 62
     7
 10
132.38800000000001
 20
232.071
 30
0.0
 11
168.38800000000001
 21
232.071
 31
0.0
  0
LINE
  5
E9
  8
0
  6
AIGENLINE002
 62
     7
 10
165.38800000000001
 20
128.3829999999999
 30
0.0
 11
165.38800000000001
 21
123.167
 31
0.0
  0
LINE
  5
EA
  8
0
 62
     7
 10
146.58699999999999
 20
111.985
 30
0.0
 11
152.88499999999999
 21
111.985
 31
0.0
  0
LINE
  5
EB
  8
0
 62
     7
 10
126.8869999999999
 20
125.685
 30
0.0
 11
171.38800000000001
 21
125.685
 31
0.0
  0
LINE
  5
EC
  8
0
 62
     7
 10
126.58799999999989
 20
121.185
 30
0.0
 11
171.6879999999999
 21
121.185
 31
0.0
  0
LINE
  5
ED
  8
0
  6
AIGENLINE001
 62
     7
 10
67.602699999999999
 20
113.684
 30
0.0
 11
66.102699999999984
 21
112.084
 31
0.0
  0
LINE
  5
EE
  8
0
  6
AIGENLINE001
 62
     7
 10
66.102699999999984
 20
112.084
 30
0.0
 11
66.102699999999984
 21
108.684
 31
0.0
  0
LINE
  5
EF
  8
0
  6
AIGENLINE001
 62
     7
 10
62.102499999999999
 20
112.084
 30
0.0
 11
66.102699999999984
 21
112.084
 31
0.0
  0
LINE
  5
F0
  8
0
  6
AIGENLINE001
 62
     7
 10
60.249200000000002
 20
113.684
 30
0.0
 11
60.602499999999992
 21
113.684
 31
0.0
  0
LINE
  5
F1
  8
0
  6
AIGENLINE001
 62
     7
 10
60.602499999999992
 20
113.684
 30
0.0
 11
67.602699999999999
 21
113.684
 31
0.0
  0
LINE
  5
F2
  8
0
 62
     7
 10
59.627400000000002
 20
111.985
 30
0.0
 11
68.577799999999996
 21
111.985
 31
0.0
  0
LINE
  5
F3
  8
0
 62
     7
 10
60.802700000000002
 20
108.684
 30
0.0
 11
67.402500000000003
 21
108.684
 31
0.0
  0
LINE
  5
F4
  8
0
  6
AIGENLINE001
 62
     7
 10
60.602499999999992
 20
113.684
 30
0.0
 11
62.102499999999999
 21
112.084
 31
0.0
  0
LINE
  5
F5
  8
0
  6
AIGENLINE001
 62
     7
 10
62.102499999999999
 20
112.084
 30
0.0
 11
62.102499999999999
 21
108.684
 31
0.0
  0
LINE
  5
F6
  8
0
  6
AIGENLINE002
 62
     7
 10
64.102599999999995
 20
127.8
 30
0.0
 11
64.102599999999995
 21
106.845
 31
0.0
  0
ARC
  5
F7
  8
0
 62
     7
 10
60.810741
 20
108.892692
 30
0.0
 40
0.208355
 50
182.211063
 51
267.78896600000002
  0
LINE
  5
F8
  8
0
 62
     7
 10
60.602499999999992
 20
111.685
 30
0.0
 11
60.602499999999992
 21
108.88500000000001
 31
0.0
  0
ARC
  5
F9
  8
0
 62
     7
 10
36.310622999999993
 20
121.392961
 30
0.0
 40
0.208361
 50
182.21259699999999
 51
267.78743300000002
  0
ARC
  5
FA
  8
0
 62
     7
 10
36.621259999999999
 20
125.16591200000001
 30
0.0
 40
0.5192020000000001
 50
92.092299999999994
 51
177.86816899999991
  0
LINE
  5
FB
  8
0
 62
     7
 10
36.6023
 20
125.685
 30
0.0
 11
91.602900000000005
 21
125.685
 31
0.0
  0
LINE
  5
FC
  8
0
 62
     7
 10
36.302599999999991
 20
121.185
 30
0.0
 11
91.902600000000007
 21
121.185
 31
0.0
  0
LINE
  5
FD
  8
0
 62
     7
 10
36.102400000000003
 20
125.185
 30
0.0
 11
36.102400000000003
 21
121.38500000000001
 31
0.0
  0
LINE
  5
FE
  8
0
 62
     7
 10
45.609400000000001
 20
239.86000000000001
 30
0.0
 11
51.913999999999987
 21
239.86000000000001
 31
0.0
  0
LINE
  5
FF
  8
0
 62
     7
 10
78.732600000000005
 20
227.67099999999999
 30
0.0
 11
100.5179999999999
 21
227.67099999999999
 31
0.0
  0
LINE
  5
100
  8
0
 62
     7
 10
85.219300000000004
 20
188.6699999999999
 30
0.0
 11
107.2
 21
188.6699999999999
 31
0.0
  0
LINE
  5
101
  8
0
 62
     7
 10
83.572500000000005
 20
192.1699999999999
 30
0.0
 11
107.2
 21
192.1699999999999
 31
0.0
  0
LINE
  5
102
  8
0
 62
     7
 10
79.339200000000005
 20
220.67099999999999
 30
0.0
 11
107.2
 21
220.67099999999999
 31
0.0
  0
LINE
  5
103
  8
0
 62
     7
 10
99.226100000000002
 20
229.88099999999989
 30
0.0
 11
99.818299999999994
 21
227.67099999999999
 31
0.0
  0
LINE
  5
104
  8
0
 62
     7
 10
99.818299999999994
 20
227.67099999999999
 30
0.0
 11
100.411
 21
229.88099999999989
 31
0.0
  0
LINE
  5
105
  8
0
 62
     7
 10
100.411
 20
229.88099999999989
 30
0.0
 11
99.226100000000002
 21
229.88099999999989
 31
0.0
  0
LINE
  5
106
  8
0
 62
     7
 10
99.226100000000002
 20
222.88099999999989
 30
0.0
 11
99.818299999999994
 21
220.67099999999999
 31
0.0
  0
LINE
  5
107
  8
0
 62
     7
 10
99.818299999999994
 20
220.67099999999999
 30
0.0
 11
100.411
 21
222.88099999999989
 31
0.0
  0
LINE
  5
108
  8
0
 62
     7
 10
100.411
 20
222.88099999999989
 30
0.0
 11
99.226100000000002
 21
222.88099999999989
 31
0.0
  0
LINE
  5
109
  8
0
 62
     7
 10
100.411
 20
225.45999999999989
 30
0.0
 11
99.818299999999994
 21
227.67099999999999
 31
0.0
  0
LINE
  5
10A
  8
0
 62
     7
 10
99.818299999999994
 20
227.67099999999999
 30
0.0
 11
99.225800000000007
 21
225.45999999999989
 31
0.0
  0
LINE
  5
10B
  8
0
 62
     7
 10
99.225800000000007
 20
225.45999999999989
 30
0.0
 11
100.411
 21
225.45999999999989
 31
0.0
  0
LINE
  5
10C
  8
0
 62
     7
 10
100.411
 20
231.96000000000001
 30
0.0
 11
99.818299999999994
 21
234.17099999999991
 31
0.0
  0
LINE
  5
10D
  8
0
 62
     7
 10
99.818299999999994
 20
234.17099999999991
 30
0.0
 11
99.225800000000007
 21
231.96000000000001
 31
0.0
  0
LINE
  5
10E
  8
0
 62
     7
 10
99.225800000000007
 20
231.96000000000001
 30
0.0
 11
100.411
 21
231.96000000000001
 31
0.0
  0
LINE
  5
10F
  8
0
 62
     7
 10
99.818299999999994
 20
220.67099999999999
 30
0.0
 11
99.818299999999994
 21
234.17099999999991
 31
0.0
  0
LINE
  5
110
  8
0
 62
     7
 10
105.9079999999999
 20
222.88099999999989
 30
0.0
 11
106.4999999999999
 21
220.67099999999999
 31
0.0
  0
LINE
  5
111
  8
0
 62
     7
 10
106.4999999999999
 20
220.67099999999999
 30
0.0
 11
107.092
 21
222.88099999999989
 31
0.0
  0
LINE
  5
112
  8
0
 62
     7
 10
107.092
 20
222.88099999999989
 30
0.0
 11
105.9079999999999
 21
222.88099999999989
 31
0.0
  0
LINE
  5
113
  8
0
 62
     7
 10
105.91500000000001
 20
194.38099999999989
 30
0.0
 11
106.50699999999991
 21
192.1699999999999
 31
0.0
  0
LINE
  5
114
  8
0
 62
     7
 10
106.50699999999991
 20
192.1699999999999
 30
0.0
 11
107.0989999999999
 21
194.38099999999989
 31
0.0
  0
LINE
  5
115
  8
0
 62
     7
 10
107.0989999999999
 20
194.38099999999989
 30
0.0
 11
105.91500000000001
 21
194.38099999999989
 31
0.0
  0
LINE
  5
116
  8
0
 62
     7
 10
107.092
 20
186.46000000000001
 30
0.0
 11
106.4999999999999
 21
188.6699999999999
 31
0.0
  0
LINE
  5
117
  8
0
 62
     7
 10
106.4999999999999
 20
188.6699999999999
 30
0.0
 11
105.9079999999999
 21
186.46000000000001
 31
0.0
  0
LINE
  5
118
  8
0
 62
     7
 10
105.9079999999999
 20
186.46000000000001
 30
0.0
 11
107.092
 21
186.46000000000001
 31
0.0
  0
LINE
  5
119
  8
0
 62
     7
 10
107.092
 20
218.46000000000001
 30
0.0
 11
106.4999999999999
 21
220.67099999999999
 31
0.0
  0
LINE
  5
11A
  8
0
 62
     7
 10
106.4999999999999
 20
220.67099999999999
 30
0.0
 11
105.9079999999999
 21
218.46000000000001
 31
0.0
  0
LINE
  5
11B
  8
0
 62
     7
 10
105.9079999999999
 20
218.46000000000001
 30
0.0
 11
107.092
 21
218.46000000000001
 31
0.0
  0
LINE
  5
11C
  8
0
 62
     7
 10
107.08499999999989
 20
231.96000000000001
 30
0.0
 11
106.4929999999999
 21
234.17099999999991
 31
0.0
  0
LINE
  5
11D
  8
0
 62
     7
 10
106.4929999999999
 20
234.17099999999991
 30
0.0
 11
105.90000000000001
 21
231.96000000000001
 31
0.0
  0
LINE
  5
11E
  8
0
 62
     7
 10
105.90000000000001
 20
231.96000000000001
 30
0.0
 11
107.08499999999989
 21
231.96000000000001
 31
0.0
  0
LINE
  5
11F
  8
0
 62
     7
 10
106.4999999999999
 20
181.999
 30
0.0
 11
106.4999999999999
 21
234.17099999999991
 31
0.0
  0
LINE
  5
120
  8
0
 62
     7
 10
83.690299999999993
 20
234.17099999999991
 30
0.0
 11
107.2
 21
234.17099999999991
 31
0.0
  0
LINE
  5
121
  8
0
 62
     7
 10
38.312800000000003
 20
173.87
 30
0.0
 11
36.102400000000003
 21
173.27699999999999
 31
0.0
  0
LINE
  5
122
  8
0
 62
     7
 10
36.102400000000003
 20
173.27699999999999
 30
0.0
 11
38.312800000000003
 21
172.68499999999989
 31
0.0
  0
LINE
  5
123
  8
0
 62
     7
 10
38.312800000000003
 20
172.68499999999989
 30
0.0
 11
38.312800000000003
 21
173.87
 31
0.0
  0
LINE
  5
124
  8
0
 62
     7
 10
89.892399999999995
 20
172.6999999999999
 30
0.0
 11
92.102800000000002
 21
173.292
 31
0.0
  0
LINE
  5
125
  8
0
 62
     7
 10
92.102800000000002
 20
173.292
 30
0.0
 11
89.892399999999995
 21
173.88399999999999
 31
0.0
  0
LINE
  5
126
  8
0
 62
     7
 10
89.892399999999995
 20
173.88399999999999
 30
0.0
 11
89.892399999999995
 21
172.6999999999999
 31
0.0
  0
LINE
  5
127
  8
0
 62
     7
 10
36.102400000000003
 20
173.285
 30
0.0
 11
92.102800000000002
 21
173.285
 31
0.0
  0
LINE
  5
128
  8
0
 62
     7
 10
92.102800000000002
 20
194.99199999999999
 30
0.0
 11
92.102800000000002
 21
172.58500000000001
 31
0.0
  0
LINE
  5
129
  8
0
 62
     7
 10
36.102400000000003
 20
194.99199999999999
 30
0.0
 11
36.102400000000003
 21
172.58500000000001
 31
0.0
  0
LINE
  5
12A
  8
0
 62
     7
 10
42.062600000000003
 20
180.94200000000001
 30
0.0
 11
39.852299999999993
 21
180.34899999999999
 31
0.0
  0
LINE
  5
12B
  8
0
 62
     7
 10
39.852299999999993
 20
180.34899999999999
 30
0.0
 11
42.062600000000003
 21
179.7579999999999
 31
0.0
  0
LINE
  5
12C
  8
0
 62
     7
 10
42.062600000000003
 20
179.7579999999999
 30
0.0
 11
42.062600000000003
 21
180.94200000000001
 31
0.0
  0
LINE
  5
12D
  8
0
 62
     7
 10
86.141900000000007
 20
179.77199999999999
 30
0.0
 11
88.352599999999995
 21
180.364
 31
0.0
  0
LINE
  5
12E
  8
0
 62
     7
 10
88.352599999999995
 20
180.364
 30
0.0
 11
86.141900000000007
 21
180.95699999999991
 31
0.0
  0
LINE
  5
12F
  8
0
 62
     7
 10
86.141900000000007
 20
180.95699999999991
 30
0.0
 11
86.141900000000007
 21
179.77199999999999
 31
0.0
  0
LINE
  5
130
  8
0
 62
     7
 10
39.852299999999993
 20
180.357
 30
0.0
 11
88.352599999999995
 21
180.357
 31
0.0
  0
LINE
  5
131
  8
0
 62
     7
 10
88.352599999999995
 20
195.5209999999999
 30
0.0
 11
88.352599999999995
 21
179.65700000000001
 31
0.0
  0
LINE
  5
132
  8
0
 62
     7
 10
39.852299999999993
 20
195.5209999999999
 30
0.0
 11
39.852299999999993
 21
179.65700000000001
 31
0.0
  0
LINE
  5
133
  8
0
 62
     7
 10
27.7471
 20
188.6699999999999
 30
0.0
 11
43.308100000000003
 21
188.6699999999999
 31
0.0
  0
LINE
  5
134
  8
0
 62
     7
 10
27.7471
 20
234.17099999999991
 30
0.0
 11
43.308100000000003
 21
234.17099999999991
 31
0.0
  0
LINE
  5
135
  8
0
 62
     7
 10
27.862200000000001
 20
190.88099999999989
 30
0.0
 11
28.454399999999989
 21
188.6699999999999
 31
0.0
  0
LINE
  5
136
  8
0
 62
     7
 10
28.454399999999989
 20
188.6699999999999
 30
0.0
 11
29.046600000000002
 21
190.88099999999989
 31
0.0
  0
LINE
  5
137
  8
0
 62
     7
 10
29.046600000000002
 20
190.88099999999989
 30
0.0
 11
27.862200000000001
 21
190.88099999999989
 31
0.0
  0
LINE
  5
138
  8
0
 62
     7
 10
29.0322
 20
231.96000000000001
 30
0.0
 11
28.440000000000001
 21
234.17099999999991
 31
0.0
  0
LINE
  5
139
  8
0
 62
     7
 10
28.440000000000001
 20
234.17099999999991
 30
0.0
 11
27.847699999999989
 21
231.96000000000001
 31
0.0
  0
LINE
  5
13A
  8
0
 62
     7
 10
27.847699999999989
 20
231.96000000000001
 30
0.0
 11
29.0322
 21
231.96000000000001
 31
0.0
  0
LINE
  5
13B
  8
0
 62
     7
 10
28.447199999999999
 20
188.6699999999999
 30
0.0
 11
28.447199999999999
 21
234.17099999999991
 31
0.0
  0
LINE
  5
13C
  8
0
 62
     7
 10
93.089799999999997
 20
121.185
 30
0.0
 11
100.76600000000001
 21
121.185
 31
0.0
  0
LINE
  5
13D
  8
0
 62
     7
 10
68.515100000000004
 20
108.684
 30
0.0
 11
108.03399999999991
 21
108.684
 31
0.0
  0
LINE
  5
13E
  8
0
 62
     7
 10
99.474000000000004
 20
127.896
 30
0.0
 11
100.066
 21
125.685
 31
0.0
  0
LINE
  5
13F
  8
0
 62
     7
 10
100.066
 20
125.685
 30
0.0
 11
100.65899999999991
 21
127.896
 31
0.0
  0
LINE
  5
140
  8
0
 62
     7
 10
100.65899999999991
 20
127.896
 30
0.0
 11
99.474000000000004
 21
127.896
 31
0.0
  0
LINE
  5
141
  8
0
 62
     7
 10
100.6579999999999
 20
118.974
 30
0.0
 11
100.066
 21
121.185
 31
0.0
  0
LINE
  5
142
  8
0
 62
     7
 10
100.066
 20
121.185
 30
0.0
 11
99.473600000000005
 21
118.974
 31
0.0
  0
LINE
  5
143
  8
0
 62
     7
 10
99.473600000000005
 20
118.974
 30
0.0
 11
100.6579999999999
 21
118.974
 31
0.0
  0
LINE
  5
144
  8
0
 62
     7
 10
100.066
 20
117.667
 30
0.0
 11
100.066
 21
129.334
 31
0.0
  0
LINE
  5
145
  8
0
 62
     7
 10
106.749
 20
110.8949999999999
 30
0.0
 11
107.34099999999999
 21
108.684
 31
0.0
  0
LINE
  5
146
  8
0
 62
     7
 10
107.34099999999999
 20
108.684
 30
0.0
 11
107.93299999999989
 21
110.8949999999999
 31
0.0
  0
LINE
  5
147
  8
0
 62
     7
 10
107.93299999999989
 20
110.8949999999999
 30
0.0
 11
106.749
 21
110.8949999999999
 31
0.0
  0
LINE
  5
148
  8
0
 62
     7
 10
107.919
 20
123.4739999999999
 30
0.0
 11
107.327
 21
125.685
 31
0.0
  0
LINE
  5
149
  8
0
 62
     7
 10
107.327
 20
125.685
 30
0.0
 11
106.735
 21
123.4739999999999
 31
0.0
  0
LINE
  5
14A
  8
0
 62
     7
 10
106.735
 20
123.4739999999999
 30
0.0
 11
107.919
 21
123.4739999999999
 31
0.0
  0
LINE
  5
14B
  8
0
 62
     7
 10
107.3339999999999
 20
108.684
 30
0.0
 11
107.3339999999999
 21
125.685
 31
0.0
  0
LINE
  5
14C
  8
0
 62
     7
 10
93.089799999999997
 20
125.685
 30
0.0
 11
108.03399999999991
 21
125.685
 31
0.0
  0
LINE
  5
14D
  8
0
 62
     7
 10
171.88800000000001
 20
100.706
 30
0.0
 11
171.88800000000001
 21
120.4849999999999
 31
0.0
  0
LINE
  5
14E
  8
0
 62
     7
 10
147.02600000000001
 20
115.8949999999999
 30
0.0
 11
147.61799999999999
 21
113.685
 31
0.0
  0
LINE
  5
14F
  8
0
 62
     7
 10
147.61799999999999
 20
113.685
 30
0.0
 11
148.21100000000001
 21
115.8949999999999
 31
0.0
  0
LINE
  5
150
  8
0
 62
     7
 10
148.21100000000001
 20
115.8949999999999
 30
0.0
 11
147.02600000000001
 21
115.8949999999999
 31
0.0
  0
LINE
  5
151
  8
0
 62
     7
 10
148.19599999999991
 20
123.4739999999999
 30
0.0
 11
147.6039999999999
 21
125.685
 31
0.0
  0
LINE
  5
152
  8
0
 62
     7
 10
147.6039999999999
 20
125.685
 30
0.0
 11
147.012
 21
123.4739999999999
 31
0.0
  0
LINE
  5
153
  8
0
 62
     7
 10
147.012
 20
123.4739999999999
 30
0.0
 11
148.19599999999991
 21
123.4739999999999
 31
0.0
  0
LINE
  5
154
  8
0
 62
     7
 10
147.61099999999999
 20
113.685
 30
0.0
 11
147.61099999999999
 21
125.685
 31
0.0
  0
LINE
  5
155
  8
0
 62
     7
 10
150.38800000000001
 20
100.6909999999999
 30
0.0
 11
150.38800000000001
 21
106.35599999999999
 31
0.0
  0
LINE
  5
156
  8
0
 62
     7
 10
146.77899999999991
 20
215.44099999999989
 30
0.0
 11
148.76099999999991
 21
214.297
 31
0.0
  0
LINE
  5
157
  8
0
 62
     7
 10
148.76099999999991
 20
214.297
 30
0.0
 11
147.61600000000001
 21
216.279
 31
0.0
  0
LINE
  5
158
  8
0
 62
     7
 10
147.61600000000001
 20
216.279
 30
0.0
 11
146.77899999999991
 21
215.44099999999989
 31
0.0
  0
LINE
  5
159
  8
0
 62
     7
 10
148.76099999999991
 20
214.297
 30
0.0
 11
143.18199999999999
 21
219.87599999999989
 31
0.0
  0
LINE
  5
15A
  8
0
 62
     7
 10
143.18199999999999
 20
219.87599999999989
 30
0.0
 11
133.11099999999999
 21
219.87599999999989
 31
0.0
  0
LINE
  5
15B
  8
0
 62
     7
 10
129.21299999999999
 20
194.2579999999999
 30
0.0
 11
127.23099999999999
 21
193.114
 31
0.0
  0
LINE
  5
15C
  8
0
 62
     7
 10
127.23099999999999
 20
193.114
 30
0.0
 11
128.37499999999989
 21
195.09599999999989
 31
0.0
  0
LINE
  5
15D
  8
0
 62
     7
 10
128.37499999999989
 20
195.09599999999989
 30
0.0
 11
129.21299999999999
 21
194.2579999999999
 31
0.0
  0
LINE
  5
15E
  8
0
 62
     7
 10
127.23099999999999
 20
193.114
 30
0.0
 11
132.81
 21
198.6929999999999
 31
0.0
  0
LINE
  5
15F
  8
0
 62
     7
 10
60.883499999999998
 20
230.053
 30
0.0
 11
62.865499999999997
 21
228.9079999999999
 31
0.0
  0
LINE
  5
160
  8
0
 62
     7
 10
62.865499999999997
 20
228.9079999999999
 30
0.0
 11
61.721299999999999
 21
230.8899999999999
 31
0.0
  0
LINE
  5
161
  8
0
 62
     7
 10
61.721299999999999
 20
230.8899999999999
 30
0.0
 11
60.883499999999998
 21
230.053
 31
0.0
  0
LINE
  5
162
  8
0
 62
     7
 10
67.322100000000006
 20
225.28899999999999
 30
0.0
 11
65.340100000000007
 21
226.434
 31
0.0
  0
LINE
  5
163
  8
0
 62
     7
 10
65.340100000000007
 20
226.434
 30
0.0
 11
66.4846
 21
224.452
 31
0.0
  0
LINE
  5
164
  8
0
 62
     7
 10
66.4846
 20
224.452
 30
0.0
 11
67.322100000000006
 21
225.28899999999999
 31
0.0
  0
LINE
  5
165
  8
0
 62
     7
 10
68.239199999999997
 20
223.53499999999991
 30
0.0
 11
51.913999999999987
 21
239.86000000000001
 31
0.0
  0
LINE
  5
166
  8
0
 62
     7
 10
175.88799999999989
 20
195.34999999999999
 30
0.0
 11
175.88799999999989
 21
180.23500000000001
 31
0.0
  0
LINE
  5
167
  8
0
 62
     7
 10
124.88799999999991
 20
195.34999999999999
 30
0.0
 11
124.88799999999991
 21
180.23500000000001
 31
0.0
  0
LINE
  5
168
  8
0
 62
     7
 10
127.0979999999999
 20
181.52000000000001
 30
0.0
 11
124.8869999999999
 21
180.928
 31
0.0
  0
LINE
  5
169
  8
0
 62
     7
 10
124.8869999999999
 20
180.928
 30
0.0
 11
127.0979999999999
 21
180.3359999999999
 31
0.0
  0
LINE
  5
16A
  8
0
 62
     7
 10
127.0979999999999
 20
180.3359999999999
 30
0.0
 11
127.0979999999999
 21
181.52000000000001
 31
0.0
  0
LINE
  5
16B
  8
0
 62
     7
 10
173.67699999999999
 20
180.34999999999991
 30
0.0
 11
175.88799999999989
 21
180.9429999999999
 31
0.0
  0
LINE
  5
16C
  8
0
 62
     7
 10
175.88799999999989
 20
180.9429999999999
 30
0.0
 11
173.67699999999999
 21
181.535
 31
0.0
  0
LINE
  5
16D
  8
0
 62
     7
 10
173.67699999999999
 20
181.535
 30
0.0
 11
173.67699999999999
 21
180.34999999999991
 31
0.0
  0
LINE
  5
16E
  8
0
 62
     7
 10
124.88799999999991
 20
180.935
 30
0.0
 11
175.88799999999989
 21
180.935
 31
0.0
  0
LINE
  5
16F
  8
0
 62
     7
 10
74.102699999999999
 20
231.45400000000001
 30
0.0
 11
74.102699999999999
 21
243.18299999999999
 31
0.0
  0
LINE
  5
170
  8
0
 62
     7
 10
64.102599999999995
 20
236.887
 30
0.0
 11
64.102599999999995
 21
243.18299999999999
 31
0.0
  0
LINE
  5
171
  8
0
 62
     7
 10
54.102499999999999
 20
231.45400000000001
 30
0.0
 11
54.102499999999999
 21
243.18299999999999
 31
0.0
  0
LINE
  5
172
  8
0
 62
     7
 10
61.892200000000003
 20
241.8899999999999
 30
0.0
 11
64.102599999999995
 21
242.483
 31
0.0
  0
LINE
  5
173
  8
0
 62
     7
 10
64.102599999999995
 20
242.483
 30
0.0
 11
61.892200000000003
 21
243.0749999999999
 31
0.0
  0
LINE
  5
174
  8
0
 62
     7
 10
61.892200000000003
 20
243.0749999999999
 30
0.0
 11
61.892200000000003
 21
241.8899999999999
 31
0.0
  0
LINE
  5
175
  8
0
 62
     7
 10
66.313000000000002
 20
243.0749999999999
 30
0.0
 11
64.102599999999995
 21
242.483
 31
0.0
  0
LINE
  5
176
  8
0
 62
     7
 10
64.102599999999995
 20
242.483
 30
0.0
 11
66.313000000000002
 21
241.8899999999999
 31
0.0
  0
LINE
  5
177
  8
0
 62
     7
 10
66.313000000000002
 20
241.8899999999999
 30
0.0
 11
66.313000000000002
 21
243.0749999999999
 31
0.0
  0
LINE
  5
178
  8
0
 62
     7
 10
56.313200000000002
 20
243.06700000000001
 30
0.0
 11
54.1021
 21
242.47499999999991
 31
0.0
  0
LINE
  5
179
  8
0
 62
     7
 10
54.1021
 20
242.47499999999991
 30
0.0
 11
56.313200000000002
 21
241.8829999999999
 31
0.0
  0
LINE
  5
17A
  8
0
 62
     7
 10
56.313200000000002
 20
241.8829999999999
 30
0.0
 11
56.313200000000002
 21
243.06700000000001
 31
0.0
  0
LINE
  5
17B
  8
0
 62
     7
 10
71.8917
 20
241.89799999999991
 30
0.0
 11
74.102699999999999
 21
242.49000000000001
 31
0.0
  0
LINE
  5
17C
  8
0
 62
     7
 10
74.102699999999999
 20
242.49000000000001
 30
0.0
 11
71.8917
 21
243.08199999999999
 31
0.0
  0
LINE
  5
17D
  8
0
 62
     7
 10
71.8917
 20
243.08199999999999
 30
0.0
 11
71.8917
 21
241.89799999999991
 31
0.0
  0
LINE
  5
17E
  8
0
 62
     7
 10
54.102499999999999
 20
242.483
 30
0.0
 11
74.102699999999999
 21
242.483
 31
0.0
  0
LINE
  5
17F
  8
0
 62
     7
 10
175.88799999999989
 20
227.22099999999989
 30
0.0
 11
175.88799999999989
 21
241.636
 31
0.0
  0
LINE
  5
180
  8
0
 62
     7
 10
150.38800000000001
 20
235.68999999999991
 30
0.0
 11
150.38800000000001
 21
241.636
 31
0.0
  0
LINE
  5
181
  8
0
 62
     7
 10
124.88799999999991
 20
227.22099999999989
 30
0.0
 11
124.88799999999991
 21
241.636
 31
0.0
  0
LINE
  5
182
  8
0
 62
     7
 10
148.17699999999999
 20
240.3429999999999
 30
0.0
 11
150.38800000000001
 21
240.93599999999989
 31
0.0
  0
LINE
  5
183
  8
0
 62
     7
 10
150.38800000000001
 20
240.93599999999989
 30
0.0
 11
148.17699999999999
 21
241.52799999999999
 31
0.0
  0
LINE
  5
184
  8
0
 62
     7
 10
148.17699999999999
 20
241.52799999999999
 30
0.0
 11
148.17699999999999
 21
240.3429999999999
 31
0.0
  0
LINE
  5
185
  8
0
 62
     7
 10
152.5979999999999
 20
241.52799999999999
 30
0.0
 11
150.38800000000001
 21
240.93599999999989
 31
0.0
  0
LINE
  5
186
  8
0
 62
     7
 10
150.38800000000001
 20
240.93599999999989
 30
0.0
 11
152.5979999999999
 21
240.3429999999999
 31
0.0
  0
LINE
  5
187
  8
0
 62
     7
 10
152.5979999999999
 20
240.3429999999999
 30
0.0
 11
152.5979999999999
 21
241.52799999999999
 31
0.0
  0
LINE
  5
188
  8
0
 62
     7
 10
163.05199999999999
 20
214.88099999999989
 30
0.0
 11
163.64400000000001
 21
212.67099999999999
 31
0.0
  0
LINE
  5
189
  8
0
 62
     7
 10
163.64400000000001
 20
212.67099999999999
 30
0.0
 11
164.23599999999999
 21
214.88099999999989
 31
0.0
  0
LINE
  5
18A
  8
0
 62
     7
 10
164.23599999999999
 20
214.88099999999989
 30
0.0
 11
163.05199999999999
 21
214.88099999999989
 31
0.0
  0
LINE
  5
18B
  8
0
 62
     7
 10
163.05899999999991
 20
192.98099999999991
 30
0.0
 11
163.65100000000001
 21
190.7709999999999
 31
0.0
  0
LINE
  5
18C
  8
0
 62
     7
 10
163.65100000000001
 20
190.7709999999999
 30
0.0
 11
164.244
 21
192.98099999999991
 31
0.0
  0
LINE
  5
18D
  8
0
 62
     7
 10
164.244
 20
192.98099999999991
 30
0.0
 11
163.05899999999991
 21
192.98099999999991
 31
0.0
  0
LINE
  5
18E
  8
0
 62
     7
 10
164.23599999999999
 20
210.46000000000001
 30
0.0
 11
163.64400000000001
 21
212.67099999999999
 31
0.0
  0
LINE
  5
18F
  8
0
 62
     7
 10
163.64400000000001
 20
212.67099999999999
 30
0.0
 11
163.05199999999999
 21
210.46000000000001
 31
0.0
  0
LINE
  5
190
  8
0
 62
     7
 10
163.05199999999999
 20
210.46000000000001
 30
0.0
 11
164.23599999999999
 21
210.46000000000001
 31
0.0
  0
LINE
  5
191
  8
0
 62
     7
 10
164.22900000000001
 20
229.8599999999999
 30
0.0
 11
163.637
 21
232.071
 31
0.0
  0
LINE
  5
192
  8
0
 62
     7
 10
163.637
 20
232.071
 30
0.0
 11
163.0449999999999
 21
229.8599999999999
 31
0.0
  0
LINE
  5
193
  8
0
 62
     7
 10
163.0449999999999
 20
229.8599999999999
 30
0.0
 11
164.22900000000001
 21
229.8599999999999
 31
0.0
  0
LINE
  5
194
  8
0
 62
     7
 10
163.64400000000001
 20
190.7709999999999
 30
0.0
 11
163.64400000000001
 21
232.071
 31
0.0
  0
LINE
  5
195
  8
0
 62
     7
 10
116.849
 20
192.98099999999991
 30
0.0
 11
117.4409999999999
 21
190.7709999999999
 31
0.0
  0
LINE
  5
196
  8
0
 62
     7
 10
117.4409999999999
 20
190.7709999999999
 30
0.0
 11
118.0329999999999
 21
192.98099999999991
 31
0.0
  0
LINE
  5
197
  8
0
 62
     7
 10
118.0329999999999
 20
192.98099999999991
 30
0.0
 11
116.849
 21
192.98099999999991
 31
0.0
  0
LINE
  5
198
  8
0
 62
     7
 10
118.01899999999991
 20
229.8599999999999
 30
0.0
 11
117.426
 21
232.071
 31
0.0
  0
LINE
  5
199
  8
0
 62
     7
 10
117.426
 20
232.071
 30
0.0
 11
116.834
 21
229.8599999999999
 31
0.0
  0
LINE
  5
19A
  8
0
 62
     7
 10
116.834
 20
229.8599999999999
 30
0.0
 11
118.01899999999991
 21
229.8599999999999
 31
0.0
  0
LINE
  5
19B
  8
0
 62
     7
 10
117.4339999999999
 20
190.7709999999999
 30
0.0
 11
117.4339999999999
 21
232.071
 31
0.0
  0
LINE
  5
19C
  8
0
 62
     7
 10
152.5979999999999
 20
101.983
 30
0.0
 11
150.387
 21
101.392
 31
0.0
  0
LINE
  5
19D
  8
0
 62
     7
 10
150.387
 20
101.392
 30
0.0
 11
152.5979999999999
 21
100.79899999999989
 31
0.0
  0
LINE
  5
19E
  8
0
 62
     7
 10
152.5979999999999
 20
100.79899999999989
 30
0.0
 11
152.5979999999999
 21
101.983
 31
0.0
  0
LINE
  5
19F
  8
0
 62
     7
 10
169.67699999999999
 20
100.8129999999999
 30
0.0
 11
171.88800000000001
 21
101.40600000000001
 31
0.0
  0
LINE
  5
1A0
  8
0
 62
     7
 10
171.88800000000001
 20
101.40600000000001
 30
0.0
 11
169.67699999999999
 21
101.99799999999991
 31
0.0
  0
LINE
  5
1A1
  8
0
 62
     7
 10
169.67699999999999
 20
101.99799999999991
 30
0.0
 11
169.67699999999999
 21
100.8129999999999
 31
0.0
  0
LINE
  5
1A2
  8
0
 62
     7
 10
150.38800000000001
 20
101.3979999999999
 30
0.0
 11
171.88800000000001
 21
101.3979999999999
 31
0.0
  0
LINE
  5
1A3
  8
0
 62
     7
 10
116.73399999999999
 20
190.7709999999999
 30
0.0
 11
129.05999999999989
 21
190.7709999999999
 31
0.0
  0
LINE
  5
1A4
  8
0
 62
     7
 10
116.73399999999999
 20
232.071
 30
0.0
 11
129.05999999999989
 21
232.071
 31
0.0
  0
LINE
  5
1A5
  8
0
 62
     7
 10
132.81
 20
198.6929999999999
 30
0.0
 11
139.21399999999991
 21
198.6929999999999
 31
0.0
  0
LINE
  5
1A6
  8
0
 62
     7
 10
156.608
 20
212.67099999999999
 30
0.0
 11
164.34399999999999
 21
212.67099999999999
 31
0.0
  0
LINE
  5
1A7
  8
0
 62
     7
 10
127.0979999999999
 20
241.52099999999999
 30
0.0
 11
124.8869999999999
 21
240.92799999999991
 31
0.0
  0
LINE
  5
1A8
  8
0
 62
     7
 10
124.8869999999999
 20
240.92799999999991
 30
0.0
 11
127.0979999999999
 21
240.3359999999999
 31
0.0
  0
LINE
  5
1A9
  8
0
 62
     7
 10
127.0979999999999
 20
240.3359999999999
 30
0.0
 11
127.0979999999999
 21
241.52099999999999
 31
0.0
  0
LINE
  5
1AA
  8
0
 62
     7
 10
173.67699999999999
 20
240.351
 30
0.0
 11
175.88799999999989
 21
240.9429999999999
 31
0.0
  0
LINE
  5
1AB
  8
0
 62
     7
 10
175.88799999999989
 20
240.9429999999999
 30
0.0
 11
173.67699999999999
 21
241.535
 31
0.0
  0
LINE
  5
1AC
  8
0
 62
     7
 10
173.67699999999999
 20
241.535
 30
0.0
 11
173.67699999999999
 21
240.351
 31
0.0
  0
LINE
  5
1AD
  8
0
 62
     7
 10
124.88799999999991
 20
240.93599999999989
 30
0.0
 11
175.88799999999989
 21
240.93599999999989
 31
0.0
  0
LINE
  5
1AE
  8
0
  6
AIGENLINE002
 62
     7
 10
144.68899999999991
 20
212.67099999999999
 30
0.0
 11
155.9079999999999
 21
212.67099999999999
 31
0.0
  0
TEXT
  5
1AF
  8
_________2
 62
     7
 10
29.525700000000001
 20
22.2272
 30
0.0
 40
4.6583899999999989
  1
実容量：5.2L、重量10.5kg、オーバーフロー付
 41
0.5
  0
LINE
  5
1B0
  8
_________2
 62
     7
 10
105.2389999999999
 20
17.428499999999989
 30
0.0
 11
105.2389999999999
 21
0.4485540000000001
 31
0.0
  0
LINE
  5
1B1
  8
_________2
 62
     7
 10
81.679900000000004
 20
51.324300000000001
 30
0.0
 11
79.493700000000004
 21
51.324300000000001
 31
0.0
  0
LINE
  5
1B2
  8
_________2
 62
     7
 10
82.172600000000017
 20
51.324300000000001
 30
0.0
 11
81.920400000000001
 21
51.324300000000001
 31
0.0
  0
LINE
  5
1B3
  8
_________2
 62
     7
 10
82.665199999999984
 20
51.324300000000001
 30
0.0
 11
85.590100000000007
 21
51.324300000000001
 31
0.0
  0
LINE
  5
1B4
  8
_________2
 62
     7
 10
82.172600000000017
 20
51.324300000000001
 30
0.0
 11
82.424800000000005
 21
51.324300000000001
 31
0.0
  0
LINE
  5
1B5
  8
_________2
 62
     7
 10
75.776399999999995
 20
51.324300000000001
 30
0.0
 11
73.589399999999998
 21
51.324300000000001
 31
0.0
  0
LINE
  5
1B6
  8
_________2
 62
     7
 10
76.2684
 20
51.324300000000001
 30
0.0
 11
76.016900000000007
 21
51.324300000000001
 31
0.0
  0
LINE
  5
1B7
  8
_________2
 62
     7
 10
76.2684
 20
51.817
 30
0.0
 11
76.2684
 21
54.003900000000002
 31
0.0
  0
LINE
  5
1B8
  8
_________2
 62
     7
 10
76.2684
 20
51.324300000000001
 30
0.0
 11
76.2684
 21
51.576900000000002
 31
0.0
  0
LINE
  5
1B9
  8
_________2
 62
     7
 10
76.76100000000001
 20
51.324300000000001
 30
0.0
 11
78.947999999999993
 21
51.324300000000001
 31
0.0
  0
LINE
  5
1BA
  8
_________2
 62
     7
 10
76.2684
 20
51.324300000000001
 30
0.0
 11
76.520499999999998
 21
51.324300000000001
 31
0.0
  0
LINE
  5
1BB
  8
_________2
 62
     7
 10
76.2684
 20
50.832399999999993
 30
0.0
 11
76.2684
 21
48.645699999999998
 31
0.0
  0
LINE
  5
1BC
  8
_________2
 62
     7
 10
76.2684
 20
51.324300000000001
 30
0.0
 11
76.2684
 21
51.072800000000001
 31
0.0
  0
LINE
  5
1BD
  8
_________2
 62
     7
 10
79.979399999999984
 20
50.104799999999997
 30
0.0
 11
85.157399999999996
 21
49.240000000000002
 31
0.0
  0
LINE
  5
1BE
  8
_________2
 62
     7
 10
79.979399999999984
 20
52.544199999999989
 30
0.0
 11
85.157399999999996
 21
53.409700000000001
 31
0.0
  0
LINE
  5
1BF
  8
_________2
 62
     7
 10
85.157399999999996
 20
49.240000000000002
 30
0.0
 11
85.157399999999996
 21
53.409700000000001
 31
0.0
  0
LINE
  5
1C0
  8
_________2
 62
     7
 10
79.979399999999984
 20
50.104799999999997
 30
0.0
 11
79.979399999999984
 21
52.544199999999989
 31
0.0
  0
ARC
  5
1C1
  8
_________2
 62
     7
 10
76.221766000000002
 20
51.277380999999998
 30
0.0
 40
1.267714
 50
2.1220840000000001
 51
87.894083999999992
  0
ARC
  5
1C2
  8
_________2
 62
     7
 10
76.315297000000001
 20
51.277734999999993
 30
0.0
 40
1.267374999999999
 50
92.122849999999985
 51
177.893304
  0
ARC
  5
1C3
  8
_________2
 62
     7
 10
76.315273000000005
 20
51.371245999999992
 30
0.0
 40
1.267363
 50
182.12181499999991
 51
267.87821400000001
  0
ARC
  5
1C4
  8
_________2
 62
     7
 10
76.221461000000005
 20
51.371928999999987
 30
0.0
 40
1.2680439999999991
 50
272.11916400000001
 51
357.84848499999993
  0
ARC
  5
1C5
  8
_________2
 62
     7
 10
76.187981999999991
 20
51.244312999999998
 30
0.0
 40
2.1668310000000002
 50
2.1161439999999989
 51
87.874379000000005
  0
ARC
  5
1C6
  8
_________2
 62
     7
 10
76.348411999999996
 20
51.245334999999997
 30
0.0
 40
2.1657980000000001
 50
92.118487999999999
 51
177.90988599999989
  0
ARC
  5
1C7
  8
_________2
 62
     7
 10
76.348354
 20
51.404327000000002
 30
0.0
 40
2.1657779999999991
 50
182.11700400000001
 51
267.88302499999992
  0
ARC
  5
1C8
  8
_________2
 62
     7
 10
76.188378999999983
 20
51.405009999999997
 30
0.0
 40
2.1664590000000001
 50
272.11546800000002
 51
357.86560400000002
  0
TEXT
  5
1C9
  8
_________2
 62
     7
 10
109.5439999999999
 20
23.199100000000001
 30
0.0
 40
3.660169999999999
  1
図番
 41
0.5
  0
LINE
  5
1CA
  8
_________2
 62
     7
 10
108.4889999999999
 20
27.4283
 30
0.0
 11
188.49000000000001
 21
27.4283
 31
0.0
  0
TEXT
  5
1CB
  8
_________2
 62
     7
 10
109.5439999999999
 20
33.198900000000002
 30
0.0
 40
3.660169999999999
  1
品番
 41
0.5
  0
TEXT
  5
1CC
  8
_________2
 62
     7
 10
109.5439999999999
 20
53.338000000000001
 30
0.0
 40
3.660169999999999
  1
名称
 41
0.5
  0
TEXT
  5
1CD
  8
_________2
 62
     7
 10
96.504445833333335
 20
48.341900000000003
 30
0.0
 40
4.3256500000000004
  1
mm
 41
0.5
 72
     1
 11
98.306799999999996
 21
48.341900000000003
 31
0.0
  0
TEXT
  5
1CE
  8
_________2
 62
     7
 10
90.582099999999997
 20
53.338000000000001
 30
0.0
 40
3.660169999999999
  1
単位
 41
0.5
  0
TEXT
  5
1CF
  8
_________2
 62
     7
 10
90.582099999999997
 20
40.930399999999999
 30
0.0
 40
3.660169999999999
  1
尺度
 41
0.5
  0
TEXT
  5
1D0
  8
_________2
 62
     7
 10
94.320620416666657
 20
34.7378
 30
0.0
 40
4.3256500000000004
  1
1 ： 10
 41
0.5
 72
     1
 11
98.898600000000002
 21
34.7378
 31
0.0
  0
TEXT
  5
1D1
  8
_________2
 62
     7
 10
136.26072625
 20
30.627800000000001
 30
0.0
 40
4.6583899999999989
  1
DV037456-00
 41
0.5
 72
     1
 11
148.489
 21
30.627800000000001
 31
0.0
  0
TEXT
  5
1D2
  8
_________2
 62
     7
 10
139.36631958333331
 20
20.626999999999988
 30
0.0
 40
4.6583899999999989
  1
DV037456
 41
0.5
 72
     1
 11
148.489
 21
20.626999999999988
 31
0.0
  0
TEXT
  5
1D3
  8
_________2
 62
     7
 10
114.11799999999999
 20
45.745600000000003
 30
0.0
 40
4.6583899999999989
  1
デュラスタイル 洗面器
 41
0.5
  0
TEXT
  5
1D4
  8
_________2
 62
     7
 10
44.01748083333333
 20
35.122999999999998
 30
0.0
 40
4.3256500000000004
  1
早川
 41
0.5
 72
     1
 11
46.252400000000002
 21
35.122999999999998
 31
0.0
  0
TEXT
  5
1D5
  8
_________2
 62
     7
 10
25.443480833333329
 20
35.122999999999998
 30
0.0
 40
4.3256500000000004
  1
井田
 41
0.5
 72
     1
 11
27.6784
 21
35.122999999999998
 31
0.0
  0
TEXT
  5
1D6
  8
_________2
 62
     7
 10
72.724699999999999
 20
34.7378
 30
0.0
 40
4.3256500000000004
  1
14.12.11
 41
0.5
  0
TEXT
  5
1D7
  8
_________2
 62
     7
 10
71.531999999999996
 20
40.930399999999999
 30
0.0
 40
3.660169999999999
  1
日付
 41
0.5
  0
TEXT
  5
1D8
  8
_________2
 62
     7
 10
34.578299999999992
 20
40.930399999999999
 30
0.0
 40
3.660169999999999
  1
検図
 41
0.5
  0
TEXT
  5
1D9
  8
_________2
 62
     7
 10
22.96019999999999
 20
26.730999999999991
 30
0.0
 40
3.660169999999999
  1
備考
 41
0.5
  0
TEXT
  5
1DA
  8
_________2
 62
     7
 10
22.96019999999999
 20
40.930399999999999
 30
0.0
 40
3.660169999999999
  1
製図
 41
0.5
  0
TEXT
  5
1DB
  8
_________2
 62
     7
 10
25.533730666666681
 20
49.456400000000002
 30
0.0
 40
5.3238799999999991
  1
セラトレーディング株式会社
 41
0.5
 72
     1
 11
46.119399999999992
 21
49.456400000000002
 31
0.0
  0
LINE
  5
1DC
  8
_________2
 62
     7
 10
188.49000000000001
 20
17.428499999999989
 30
0.0
 11
21.988499999999991
 21
17.428499999999989
 31
0.0
  0
LINE
  5
1DD
  8
_________2
 62
     7
 10
21.988499999999991
 20
17.428499999999989
 30
0.0
 11
21.988499999999991
 21
280.42999999999989
 31
0.0
  0
LINE
  5
1DE
  8
_________2
 62
     7
 10
21.988499999999991
 20
280.42999999999989
 30
0.0
 11
188.49000000000001
 21
280.42999999999989
 31
0.0
  0
LINE
  5
1DF
  8
_________2
 62
     7
 10
188.49000000000001
 20
280.42999999999989
 30
0.0
 11
188.49000000000001
 21
17.428499999999989
 31
0.0
  0
LINE
  5
1E0
  8
_________2
 62
     7
 10
70.488799999999998
 20
30.928899999999999
 30
0.0
 11
70.488799999999998
 21
57.428699999999992
 31
0.0
  0
LINE
  5
1E1
  8
_________2
 62
     7
 10
89.488600000000005
 20
30.928899999999999
 30
0.0
 11
89.488600000000005
 21
57.428699999999992
 31
0.0
  0
LINE
  5
1E2
  8
_________2
 62
     7
 10
108.4889999999999
 20
17.428499999999989
 30
0.0
 11
108.4889999999999
 21
57.428699999999992
 31
0.0
  0
LINE
  5
1E3
  8
_________2
 62
     7
 10
33.488300000000002
 20
30.928899999999999
 30
0.0
 11
33.488300000000002
 21
44.928800000000003
 31
0.0
  0
LINE
  5
1E4
  8
_________2
 62
     7
 10
21.988499999999991
 20
30.928899999999999
 30
0.0
 11
108.4889999999999
 21
30.928899999999999
 31
0.0
  0
LINE
  5
1E5
  8
_________2
 62
     7
 10
21.988499999999991
 20
44.928800000000003
 30
0.0
 11
108.4889999999999
 21
44.928800000000003
 31
0.0
  0
LINE
  5
1E6
  8
_________2
 62
     7
 10
108.4889999999999
 20
37.428100000000001
 30
0.0
 11
188.49000000000001
 21
37.428100000000001
 31
0.0
  0
LINE
  5
1E7
  8
_________2
 62
     7
 10
21.988499999999991
 20
57.428699999999992
 30
0.0
 11
188.49000000000001
 21
57.428699999999992
 31
0.0
  0
LINE
  5
1E8
  8
_________2
 62
     7
 10
210.24000000000001
 20
148.93100000000001
 30
0.0
 11
188.489
 21
148.93100000000001
 31
0.0
  0
LINE
  5
1E9
  8
_________2
 62
     7
 10
105.2389999999999
 20
297.45099999999991
 30
0.0
 11
105.2389999999999
 21
280.42999999999989
 31
0.0
  0
LINE
  5
1EA
  8
_________2
 62
     7
 10
21.988499999999991
 20
148.93100000000001
 30
0.0
 11
0.238402
 21
148.93100000000001
 31
0.0
  0
ENDSEC
  0
EOF
