  0
SECTION
  2
HEADER
  9
$ACADVER
  1
AC1009
  9
$INSBASE
 10
0.0
 20
0.0
 30
0.0
  9
$EXTMIN
 10
0.238402
 20
0.4485540000000001
 30
0.0
  9
$EXTMAX
 10
210.24000000000001
 20
297.45100000000002
 30
0.0
  9
$LIMMIN
 10
0.0
 20
0.0
  9
$LIMMAX
 10
12.0
 20
9.0
  9
$ORTHOMODE
 70
     0
  9
$REGENMODE
 70
     1
  9
$FILLMODE
 70
     1
  9
$QTEXTMODE
 70
     0
  9
$MIRRTEXT
 70
     1
  9
$DRAGMODE
 70
     2
  9
$LTSCALE
 40
1.0
  9
$OSMODE
 70
    37
  9
$ATTMODE
 70
     1
  9
$TEXTSIZE
 40
0.0
  9
$TRACEWID
 40
0.05
  9
$TEXTSTYLE
  7
STANDARD
  9
$CLAYER
  8
0
  9
$CELTYPE
  6
CONTINUOUS
  9
$CECOLOR
 62
   256
  9
$DIMSCALE
 40
1.0
  9
$DIMASZ
 40
0.18
  9
$DIMEXO
 40
0.0625
  9
$DIMDLI
 40
0.38
  9
$DIMRND
 40
0.0
  9
$DIMDLE
 40
0.0
  9
$DIMEXE
 40
0.18
  9
$DIMTP
 40
0.0
  9
$DIMTM
 40
0.0
  9
$DIMTXT
 40
0.18
  9
$DIMCEN
 40
0.09
  9
$DIMTSZ
 40
0.0
  9
$DIMTOL
 70
     0
  9
$DIMLIM
 70
     0
  9
$DIMTIH
 70
     1
  9
$DIMTOH
 70
     1
  9
$DIMSE1
 70
     0
  9
$DIMSE2
 70
     0
  9
$DIMTAD
 70
     0
  9
$DIMZIN
 70
     0
  9
$DIMBLK
  1

  9
$DIMASO
 70
     1
  9
$DIMSHO
 70
     1
  9
$DIMPOST
  1

  9
$DIMAPOST
  1

  9
$DIMALT
 70
     0
  9
$DIMALTD
 70
     2
  9
$DIMALTF
 40
25.399999999999999
  9
$DIMLFAC
 40
1.0
  9
$DIMTOFL
 70
     0
  9
$DIMTVP
 40
0.0
  9
$DIMTIX
 70
     0
  9
$DIMSOXD
 70
     0
  9
$DIMSAH
 70
     0
  9
$DIMBLK1
  1

  9
$DIMBLK2
  1

  9
$DIMSTYLE
  2
STANDARD
  9
$DIMCLRD
 70
     0
  9
$DIMCLRE
 70
     0
  9
$DIMCLRT
 70
     0
  9
$DIMTFAC
 40
1.0
  9
$DIMGAP
 40
0.09
  9
$LUNITS
 70
     2
  9
$LUPREC
 70
     4
  9
$SKETCHINC
 40
0.1
  9
$FILLETRAD
 40
0.0
  9
$AUNITS
 70
     0
  9
$AUPREC
 70
     0
  9
$MENU
  1
.
  9
$ELEVATION
 40
0.0
  9
$PELEVATION
 40
0.0
  9
$THICKNESS
 40
0.0
  9
$LIMCHECK
 70
     0
  9
$BLIPMODE
 70
     0
  9
$CHAMFERA
 40
0.0
  9
$CHAMFERB
 40
0.0
  9
$SKPOLY
 70
     0
  9
$TDCREATE
 40
2444972.375
  9
$TDUPDATE
 40
2457142.2483700579
  9
$TDINDWG
 40
0.0000290162
  9
$TDUSRTIMER
 40
0.0000290162
  9
$USRTIMER
 70
     1
  9
$ANGBASE
 50
0.0
  9
$ANGDIR
 70
     0
  9
$PDMODE
 70
     0
  9
$PDSIZE
 40
0.0
  9
$PLINEWID
 40
0.0
  9
$COORDS
 70
     1
  9
$SPLFRAME
 70
     0
  9
$SPLINETYPE
 70
     6
  9
$SPLINESEGS
 70
     8
  9
$ATTDIA
 70
     1
  9
$ATTREQ
 70
     1
  9
$HANDLING
 70
     1
  9
$HANDSEED
  5
2B2
  9
$SURFTAB1
 70
     6
  9
$SURFTAB2
 70
     6
  9
$SURFTYPE
 70
     6
  9
$SURFU
 70
     6
  9
$SURFV
 70
     6
  9
$UCSNAME
  2

  9
$UCSORG
 10
0.0
 20
0.0
 30
0.0
  9
$UCSXDIR
 10
1.0
 20
0.0
 30
0.0
  9
$UCSYDIR
 10
0.0
 20
1.0
 30
0.0
  9
$PUCSNAME
  2

  9
$PUCSORG
 10
0.0
 20
0.0
 30
0.0
  9
$PUCSXDIR
 10
1.0
 20
0.0
 30
0.0
  9
$PUCSYDIR
 10
0.0
 20
1.0
 30
0.0
  9
$USERI1
 70
     0
  9
$USERI2
 70
     0
  9
$USERI3
 70
     0
  9
$USERI4
 70
     0
  9
$USERI5
 70
     0
  9
$USERR1
 40
0.0
  9
$USERR2
 40
0.0
  9
$USERR3
 40
0.0
  9
$USERR4
 40
0.0
  9
$USERR5
 40
0.0
  9
$WORLDVIEW
 70
     1
  9
$SHADEDGE
 70
     3
  9
$SHADEDIF
 70
    70
  9
$TILEMODE
 70
     1
  9
$MAXACTVP
 70
    48
  9
$PLIMCHECK
 70
     0
  9
$PEXTMIN
 10
1.0000000000000000E+020
 20
1.0000000000000000E+020
 30
1.0000000000000000E+020
  9
$PEXTMAX
 10
-1.0000000000000000E+020
 20
-1.0000000000000000E+020
 30
-1.0000000000000000E+020
  9
$PLIMMIN
 10
0.0
 20
0.0
  9
$PLIMMAX
 10
12.0
 20
9.0
  9
$UNITMODE
 70
     0
  9
$VISRETAIN
 70
     1
  9
$PLINEGEN
 70
     0
  9
$PSLTSCALE
 70
     1
  0
ENDSEC
  0
SECTION
  2
TABLES
  0
TABLE
  2
VPORT
 70
     1
  0
VPORT
  2
*ACTIVE
 70
     0
 10
0.0
 20
0.0
 11
1.0
 21
1.0
 12
167.60475010849359
 22
148.72550000000001
 13
0.0
 23
0.0
 14
1.0
 24
1.0
 15
0.0
 25
0.0
 16
0.0
 26
0.0
 36
1.0
 17
0.0
 27
0.0
 37
0.0
 40
290.20472004828298
 41
2.1063583815028899
 42
50.0
 43
0.0
 44
0.0
 50
0.0
 51
0.0
 71
     0
 72
   100
 73
     1
 74
     1
 75
     0
 76
     0
 77
     0
 78
     0
  0
ENDTAB
  0
TABLE
  2
LTYPE
 70
     3
  0
LTYPE
  2
CONTINUOUS
 70
     0
  3
Solid line
 72
    65
 73
     0
 40
0.0
  0
LTYPE
  2
AIGENLINE001
 70
     0
  3
generate AI->DXF Converter
 72
    65
 73
     2
 40
1.5522299999999991
 49
0.776115
 49
-0.776115
  0
LTYPE
  2
AIGENLINE002
 70
     0
  3
generate AI->DXF Converter
 72
    65
 73
     4
 40
5.8561449999999988
 49
3.5278
 49
-0.776115
 49
0.776115
 49
-0.776115
  0
ENDTAB
  0
TABLE
  2
LAYER
 70
     2
  0
LAYER
  2
0
 70
     0
 62
     7
  6
CONTINUOUS
  0
LAYER
  2
_________2
 70
     0
 62
     7
  6
CONTINUOUS
  0
ENDTAB
  0
TABLE
  2
STYLE
 70
     1
  0
STYLE
  2
STANDARD
 70
     0
 40
0.0
 41
0.0
 50
0.0
 71
     0
 42
0.0
  3
TXT
  4
EXTFONT.SHX
  0
ENDTAB
  0
TABLE
  2
VIEW
 70
     0
  0
ENDTAB
  0
TABLE
  2
UCS
 70
     0
  0
ENDTAB
  0
TABLE
  2
APPID
 70
     3
  0
APPID
  2
ACAD
 70
     0
  0
APPID
  2
ACAD_NAV_VCDISPLAY
 70
     0
  0
APPID
  2
ACAD_MLEADERVER
 70
     0
  0
ENDTAB
  0
TABLE
  2
DIMSTYLE
 70
     1
  0
DIMSTYLE
  2
STANDARD
 70
     0
  3

  4

  5

  6

  7

 40
1.0
 41
0.18
 42
0.0625
 43
0.38
 44
0.18
 45
0.0
 46
0.0
 47
0.0
 48
0.0
140
0.18
141
0.09
142
0.0
143
25.399999999999999
144
1.0
145
0.0
146
1.0
147
0.09
 71
     0
 72
     0
 73
     1
 74
     1
 75
     0
 76
     0
 77
     0
 78
     0
170
     0
171
     2
172
     0
173
     0
174
     0
175
     0
176
     0
177
     0
178
     0
  0
ENDTAB
  0
ENDSEC
  0
SECTION
  2
BLOCKS
  0
BLOCK
  8
0
  2
$MODEL_SPACE
 70
     0
 10
0.0
 20
0.0
 30
0.0
  3
$MODEL_SPACE
  1

  0
ENDBLK
  5
1A
  8
0
  0
BLOCK
 67
     1
  8
0
  2
$PAPER_SPACE
 70
     0
 10
0.0
 20
0.0
 30
0.0
  3
$PAPER_SPACE
  1

  0
ENDBLK
  5
17
 67
     1
  8
0
  0
ENDSEC
  0
SECTION
  2
ENTITIES
  0
TEXT
  5
23
  8
0
 62
     7
 10
29.700199999999999
 20
61.100900000000003
 30
0.0
 40
4.9911399999999997
  1
※排水栓を閉めた状態で毎分10L以上吐水させないでください。
 41
0.5
  0
TEXT
  5
24
  8
0
 62
     7
 10
71.622073333333333
 20
206.59200000000001
 30
0.0
 40
3.660169999999999
  1
%%c46
 41
0.5
 72
     2
 11
76.502300000000005
 21
206.59200000000001
 31
0.0
  0
TEXT
  5
25
  8
0
 62
     7
 10
47.26939999999999
 20
238.71100000000001
 30
0.0
 40
3.660169999999999
  1
%%c35
 41
0.5
  0
TEXT
  5
26
  8
0
 62
     7
 10
61.967500833333332
 20
167.70099999999999
 30
0.0
 40
3.660169999999999
  1
615
 41
0.5
 72
     1
 11
64.102599999999995
 21
167.70099999999999
 31
0.0
  0
TEXT
  5
27
  8
0
 62
     7
 10
166.10039374999999
 20
241.636
 30
0.0
 40
3.660169999999999
  1
290
 41
0.5
 72
     1
 11
168.38800000000001
 21
241.636
 31
0.0
  0
TEXT
  5
28
  8
0
 62
     7
 10
136.61199999999999
 20
220.226
 30
0.0
 40
3.660169999999999
  1
排水口
 41
0.5
  0
TEXT
  5
29
  8
0
 62
     7
 10
135.68978749999999
 20
194.69300000000001
 30
0.0
 40
3.660169999999999
  1
R80
 41
0.5
 72
     2
 11
140.26499999999999
 21
194.69300000000001
 31
0.0
  0
TEXT
  5
2A
  8
0
 62
     7
 10
144.1275466666666
 20
164.23500000000001
 30
0.0
 40
3.660169999999999
  1
カウンタ－切込寸法
 41
0.5
 72
     1
 11
153.88800000000001
 21
164.23500000000001
 31
0.0
  0
TEXT
  5
2B
  8
0
 62
     7
 10
162.50290083333331
 20
102.098
 30
0.0
 40
3.660169999999999
  1
215
 41
0.5
 72
     1
 11
164.63800000000001
 21
102.098
 31
0.0
  0
TEXT
  5
2C
  8
0
 62
     7
 10
151.60039374999999
 20
176.935
 30
0.0
 40
3.660169999999999
  1
580
 41
0.5
 72
     1
 11
153.88800000000001
 21
176.935
 31
0.0
  0
TEXT
  5
2D
  8
0
 62
     7
 10
137.10039374999999
 20
241.636
 30
0.0
 40
3.660169999999999
  1
290
 41
0.5
 72
     1
 11
139.38800000000001
 21
241.636
 31
0.0
  0
TEXT
  5
2E
  8
0
 62
     7
 10
61.814993749999992
 20
174.773
 30
0.0
 40
3.660169999999999
  1
540
 41
0.5
 72
     1
 11
64.102599999999995
 21
174.773
 31
0.0
  0
TEXT
  5
2F
  8
0
 62
     7
 10
99.922499999999999
 20
228.94843624999999
 30
0.0
 40
3.660169999999999
  1
70
 50
90.0
 41
0.5
 72
     1
 11
99.922499999999999
 21
230.321
 31
0.0
  0
TEXT
  5
30
  8
0
 62
     7
 10
101.959
 20
121.9089291666666
 30
0.0
 40
3.660169999999999
  1
45
 50
90.0
 41
0.5
 72
     1
 11
101.959
 21
123.434
 31
0.0
  0
TEXT
  5
31
  8
0
 62
     7
 10
99.922499999999999
 20
222.0459291666667
 30
0.0
 40
3.660169999999999
  1
65
 50
90.0
 41
0.5
 72
     1
 11
99.922499999999999
 21
223.571
 31
0.0
  0
TEXT
  5
32
  8
0
 62
     7
 10
106.745
 20
224.93590083333331
 30
0.0
 40
3.660169999999999
  1
135
 50
90.0
 41
0.5
 72
     1
 11
106.745
 21
227.071
 31
0.0
  0
TEXT
  5
33
  8
0
 62
     7
 10
109.227
 20
115.2014079166666
 30
0.0
 40
3.660169999999999
  1
170
 50
90.0
 41
0.5
 72
     1
 11
109.227
 21
117.184
 31
0.0
  0
TEXT
  5
34
  8
0
 62
     7
 10
150.411
 20
116.3624079166666
 30
0.0
 40
3.660169999999999
  1
120
 50
90.0
 41
0.5
 72
     1
 11
150.411
 21
118.345
 31
0.0
  0
TEXT
  5
35
  8
0
 62
     7
 10
106.745
 20
177.649
 30
0.0
 40
3.660169999999999
  1
35
 50
90.0
 41
0.5
  0
TEXT
  5
36
  8
0
 62
     7
 10
106.745
 20
201.6308866666667
 30
0.0
 40
3.660169999999999
  1
325
 50
90.0
 41
0.5
 72
     1
 11
106.745
 21
204.071
 31
0.0
  0
TEXT
  5
37
  8
0
 62
     7
 10
166.44399999999999
 20
195.53583
 30
0.0
 40
3.660169999999999
  1
262.5
 50
90.0
 41
0.5
 72
     1
 11
166.44399999999999
 21
199.196
 31
0.0
  0
TEXT
  5
38
  8
0
 62
     7
 10
166.44399999999999
 20
218.8408441666667
 30
0.0
 40
3.660169999999999
  1
197.5
 50
90.0
 41
0.5
 72
     1
 11
166.44399999999999
 21
222.196
 31
0.0
  0
TEXT
  5
39
  8
0
 62
     7
 10
116.73399999999999
 20
206.78339374999999
 30
0.0
 40
3.660169999999999
  1
460
 50
90.0
 41
0.5
 72
     1
 11
116.73399999999999
 21
209.071
 31
0.0
  0
TEXT
  5
3A
  8
0
 62
     7
 10
26.4313
 20
206.6308866666667
 30
0.0
 40
3.660169999999999
  1
495
 50
90.0
 41
0.5
 72
     1
 11
26.4313
 21
209.071
 31
0.0
  0
ARC
  5
3B
  8
0
 62
     7
 10
132.88755900000001
 20
194.07060300000001
 30
0.0
 40
7.9999919999999989
 50
179.99935300000001
 51
269.99940299999997
  0
ARC
  5
3C
  8
0
 62
     7
 10
174.887845
 20
194.070606
 30
0.0
 40
7.999994
 50
270.00063699999998
 51
0.000607
  0
ARC
  5
3D
  8
0
 62
     7
 10
174.887845
 20
224.07085599999999
 30
0.0
 40
7.999994
 50
359.999393
 51
89.999362999999988
  0
ARC
  5
3E
  8
0
 62
     7
 10
132.887562
 20
224.07085599999999
 30
0.0
 40
7.999994
 50
90.000617000000005
 51
180.00062700000001
  0
ARC
  5
3F
  8
0
  6
AIGENLINE001
 62
     7
 10
153.88787600000001
 20
212.320683
 30
0.0
 40
2.2999610000000001
 50
270.00002000000001
 51
359.99999000000003
  0
ARC
  5
40
  8
0
  6
AIGENLINE001
 62
     7
 10
153.88787600000001
 20
212.32068200000001
 30
0.0
 40
2.29996
 50
179.99996999999999
 51
270.00002000000001
  0
ARC
  5
41
  8
0
  6
AIGENLINE001
 62
     7
 10
153.88787600000001
 20
212.32068200000001
 30
0.0
 40
2.2999610000000001
 50
90.0
 51
179.99996999999999
  0
ARC
  5
42
  8
0
  6
AIGENLINE001
 62
     7
 10
153.88787600000001
 20
212.32068200000001
 30
0.0
 40
2.2999610000000001
 50
0.00001
 51
89.999980000000008
  0
LINE
  5
43
  8
0
  6
AIGENLINE002
 62
     7
 10
153.88800000000001
 20
182.60300000000001
 30
0.0
 11
153.88800000000001
 21
234.99000000000001
 31
0.0
  0
LINE
  5
44
  8
0
 62
     7
 10
182.88800000000001
 20
194.071
 30
0.0
 11
182.88800000000001
 21
224.071
 31
0.0
  0
LINE
  5
45
  8
0
 62
     7
 10
124.88800000000001
 20
194.071
 30
0.0
 11
124.88800000000001
 21
224.071
 31
0.0
  0
LINE
  5
46
  8
0
 62
     7
 10
132.887
 20
186.071
 30
0.0
 11
174.88800000000001
 21
186.071
 31
0.0
  0
LINE
  5
47
  8
0
 62
     7
 10
132.887
 20
232.071
 30
0.0
 11
174.88800000000001
 21
232.071
 31
0.0
  0
ARC
  5
48
  8
0
  6
AIGENLINE001
 62
     7
 10
128.39918
 20
124.147932
 30
0.0
 40
1.5356119999999991
 50
26.35715200000001
 51
89.190308999999999
  0
ARC
  5
49
  8
0
  6
AIGENLINE001
 62
     7
 10
150.49633700000001
 20
121.906318
 30
0.0
 40
8.2215860000000003
 50
265.83030200000002
 51
269.94354299999998
  0
ARC
  5
4A
  8
0
  6
AIGENLINE001
 62
     7
 10
151.16325499999999
 20
132.559605
 30
0.0
 40
18.895484
 50
263.03775400000001
 51
266.16220699999991
  0
ARC
  5
4B
  8
0
  6
AIGENLINE001
 62
     7
 10
153.25002900000001
 20
150.79173499999999
 30
0.0
 40
37.246382000000011
 50
261.08171700000003
 51
263.25100800000001
  0
ARC
  5
4C
  8
0
  6
AIGENLINE001
 62
     7
 10
156.31287599999999
 20
170.99556799999999
 30
0.0
 40
57.680877000000002
 50
256.9373930000001
 51
261.18730499999998
  0
ARC
  5
4D
  8
0
  6
AIGENLINE001
 62
     7
 10
148.33778100000001
 20
136.29990799999999
 30
0.0
 40
22.080638
 50
254.22339400000001
 51
256.74786599999999
  0
ARC
  5
4E
  8
0
  6
AIGENLINE001
 62
     7
 10
148.85714300000001
 20
139.173879
 30
0.0
 40
24.989138000000001
 50
246.13236800000001
 51
254.869067
  0
ARC
  5
4F
  8
0
  6
AIGENLINE001
 62
     7
 10
147.09762499999999
 20
134.94965199999999
 30
0.0
 40
20.414456999999999
 50
234.31125
 51
245.85120000000001
  0
ARC
  5
50
  8
0
  6
AIGENLINE001
 62
     7
 10
145.467162
 20
132.47929999999999
 30
0.0
 40
17.457249999999998
 50
205.98853299999999
 51
233.927572
  0
ARC
  5
51
  8
0
 62
     7
 10
151.267965
 20
132.673011
 30
0.0
 40
21.037980000000001
 50
263.42388799999998
 51
266.04276800000002
  0
ARC
  5
52
  8
0
 62
     7
 10
152.74813800000001
 20
146.045885
 30
0.0
 40
34.492435999999998
 50
260.1138029999999
 51
263.52533199999999
  0
ARC
  5
53
  8
0
 62
     7
 10
156.00032300000001
 20
165.82046199999999
 30
0.0
 40
54.532083
 50
254.286665
 51
260.31473899999997
  0
ARC
  5
54
  8
0
 62
     7
 10
148.276342
 20
138.00492
 30
0.0
 40
25.664386
 50
251.35961699999999
 51
254.0683040000001
  0
ARC
  5
55
  8
0
 62
     7
 10
146.31521599999999
 20
132.833189
 30
0.0
 40
20.138162999999999
 50
215.33991399999999
 51
251.94352000000001
  0
ARC
  5
56
  8
0
  6
AIGENLINE001
 62
     7
 10
64.10278000000001
 20
121.685159
 30
0.0
 40
1.2500610000000001
 50
269.99212499999999
 51
359.99209500000001
  0
ARC
  5
57
  8
0
  6
AIGENLINE001
 62
     7
 10
64.102434999999986
 20
121.685159
 30
0.0
 40
1.2500610000000001
 50
180.00790499999999
 51
270.00791500000003
  0
ARC
  5
58
  8
0
  6
AIGENLINE001
 62
     7
 10
64.102435999999997
 20
121.684814
 30
0.0
 40
1.2500610000000001
 50
89.992105000000009
 51
179.992075
  0
ARC
  5
59
  8
0
  6
AIGENLINE001
 62
     7
 10
64.10278000000001
 20
121.684814
 30
0.0
 40
1.2500610000000001
 50
0.007905
 51
90.007875000000013
  0
ARC
  5
5A
  8
0
  6
AIGENLINE001
 62
     7
 10
157.88782900000001
 20
117.685034
 30
0.0
 40
4.000299
 50
270.00248699999997
 51
0.002457
  0
ARC
  5
5B
  8
0
 62
     7
 10
159.38800499999999
 20
116.185203
 30
0.0
 40
6.0000169999999988
 50
270.00002000000001
 51
359.99999000000003
  0
ARC
  5
5C
  8
0
 62
     7
 10
157.10496699999999
 20
108.944931
 30
0.0
 40
0.259927
 50
272.11799999999999
 51
357.723952
  0
LINE
  5
5D
  8
0
 62
     7
 10
157.36500000000001
 20
108.935
 30
0.0
 11
157.417
 21
110.185
 31
0.0
  0
ARC
  5
5E
  8
0
 62
     7
 10
174.86931000000001
 20
125.165888
 30
0.0
 40
0.5192140000000001
 50
2.1344500000000002
 51
87.944513999999984
  0
LINE
  5
5F
  8
0
 62
     7
 10
165.38800000000001
 20
116.185
 30
0.0
 11
165.38800000000001
 21
121.185
 31
0.0
  0
LINE
  5
60
  8
0
  6
AIGENLINE001
 62
     7
 10
161.88800000000001
 20
125.185
 30
0.0
 11
161.88800000000001
 21
117.685
 31
0.0
  0
LINE
  5
61
  8
0
  6
AIGENLINE002
 62
     7
 10
168.38800000000001
 20
127.83
 30
0.0
 11
168.38800000000001
 21
123.83
 31
0.0
  0
LINE
  5
62
  8
0
 62
     7
 10
175.38800000000001
 20
125.185
 30
0.0
 11
175.38800000000001
 21
121.185
 31
0.0
  0
LINE
  5
63
  8
0
  6
AIGENLINE001
 62
     7
 10
157.28800000000001
 20
113.685
 30
0.0
 11
156.13800000000001
 21
112.685
 31
0.0
  0
LINE
  5
64
  8
0
  6
AIGENLINE001
 62
     7
 10
156.13800000000001
 20
112.685
 30
0.0
 11
156.13800000000001
 21
108.685
 31
0.0
  0
ARC
  5
65
  8
0
 62
     7
 10
149.796753
 20
111.165977
 30
0.0
 40
0.519573
 50
2.093650999999999
 51
87.866866000000016
  0
ARC
  5
66
  8
0
 62
     7
 10
150.670805
 20
108.944591
 30
0.0
 40
0.259588
 50
182.204092
 51
267.875021
  0
LINE
  5
67
  8
0
 62
     7
 10
150.411
 20
108.935
 30
0.0
 11
150.316
 21
111.185
 31
0.0
  0
ARC
  5
68
  8
0
  6
AIGENLINE001
 62
     7
 10
162.40697
 20
125.16591200000001
 30
0.0
 40
0.5192020000000001
 50
92.092299999999994
 51
177.86816899999999
  0
ARC
  5
69
  8
0
 62
     7
 10
126.40652799999999
 20
125.16591200000001
 30
0.0
 40
0.5192020000000001
 50
92.092299999999994
 51
177.86816899999999
  0
LINE
  5
6A
  8
0
  6
AIGENLINE001
 62
     7
 10
151.63800000000001
 20
112.685
 30
0.0
 11
156.13800000000001
 21
112.685
 31
0.0
  0
LINE
  5
6B
  8
0
  6
AIGENLINE001
 62
     7
 10
150.488
 20
113.685
 30
0.0
 11
157.88800000000001
 21
113.685
 31
0.0
  0
LINE
  5
6C
  8
0
 62
     7
 10
157.417
 20
110.185
 30
0.0
 11
159.38800000000001
 21
110.185
 31
0.0
  0
LINE
  5
6D
  8
0
 62
     7
 10
150.661
 20
108.685
 30
0.0
 11
157.11500000000001
 21
108.685
 31
0.0
  0
LINE
  5
6E
  8
0
 62
     7
 10
126.38800000000001
 20
125.685
 30
0.0
 11
174.88800000000001
 21
125.685
 31
0.0
  0
LINE
  5
6F
  8
0
 62
     7
 10
125.88800000000001
 20
121.185
 30
0.0
 11
175.38800000000001
 21
121.185
 31
0.0
  0
LINE
  5
70
  8
0
 62
     7
 10
125.88800000000001
 20
125.185
 30
0.0
 11
125.88800000000001
 21
121.185
 31
0.0
  0
LINE
  5
71
  8
0
  6
AIGENLINE001
 62
     7
 10
150.488
 20
113.685
 30
0.0
 11
151.63800000000001
 21
112.685
 31
0.0
  0
LINE
  5
72
  8
0
  6
AIGENLINE001
 62
     7
 10
151.63800000000001
 20
112.685
 30
0.0
 11
151.63800000000001
 21
108.685
 31
0.0
  0
LINE
  5
73
  8
0
  6
AIGENLINE002
 62
     7
 10
153.88800000000001
 20
128.012
 30
0.0
 11
153.88800000000001
 21
107.056
 31
0.0
  0
ARC
  5
74
  8
0
  6
AIGENLINE001
 62
     7
 10
71.962403000000009
 20
172.48375300000001
 30
0.0
 40
58.799019000000001
 50
269.984465
 51
272.279357
  0
ARC
  5
75
  8
0
  6
AIGENLINE001
 62
     7
 10
72.752079000000009
 20
150.08072999999999
 30
0.0
 40
36.382458
 50
272.43991499999998
 51
276.67141600000002
  0
ARC
  5
76
  8
0
  6
AIGENLINE001
 62
     7
 10
74.007291000000009
 20
138.503275
 30
0.0
 40
24.737767999999999
 50
276.899091
 51
283.44274100000001
  0
ARC
  5
77
  8
0
  6
AIGENLINE001
 62
     7
 10
75.56145699999999
 20
131.61392599999999
 30
0.0
 40
17.676095
 50
283.73448400000001
 51
295.47188899999998
  0
ARC
  5
78
  8
0
  6
AIGENLINE001
 62
     7
 10
76.993876999999983
 20
128.24399199999999
 30
0.0
 40
14.018561999999999
 50
296.10997600000002
 51
326.214474
  0
ARC
  5
79
  8
0
  6
AIGENLINE001
 62
     7
 10
74.101442000000006
 20
130.291989
 30
0.0
 40
17.561648999999999
 50
325.908771
 51
337.50763999999998
  0
ARC
  5
7A
  8
0
  6
AIGENLINE001
 62
     7
 10
105.63817
 20
116.21895000000001
 30
0.0
 40
16.985792
 50
151.75368700000001
 51
154.342626
  0
ARC
  5
7B
  8
0
  6
AIGENLINE001
 62
     7
 10
95.934314000000001
 20
121.386026
 30
0.0
 40
5.9922120000000003
 50
146.124627
 51
151.36465100000001
  0
ARC
  5
7C
  8
0
  6
AIGENLINE001
 62
     7
 10
93.393148999999994
 20
123.07498200000001
 30
0.0
 40
2.941034999999999
 50
134.36285899999999
 51
145.848848
  0
ARC
  5
7D
  8
0
  6
AIGENLINE001
 62
     7
 10
92.554233999999994
 20
123.88173500000001
 30
0.0
 40
1.7780549999999991
 50
100.01753100000001
 51
133.21302700000001
  0
ARC
  5
7E
  8
0
  6
AIGENLINE001
 62
     7
 10
92.763353000000009
 20
122.913698
 30
0.0
 40
2.7679640000000001
 50
92.922989999999984
 51
100.794642
  0
ARC
  5
7F
  8
0
  6
AIGENLINE001
 62
     7
 10
92.858186000000003
 20
121.53216399999999
 30
0.0
 40
4.152607999999999
 50
89.926947000000013
 51
93.257726000000019
  0
ARC
  5
80
  8
0
 62
     7
 10
71.94188299999999
 20
137.910752
 30
0.0
 40
26.225563000000001
 50
270.00999000000002
 51
285.022583
  0
ARC
  5
81
  8
0
 62
     7
 10
72.839415000000002
 20
134.12492700000001
 30
0.0
 40
22.336776
 50
285.31609900000001
 51
298.68499700000001
  0
ARC
  5
82
  8
0
 62
     7
 10
74.400059999999996
 20
130.963188
 30
0.0
 40
18.814558000000002
 50
299.13723999999991
 51
328.68606699999998
  0
ARC
  5
83
  8
0
 62
     7
 10
68.193730999999985
 20
111.165977
 30
0.0
 40
0.5195720000000001
 50
92.133097000000006
 51
177.90634700000001
  0
ARC
  5
84
  8
0
 62
     7
 10
67.319683999999995
 20
108.944586
 30
0.0
 40
0.259583
 50
272.12390599999998
 51
357.79702099999997
  0
LINE
  5
85
  8
0
 62
     7
 10
67.579099999999997
 20
108.935
 30
0.0
 11
67.674499999999995
 21
111.185
 31
0.0
  0
ARC
  5
86
  8
0
 62
     7
 10
94.333849000000001
 20
125.16591200000001
 30
0.0
 40
0.5192020000000001
 50
2.131810999999999
 51
87.907679999999985
  0
LINE
  5
87
  8
0
 62
     7
 10
94.852699999999984
 20
125.185
 30
0.0
 11
94.852699999999984
 21
121.185
 31
0.0
  0
LINE
  5
88
  8
0
  6
AIGENLINE001
 62
     7
 10
67.502600000000001
 20
113.685
 30
0.0
 11
66.352599999999995
 21
112.685
 31
0.0
  0
LINE
  5
89
  8
0
  6
AIGENLINE001
 62
     7
 10
66.352599999999995
 20
112.685
 30
0.0
 11
66.352599999999995
 21
108.685
 31
0.0
  0
ARC
  5
8A
  8
0
  6
AIGENLINE001
 62
     7
 10
56.242812999999991
 20
172.48375300000001
 30
0.0
 40
58.799019000000001
 50
267.720663
 51
270.01555400000001
  0
ARC
  5
8B
  8
0
  6
AIGENLINE001
 62
     7
 10
55.453136000000001
 20
150.08072999999999
 30
0.0
 40
36.382458
 50
263.32860399999998
 51
267.56010500000002
  0
ARC
  5
8C
  8
0
  6
AIGENLINE001
 62
     7
 10
54.197924999999991
 20
138.503275
 30
0.0
 40
24.737767999999999
 50
256.55727899999999
 51
263.10092900000001
  0
ARC
  5
8D
  8
0
  6
AIGENLINE001
 62
     7
 10
52.643759000000003
 20
131.61392599999999
 30
0.0
 40
17.676095
 50
244.528131
 51
256.265536
  0
ARC
  5
8E
  8
0
  6
AIGENLINE001
 62
     7
 10
51.211339000000002
 20
128.24399199999999
 30
0.0
 40
14.018561999999999
 50
213.7855459999999
 51
243.89004299999999
  0
ARC
  5
8F
  8
0
  6
AIGENLINE001
 62
     7
 10
54.103774000000001
 20
130.291989
 30
0.0
 40
17.561648999999999
 50
202.49238
 51
214.091249
  0
ARC
  5
90
  8
0
  6
AIGENLINE001
 62
     7
 10
22.562629000000001
 20
116.21682199999999
 30
0.0
 40
16.990694999999999
 50
25.657374000000001
 51
28.245557999999999
  0
ARC
  5
91
  8
0
  6
AIGENLINE001
 62
     7
 10
32.272227000000001
 20
121.38677
 30
0.0
 40
5.9906980000000001
 50
28.635134000000001
 51
33.876511000000001
  0
ARC
  5
92
  8
0
  6
AIGENLINE001
 62
     7
 10
34.813155000000002
 20
123.075891
 30
0.0
 40
2.9396239999999998
 50
34.148366000000003
 51
45.639886999999987
  0
ARC
  5
93
  8
0
  6
AIGENLINE001
 62
     7
 10
35.650978000000002
 20
123.88173
 30
0.0
 40
1.7780609999999999
 50
46.786954999999992
 51
79.98217600000001
  0
ARC
  5
94
  8
0
  6
AIGENLINE001
 62
     7
 10
35.441814000000001
 20
122.9132129999999
 30
0.0
 40
2.7684509999999989
 50
79.206113999999999
 51
87.076602000000008
  0
ARC
  5
95
  8
0
  6
AIGENLINE001
 62
     7
 10
35.347043999999997
 20
121.532895
 30
0.0
 40
4.1518769999999989
 50
86.741962000000015
 51
90.073254000000006
  0
ARC
  5
96
  8
0
 62
     7
 10
56.263332999999989
 20
137.910752
 30
0.0
 40
26.225563000000001
 50
254.97743700000009
 51
269.99002999999999
  0
ARC
  5
97
  8
0
 62
     7
 10
55.365800999999998
 20
134.12492700000001
 30
0.0
 40
22.336776
 50
241.315023
 51
254.68392
  0
ARC
  5
98
  8
0
 62
     7
 10
53.805155999999997
 20
130.963188
 30
0.0
 40
18.814558000000002
 50
211.313953
 51
240.86277999999999
  0
ARC
  5
99
  8
0
 62
     7
 10
60.011485
 20
111.165977
 30
0.0
 40
0.519573
 50
2.093650999999999
 51
87.866866000000016
  0
ARC
  5
9A
  8
0
 62
     7
 10
60.885531000000007
 20
108.944586
 30
0.0
 40
0.259583
 50
182.20299900000001
 51
267.87611399999997
  0
LINE
  5
9B
  8
0
 62
     7
 10
60.626100000000001
 20
108.935
 30
0.0
 11
60.530700000000003
 21
111.185
 31
0.0
  0
ARC
  5
9C
  8
0
 62
     7
 10
33.871366999999999
 20
125.16591200000001
 30
0.0
 40
0.5192020000000001
 50
92.092299999999994
 51
177.86816899999999
  0
LINE
  5
9D
  8
0
  6
AIGENLINE001
 62
     7
 10
61.852600000000002
 20
112.685
 30
0.0
 11
66.352599999999995
 21
112.685
 31
0.0
  0
LINE
  5
9E
  8
0
  6
AIGENLINE001
 62
     7
 10
56.258800000000001
 20
113.685
 30
0.0
 11
71.9465
 21
113.685
 31
0.0
  0
LINE
  5
9F
  8
0
 62
     7
 10
56.258800000000001
 20
111.685
 30
0.0
 11
71.9465
 21
111.685
 31
0.0
  0
LINE
  5
A0
  8
0
 62
     7
 10
60.875900000000001
 20
108.685
 30
0.0
 11
67.329300000000003
 21
108.685
 31
0.0
  0
LINE
  5
A1
  8
0
  6
AIGENLINE002
 62
     7
 10
159.065
 20
121.685
 30
0.0
 11
165.50299999999999
 21
121.685
 31
0.0
  0
LINE
  5
A2
  8
0
  6
AIGENLINE002
 62
     7
 10
60.943100000000001
 20
121.685
 30
0.0
 11
67.381299999999996
 21
121.685
 31
0.0
  0
LINE
  5
A3
  8
0
 62
     7
 10
33.852400000000003
 20
125.685
 30
0.0
 11
94.352800000000002
 21
125.685
 31
0.0
  0
LINE
  5
A4
  8
0
 62
     7
 10
33.352499999999999
 20
121.185
 30
0.0
 11
94.852699999999984
 21
121.185
 31
0.0
  0
LINE
  5
A5
  8
0
 62
     7
 10
33.352499999999999
 20
125.185
 30
0.0
 11
33.352499999999999
 21
121.185
 31
0.0
  0
ARC
  5
A6
  8
0
 62
     7
 10
64.102606999999992
 20
212.320683
 30
0.0
 40
3.3999869999999999
 50
270.00002000000001
 51
359.99999000000003
  0
ARC
  5
A7
  8
0
 62
     7
 10
64.102606999999992
 20
212.32068200000001
 30
0.0
 40
3.3999860000000002
 50
179.99996999999999
 51
270.00002000000001
  0
ARC
  5
A8
  8
0
 62
     7
 10
64.102609000000001
 20
212.32068200000001
 30
0.0
 40
3.3999869999999999
 50
90.0
 51
179.99996999999999
  0
ARC
  5
A9
  8
0
 62
     7
 10
64.102606999999992
 20
212.32068200000001
 30
0.0
 40
3.3999869999999999
 50
0.00001
 51
89.999980000000008
  0
ARC
  5
AA
  8
0
 62
     7
 10
64.102607999999989
 20
212.320683
 30
0.0
 40
2.2999610000000001
 50
270.00002000000001
 51
359.99999000000003
  0
ARC
  5
AB
  8
0
 62
     7
 10
64.102607999999989
 20
212.32068200000001
 30
0.0
 40
2.29996
 50
179.99996999999999
 51
270.00002000000001
  0
ARC
  5
AC
  8
0
 62
     7
 10
64.102607999999989
 20
212.32068200000001
 30
0.0
 40
2.2999610000000001
 50
90.0
 51
179.99996999999999
  0
ARC
  5
AD
  8
0
 62
     7
 10
64.102607999999989
 20
212.32068200000001
 30
0.0
 40
2.2999610000000001
 50
0.00001
 51
89.999980000000008
  0
ARC
  5
AE
  8
0
 62
     7
 10
64.102434999999986
 20
226.82066399999999
 30
0.0
 40
1.7499480000000001
 50
270.00565999999998
 51
0.00563
  0
ARC
  5
AF
  8
0
 62
     7
 10
64.10278000000001
 20
226.82066399999999
 30
0.0
 40
1.7499469999999999
 50
179.99432999999999
 51
269.99437999999998
  0
ARC
  5
B0
  8
0
 62
     7
 10
64.102694
 20
226.820922
 30
0.0
 40
1.7498610000000001
 50
90.002820000000014
 51
180.00282999999999
  0
ARC
  5
B1
  8
0
 62
     7
 10
64.102520999999996
 20
226.820922
 30
0.0
 40
1.7498610000000001
 50
359.99718999999999
 51
89.997159999999994
  0
ARC
  5
B2
  8
0
 62
     7
 10
85.221405000000004
 20
224.28068300000001
 30
0.0
 40
9.0573440000000005
 50
7.5343220000000004
 51
9.3332829999999998
  0
ARC
  5
B3
  8
0
 62
     7
 10
75.517566000000002
 20
222.968278
 30
0.0
 40
18.849509000000001
 50
6.170170999999999
 51
7.6215799999999998
  0
ARC
  5
B4
  8
0
 62
     7
 10
58.376922
 20
221.08581599999999
 30
0.0
 40
36.093200000000003
 50
5.1599519999999988
 51
6.2166030000000001
  0
ARC
  5
B5
  8
0
 62
     7
 10
23.674651000000001
 20
217.96603099999999
 30
0.0
 40
70.935423999999998
 50
3.590576
 51
5.1487590000000001
  0
ARC
  5
B6
  8
0
 62
     7
 10
-44.521217
 20
213.415344
 30
0.0
 40
139.28268299999999
 50
2.5680290000000001
 51
3.7020119999999999
  0
ARC
  5
B7
  8
0
 62
     7
 10
-125.153986
 20
209.64596399999999
 30
0.0
 40
220.00341700000001
 50
0.339243
 51
2.6078220000000001
  0
ARC
  5
B8
  8
0
 62
     7
 10
-153.50513900000001
 20
209.068487
 30
0.0
 40
248.35783000000001
 50
0.000478
 51
0.4337380000000001
  0
ARC
  5
B9
  8
0
 62
     7
 10
85.035158999999993
 20
224.08932400000009
 30
0.0
 40
9.2735140000000005
 50
10.313361
 51
85.282185999999996
  0
ARC
  5
BA
  8
0
 62
     7
 10
85.228056999999993
 20
193.85935599999999
 30
0.0
 40
9.0506049999999991
 50
350.66661599999998
 51
352.46705100000003
  0
ARC
  5
BB
  8
0
 62
     7
 10
75.528528000000009
 20
195.17144300000001
 30
0.0
 40
18.838456000000001
 50
352.37827199999998
 51
353.83059800000001
  0
ARC
  5
BC
  8
0
 62
     7
 10
58.396431
 20
197.05329499999999
 30
0.0
 40
36.073584000000011
 50
353.783277
 51
354.84053599999999
  0
ARC
  5
BD
  8
0
 62
     7
 10
23.674651000000001
 20
200.175151
 30
0.0
 40
70.935423999999998
 50
354.85124100000002
 51
356.40942400000012
  0
ARC
  5
BE
  8
0
 62
     7
 10
-44.556094000000002
 20
204.72774799999999
 30
0.0
 40
139.317611
 50
356.29813000000001
 51
357.43182899999999
  0
ARC
  5
BF
  8
0
 62
     7
 10
-125.154527
 20
208.49524099999999
 30
0.0
 40
220.00395800000001
 50
357.392178
 51
359.6607340000001
  0
ARC
  5
C0
  8
0
 62
     7
 10
-153.50513900000001
 20
209.07263
 30
0.0
 40
248.35783000000001
 50
359.56626199999999
 51
359.99952200000013
  0
ARC
  5
C1
  8
0
 62
     7
 10
85.035158999999993
 20
194.051793
 30
0.0
 40
9.2735140000000005
 50
274.71781399999998
 51
349.68663900000001
  0
ARC
  5
C2
  8
0
 62
     7
 10
85.364073999999988
 20
214.56474
 30
0.0
 40
5.1010669999999987
 50
19.948909
 51
81.415260000000004
  0
ARC
  5
C3
  8
0
 62
     7
 10
76.297709999999995
 20
212.535898
 30
0.0
 40
14.364687999999999
 50
10.161853000000001
 51
15.212270999999999
  0
ARC
  5
C4
  8
0
 62
     7
 10
67.144615999999985
 20
210.746363
 30
0.0
 40
23.690380000000001
 50
7.9013769999999992
 51
10.516382
  0
ARC
  5
C5
  8
0
 62
     7
 10
56.653376000000002
 20
209.24637200000001
 30
0.0
 40
34.288246000000001
 50
5.5574320000000004
 51
7.9741270000000011
  0
ARC
  5
C6
  8
0
 62
     7
 10
38.370207999999998
 20
207.40164899999999
 30
0.0
 40
52.664166999999999
 50
2.8403129999999992
 51
5.6286349999999992
  0
ARC
  5
C7
  8
0
 62
     7
 10
7.332110000000001
 20
205.61608799999999
 30
0.0
 40
83.752973999999995
 50
1.5772559999999991
 51
3.008159
  0
ARC
  5
C8
  8
0
 62
     7
 10
-36.165690000000012
 20
204.35457
 30
0.0
 40
127.269032
 50
359.872185
 51
1.605964999999999
  0
ARC
  5
C9
  8
0
 62
     7
 10
64.075605999999993
 20
-480.43119599999989
 30
0.0
 40
714.25199399999997
 50
89.104099000000005
 51
89.997823999999994
  0
ARC
  5
CA
  8
0
 62
     7
 10
69.049902000000003
 20
-137.97729100000001
 30
0.0
 40
371.76237099999997
 50
88.336296000000004
 51
89.045412999999996
  0
ARC
  5
CB
  8
0
 62
     7
 10
74.057706999999994
 20
38.44730100000001
 30
0.0
 40
195.26679300000001
 50
87.392919999999975
 51
88.302136999999988
  0
ARC
  5
CC
  8
0
 62
     7
 10
79.199556000000001
 20
151.59733600000001
 30
0.0
 40
81.999989999999997
 50
85.384552999999997
 51
87.385761000000016
  0
ARC
  5
CD
  8
0
 62
     7
 10
64.082098999999999
 20
-449.77512400000001
 30
0.0
 40
670.09588599999995
 50
89.324306000000007
 51
89.998236000000006
  0
ARC
  5
CE
  8
0
 62
     7
 10
67.507743000000005
 20
-133.013228
 30
0.0
 40
353.31575500000002
 50
88.257108000000017
 51
89.274026000000006
  0
ARC
  5
CF
  8
0
 62
     7
 10
72.495494999999991
 20
40.694906000000003
 30
0.0
 40
179.536529
 50
87.184713000000002
 51
88.162079000000006
  0
ARC
  5
D0
  8
0
 62
     7
 10
76.409075000000001
 20
121.899308
 30
0.0
 40
98.237948000000003
 50
85.841858000000016
 51
87.138295000000014
  0
ARC
  5
D1
  8
0
 62
     7
 10
79.767720999999995
 20
168.841815
 30
0.0
 40
51.175500999999997
 50
83.975752
 51
85.781435000000016
  0
ARC
  5
D2
  8
0
 62
     7
 10
82.499830000000003
 20
195.146163
 30
0.0
 40
24.729721999999999
 50
81.569316999999984
 51
83.874741
  0
ARC
  5
D3
  8
0
 62
     7
 10
64.075581
 20
898.75192500000003
 30
0.0
 40
714.43143399999997
 50
270.00217700000002
 51
270.89567799999998
  0
ARC
  5
D4
  8
0
 62
     7
 10
69.042614999999998
 20
556.51361499999996
 30
0.0
 40
372.15749399999999
 50
270.95469600000001
 51
271.66305899999998
  0
ARC
  5
D5
  8
0
 62
     7
 10
74.067162999999994
 20
379.550544
 30
0.0
 40
195.12317400000001
 50
271.69633499999998
 51
272.60622100000012
  0
ARC
  5
D6
  8
0
 62
     7
 10
79.192456000000007
 20
266.68552399999999
 30
0.0
 40
82.141844999999989
 50
272.61467900000002
 51
274.61242800000002
  0
ARC
  5
D7
  8
0
 62
     7
 10
64.082008000000002
 20
858.55166699999995
 30
0.0
 40
670.73110800000006
 50
270.00177000000002
 51
270.67506200000003
  0
ARC
  5
D8
  8
0
 62
     7
 10
67.500477000000004
 20
541.66081199999985
 30
0.0
 40
353.822113
 50
270.726112
 51
271.74157400000001
  0
ARC
  5
D9
  8
0
 62
     7
 10
72.521244999999993
 20
366.84349400000002
 30
0.0
 40
178.93320199999999
 50
271.835871
 51
272.816532
  0
ARC
  5
DA
  8
0
 62
     7
 10
76.504524000000004
 20
284.51249100000001
 30
0.0
 40
96.505948000000004
 50
272.85636699999998
 51
274.2625450000001
  0
ARC
  5
DB
  8
0
 62
     7
 10
80.021221999999995
 20
236.42395500000001
 30
0.0
 40
48.289090000000002
 50
274.34238499999998
 51
276.225821
  0
ARC
  5
DC
  8
0
 62
     7
 10
82.661224999999988
 20
211.776646
 30
0.0
 40
23.500893999999999
 50
276.34406300000001
 51
278.47694000000013
  0
ARC
  5
DD
  8
0
 62
     7
 10
85.364079999999987
 20
193.57631000000001
 30
0.0
 40
5.1009690000000001
 50
278.58483799999999
 51
340.053922
  0
ARC
  5
DE
  8
0
 62
     7
 10
76.321545
 20
195.600188
 30
0.0
 40
14.340313999999999
 50
344.782918
 51
349.84167300000013
  0
ARC
  5
DF
  8
0
 62
     7
 10
67.157710999999992
 20
197.39290099999999
 30
0.0
 40
23.677142
 50
349.482574
 51
352.09893700000009
  0
ARC
  5
E0
  8
0
 62
     7
 10
56.633460999999997
 20
198.89725200000001
 30
0.0
 40
34.308303000000002
 50
352.02649700000001
 51
354.44174299999997
  0
ARC
  5
E1
  8
0
 62
     7
 10
38.357120000000002
 20
200.740511
 30
0.0
 40
52.677285999999988
 50
354.371713
 51
357.15933899999999
  0
ARC
  5
E2
  8
0
 62
     7
 10
7.3346289999999987
 20
202.524978
 30
0.0
 40
83.750451999999996
 50
356.99183499999998
 51
358.42279600000001
  0
ARC
  5
E3
  8
0
 62
     7
 10
-36.174134000000002
 20
203.78675899999999
 30
0.0
 40
127.27747599999999
 50
358.39408900000001
 51
0.127802
  0
ARC
  5
E4
  8
0
 62
     7
 10
42.983810999999989
 20
224.28068300000001
 30
0.0
 40
9.0573440000000005
 50
170.666697
 51
172.46565799999999
  0
ARC
  5
E5
  8
0
 62
     7
 10
52.735255000000002
 20
222.96273400000001
 30
0.0
 40
18.897428999999999
 50
172.38088300000001
 51
173.82861
  0
ARC
  5
E6
  8
0
 62
     7
 10
69.828299000000001
 20
221.08581599999999
 30
0.0
 40
36.093200000000003
 50
173.783377
 51
174.84002899999999
  0
ARC
  5
E7
  8
0
 62
     7
 10
104.446601
 20
217.97244699999999
 30
0.0
 40
70.851218000000003
 50
174.85029499999999
 51
176.41032999999999
  0
ARC
  5
E8
  8
0
 62
     7
 10
172.76300499999999
 20
213.41306900000001
 30
0.0
 40
139.31932
 50
176.29800499999999
 51
177.43169
  0
ARC
  5
E9
  8
0
 62
     7
 10
253.43686700000001
 20
209.64396600000001
 30
0.0
 40
220.08109300000001
 50
177.39255800000001
 51
179.660336
  0
ARC
  5
EA
  8
0
 62
     7
 10
281.71035499999999
 20
209.068487
 30
0.0
 40
248.35783000000001
 50
179.56624199999999
 51
179.99950200000001
  0
ARC
  5
EB
  8
0
 62
     7
 10
43.170056000000002
 20
224.08932400000009
 30
0.0
 40
9.2735140000000005
 50
94.717793999999998
 51
169.68662
  0
ARC
  5
EC
  8
0
 62
     7
 10
42.977159
 20
193.85935599999999
 30
0.0
 40
9.0506049999999991
 50
187.53296800000001
 51
189.333404
  0
ARC
  5
ED
  8
0
 62
     7
 10
52.724235
 20
195.17697999999999
 30
0.0
 40
18.886316999999998
 50
186.17062200000001
 51
187.61926600000001
  0
ARC
  5
EE
  8
0
 62
     7
 10
69.808790000000002
 20
197.05329499999999
 30
0.0
 40
36.073584000000011
 50
185.15948299999999
 51
186.21674299999989
  0
ARC
  5
EF
  8
0
 62
     7
 10
104.446601
 20
200.168734
 30
0.0
 40
70.851218000000003
 50
183.58967000000001
 51
185.14970500000001
  0
ARC
  5
F0
  8
0
 62
     7
 10
172.797901
 20
204.73002399999999
 30
0.0
 40
139.35426699999999
 50
182.56845200000001
 51
183.701852
  0
ARC
  5
F1
  8
0
 62
     7
 10
253.437408
 20
208.49723900000001
 30
0.0
 40
220.08163400000001
 50
180.339686
 51
182.60744199999999
  0
ARC
  5
F2
  8
0
 62
     7
 10
281.71035499999999
 20
209.07263
 30
0.0
 40
248.35783000000001
 50
180.00049799999999
 51
180.43375800000001
  0
ARC
  5
F3
  8
0
 62
     7
 10
43.170056000000002
 20
194.051793
 30
0.0
 40
9.2735140000000005
 50
190.31338
 51
265.28220599999997
  0
ARC
  5
F4
  8
0
 62
     7
 10
42.841246000000012
 20
214.56461300000001
 30
0.0
 40
5.1012079999999989
 50
98.585663000000011
 51
160.050128
  0
ARC
  5
F5
  8
0
 62
     7
 10
51.906112999999998
 20
212.53627299999999
 30
0.0
 40
14.363244999999999
 50
164.78769600000001
 51
169.838616
  0
ARC
  5
F6
  8
0
 62
     7
 10
61.009239999999998
 20
210.754572
 30
0.0
 40
23.638379
 50
169.48043899999999
 51
172.10119900000001
  0
ARC
  5
F7
  8
0
 62
     7
 10
71.551839000000001
 20
209.24637200000001
 30
0.0
 40
34.288246000000001
 50
172.02585400000001
 51
174.44254799999999
  0
ARC
  5
F8
  8
0
 62
     7
 10
89.829704000000007
 20
207.402152
 30
0.0
 40
52.658839
 50
174.37132500000001
 51
177.15992800000001
  0
ARC
  5
F9
  8
0
 62
     7
 10
120.780455
 20
205.61979700000001
 30
0.0
 40
83.660250999999988
 50
176.991028
 51
178.423517
  0
ARC
  5
FA
  8
0
 62
     7
 10
164.382092
 20
204.35424699999999
 30
0.0
 40
127.28021699999999
 50
178.39401100000001
 51
180.127678
  0
ARC
  5
FB
  8
0
 62
     7
 10
64.129609000000002
 20
-480.43119599999989
 30
0.0
 40
714.25199399999997
 50
90.002156000000014
 51
90.895881000000003
  0
ARC
  5
FC
  8
0
 62
     7
 10
59.155313999999997
 20
-137.97729100000001
 30
0.0
 40
371.76237099999997
 50
90.954567000000011
 51
91.663684000000003
  0
ARC
  5
FD
  8
0
 62
     7
 10
54.147508999999999
 20
38.44730100000001
 30
0.0
 40
195.26679300000001
 50
91.697843000000006
 51
92.607060000000004
  0
ARC
  5
FE
  8
0
 62
     7
 10
49.005659999999999
 20
151.59733600000001
 30
0.0
 40
81.999989999999997
 50
92.614219000000006
 51
94.615426999999997
  0
ARC
  5
FF
  8
0
 62
     7
 10
64.123116999999993
 20
-449.77512400000001
 30
0.0
 40
670.09588599999995
 50
90.001744000000002
 51
90.675673999999987
  0
ARC
  5
100
  8
0
 62
     7
 10
60.697472999999988
 20
-133.013228
 30
0.0
 40
353.31575500000002
 50
90.725953999999987
 51
91.742872000000006
  0
ARC
  5
101
  8
0
 62
     7
 10
55.709720999999988
 20
40.694906000000003
 30
0.0
 40
179.536529
 50
91.837901000000016
 51
92.815267000000006
  0
ARC
  5
102
  8
0
 62
     7
 10
51.796140999999999
 20
121.899308
 30
0.0
 40
98.237948000000003
 50
92.861684999999994
 51
94.158122000000006
  0
ARC
  5
103
  8
0
 62
     7
 10
48.437494999999998
 20
168.841815
 30
0.0
 40
51.175500999999997
 50
94.218545000000006
 51
96.024228000000022
  0
ARC
  5
104
  8
0
 62
     7
 10
45.705385
 20
195.146163
 30
0.0
 40
24.729721999999999
 50
96.125239000000008
 51
98.430662999999981
  0
ARC
  5
105
  8
0
 62
     7
 10
64.129634999999993
 20
898.75192500000003
 30
0.0
 40
714.43143399999997
 50
269.10434199999997
 51
269.99784199999999
  0
ARC
  5
106
  8
0
 62
     7
 10
59.162599999999998
 20
556.51361499999996
 30
0.0
 40
372.15749399999999
 50
268.33696099999997
 51
269.04532399999999
  0
ARC
  5
107
  8
0
 62
     7
 10
54.138052999999992
 20
379.550544
 30
0.0
 40
195.12317400000001
 50
267.393799
 51
268.30368499999997
  0
ARC
  5
108
  8
0
 62
     7
 10
49.01276
 20
266.68552399999999
 30
0.0
 40
82.141844999999989
 50
265.38759199999998
 51
267.38534099999998
  0
ARC
  5
109
  8
0
 62
     7
 10
64.123207999999991
 20
858.55166699999995
 30
0.0
 40
670.73110800000006
 50
269.32495799999998
 51
269.99824999999998
  0
ARC
  5
10A
  8
0
 62
     7
 10
60.704738999999996
 20
541.66081199999985
 30
0.0
 40
353.822113
 50
268.25844599999999
 51
269.27390800000001
  0
ARC
  5
10B
  8
0
 62
     7
 10
55.683971
 20
366.84349400000002
 30
0.0
 40
178.93320199999999
 50
267.18348800000001
 51
268.16414900000001
  0
ARC
  5
10C
  8
0
 62
     7
 10
51.700691999999997
 20
284.51249100000001
 30
0.0
 40
96.505948000000004
 50
265.73747500000002
 51
267.14365199999997
  0
ARC
  5
10D
  8
0
 62
     7
 10
48.183875
 20
236.422484
 30
0.0
 40
48.287614000000012
 50
263.77415500000001
 51
265.65764200000001
  0
ARC
  5
10E
  8
0
 62
     7
 10
45.543694999999992
 20
211.77449899999999
 30
0.0
 40
23.498726999999999
 50
261.52302099999991
 51
263.65610699999991
  0
ARC
  5
10F
  8
0
 62
     7
 10
42.841239999999999
 20
193.576437
 30
0.0
 40
5.1011110000000004
 50
199.9470409999999
 51
261.41423900000001
  0
ARC
  5
110
  8
0
 62
     7
 10
51.882282000000011
 20
195.59981400000001
 30
0.0
 40
14.338876000000001
 50
190.15785700000001
 51
195.21711499999989
  0
ARC
  5
111
  8
0
 62
     7
 10
60.996196999999988
 20
197.38469900000001
 30
0.0
 40
23.625192999999999
 50
187.89848599999999
 51
190.52060599999999
  0
ARC
  5
112
  8
0
 62
     7
 10
71.57175500000001
 20
198.89725200000001
 30
0.0
 40
34.308303000000002
 50
185.558277
 51
187.97352299999989
  0
ARC
  5
113
  8
0
 62
     7
 10
89.842788999999996
 20
200.74000699999999
 30
0.0
 40
52.671956000000002
 50
182.840419
 51
185.62832800000001
  0
ARC
  5
114
  8
0
 62
     7
 10
120.77794299999999
 20
202.52126899999999
 30
0.0
 40
83.657735000000017
 50
181.57643100000001
 51
183.00897800000001
  0
ARC
  5
115
  8
0
 62
     7
 10
164.390536
 20
203.787082
 30
0.0
 40
127.288662
 50
179.872334
 51
181.60593499999999
  0
LINE
  5
116
  8
0
 62
     7
 10
47.26939999999999
 20
238.011
 30
0.0
 11
52.912500000000001
 21
238.011
 31
0.0
  0
LINE
  5
117
  8
0
 62
     7
 10
70.530900000000003
 20
205.892
 30
0.0
 11
76.502300000000005
 21
205.892
 31
0.0
  0
LINE
  5
118
  8
0
 62
     7
 10
68.108199999999997
 20
226.821
 30
0.0
 11
101.46299999999999
 21
226.821
 31
0.0
  0
LINE
  5
119
  8
0
 62
     7
 10
85.784499999999994
 20
184.31999999999999
 30
0.0
 11
108.145
 21
184.31999999999999
 31
0.0
  0
LINE
  5
11A
  8
0
 62
     7
 10
85.784499999999994
 20
187.821
 30
0.0
 11
108.145
 21
187.821
 31
0.0
  0
LINE
  5
11B
  8
0
 62
     7
 10
85.784499999999994
 20
220.321
 30
0.0
 11
108.145
 21
220.321
 31
0.0
  0
LINE
  5
11C
  8
0
 62
     7
 10
35.562899999999999
 20
167.58600000000001
 30
0.0
 11
33.352499999999999
 21
166.994
 31
0.0
  0
LINE
  5
11D
  8
0
 62
     7
 10
33.352499999999999
 20
166.994
 30
0.0
 11
35.562899999999999
 21
166.40199999999999
 31
0.0
  0
LINE
  5
11E
  8
0
 62
     7
 10
35.562899999999999
 20
166.40199999999999
 30
0.0
 11
35.562899999999999
 21
167.58600000000001
 31
0.0
  0
LINE
  5
11F
  8
0
 62
     7
 10
92.642300000000006
 20
166.416
 30
0.0
 11
94.852699999999984
 21
167.00800000000001
 31
0.0
  0
LINE
  5
120
  8
0
 62
     7
 10
94.852699999999984
 20
167.00800000000001
 30
0.0
 11
92.642300000000006
 21
167.59999999999999
 31
0.0
  0
LINE
  5
121
  8
0
 62
     7
 10
92.642300000000006
 20
167.59999999999999
 30
0.0
 11
92.642300000000006
 21
166.416
 31
0.0
  0
LINE
  5
122
  8
0
 62
     7
 10
33.352499999999999
 20
167.00099999999989
 30
0.0
 11
94.852699999999984
 21
167.00099999999989
 31
0.0
  0
LINE
  5
123
  8
0
 62
     7
 10
94.852699999999984
 20
191.898
 30
0.0
 11
94.852699999999984
 21
166.30099999999999
 31
0.0
  0
LINE
  5
124
  8
0
 62
     7
 10
33.352499999999999
 20
191.898
 30
0.0
 11
33.352499999999999
 21
166.30099999999999
 31
0.0
  0
LINE
  5
125
  8
0
 62
     7
 10
39.312600000000003
 20
174.6579999999999
 30
0.0
 11
37.102200000000003
 21
174.066
 31
0.0
  0
LINE
  5
126
  8
0
 62
     7
 10
37.102200000000003
 20
174.066
 30
0.0
 11
39.312600000000003
 21
173.47399999999999
 31
0.0
  0
LINE
  5
127
  8
0
 62
     7
 10
39.312600000000003
 20
173.47399999999999
 30
0.0
 11
39.312600000000003
 21
174.6579999999999
 31
0.0
  0
LINE
  5
128
  8
0
 62
     7
 10
88.891900000000007
 20
173.488
 30
0.0
 11
91.102699999999984
 21
174.08000000000001
 31
0.0
  0
LINE
  5
129
  8
0
 62
     7
 10
91.102699999999984
 20
174.08000000000001
 30
0.0
 11
88.891900000000007
 21
174.673
 31
0.0
  0
LINE
  5
12A
  8
0
 62
     7
 10
88.891900000000007
 20
174.673
 30
0.0
 11
88.891900000000007
 21
173.488
 31
0.0
  0
LINE
  5
12B
  8
0
 62
     7
 10
37.102200000000003
 20
174.07300000000001
 30
0.0
 11
91.102699999999984
 21
174.07300000000001
 31
0.0
  0
LINE
  5
12C
  8
0
 62
     7
 10
26.4313
 20
184.31999999999999
 30
0.0
 11
42.692199999999993
 21
184.31999999999999
 31
0.0
  0
LINE
  5
12D
  8
0
 62
     7
 10
26.4313
 20
233.821
 30
0.0
 11
42.692199999999993
 21
233.821
 31
0.0
  0
LINE
  5
12E
  8
0
 62
     7
 10
95.682999999999979
 20
121.185
 30
0.0
 11
103.35899999999999
 21
121.185
 31
0.0
  0
LINE
  5
12F
  8
0
 62
     7
 10
68.2791
 20
108.684
 30
0.0
 11
110.627
 21
108.684
 31
0.0
  0
LINE
  5
130
  8
0
 62
     7
 10
175.38800000000001
 20
100.706
 30
0.0
 11
175.38800000000001
 21
120.485
 31
0.0
  0
LINE
  5
131
  8
0
 62
     7
 10
150.52600000000001
 20
115.895
 30
0.0
 11
151.119
 21
113.685
 31
0.0
  0
LINE
  5
132
  8
0
 62
     7
 10
151.119
 20
113.685
 30
0.0
 11
151.71100000000001
 21
115.895
 31
0.0
  0
LINE
  5
133
  8
0
 62
     7
 10
151.71100000000001
 20
115.895
 30
0.0
 11
150.52600000000001
 21
115.895
 31
0.0
  0
LINE
  5
134
  8
0
 62
     7
 10
151.696
 20
123.474
 30
0.0
 11
151.10400000000001
 21
125.685
 31
0.0
  0
LINE
  5
135
  8
0
 62
     7
 10
151.10400000000001
 20
125.685
 30
0.0
 11
150.512
 21
123.474
 31
0.0
  0
LINE
  5
136
  8
0
 62
     7
 10
150.512
 20
123.474
 30
0.0
 11
151.696
 21
123.474
 31
0.0
  0
LINE
  5
137
  8
0
 62
     7
 10
151.11099999999999
 20
113.685
 30
0.0
 11
151.11099999999999
 21
125.685
 31
0.0
  0
LINE
  5
138
  8
0
 62
     7
 10
153.88800000000001
 20
100.691
 30
0.0
 11
153.88800000000001
 21
106.35599999999999
 31
0.0
  0
LINE
  5
139
  8
0
 62
     7
 10
60.494500000000002
 20
215.09100000000001
 30
0.0
 11
62.476199999999999
 21
213.947
 31
0.0
  0
LINE
  5
13A
  8
0
 62
     7
 10
62.476199999999999
 20
213.947
 30
0.0
 11
61.3324
 21
215.929
 31
0.0
  0
LINE
  5
13B
  8
0
 62
     7
 10
61.3324
 20
215.929
 30
0.0
 11
60.494500000000002
 21
215.09100000000001
 31
0.0
  0
LINE
  5
13C
  8
0
 62
     7
 10
67.710700000000003
 20
209.55000000000001
 30
0.0
 11
65.728700000000003
 21
210.69399999999999
 31
0.0
  0
LINE
  5
13D
  8
0
 62
     7
 10
65.728700000000003
 20
210.69399999999999
 30
0.0
 11
66.872799999999998
 21
208.71199999999999
 31
0.0
  0
LINE
  5
13E
  8
0
 62
     7
 10
66.872799999999998
 20
208.71199999999999
 30
0.0
 11
67.710700000000003
 21
209.55000000000001
 31
0.0
  0
LINE
  5
13F
  8
0
 62
     7
 10
70.530900000000003
 20
205.892
 30
0.0
 11
59.611899999999999
 21
216.81100000000001
 31
0.0
  0
LINE
  5
140
  8
0
 62
     7
 10
150.279
 20
215.09100000000001
 30
0.0
 11
152.261
 21
213.947
 31
0.0
  0
LINE
  5
141
  8
0
 62
     7
 10
152.261
 20
213.947
 30
0.0
 11
151.11699999999999
 21
215.929
 31
0.0
  0
LINE
  5
142
  8
0
 62
     7
 10
151.11699999999999
 20
215.929
 30
0.0
 11
150.279
 21
215.09100000000001
 31
0.0
  0
LINE
  5
143
  8
0
 62
     7
 10
152.261
 20
213.947
 30
0.0
 11
146.68199999999999
 21
219.52600000000001
 31
0.0
  0
LINE
  5
144
  8
0
 62
     7
 10
146.68199999999999
 20
219.52600000000001
 30
0.0
 11
136.61199999999999
 21
219.52600000000001
 31
0.0
  0
LINE
  5
145
  8
0
 62
     7
 10
129.21299999999999
 20
189.55799999999999
 30
0.0
 11
127.23099999999999
 21
188.41399999999999
 31
0.0
  0
LINE
  5
146
  8
0
 62
     7
 10
127.23099999999999
 20
188.41399999999999
 30
0.0
 11
128.375
 21
190.39599999999999
 31
0.0
  0
LINE
  5
147
  8
0
 62
     7
 10
128.375
 20
190.39599999999999
 30
0.0
 11
129.21299999999999
 21
189.55799999999999
 31
0.0
  0
LINE
  5
148
  8
0
 62
     7
 10
127.23099999999999
 20
188.41399999999999
 30
0.0
 11
132.81
 21
193.99299999999999
 31
0.0
  0
LINE
  5
149
  8
0
 62
     7
 10
60.883099999999992
 20
229.202
 30
0.0
 11
62.865099999999991
 21
228.05799999999999
 31
0.0
  0
LINE
  5
14A
  8
0
 62
     7
 10
62.865099999999991
 20
228.05799999999999
 30
0.0
 11
61.720999999999997
 21
230.03999999999999
 31
0.0
  0
LINE
  5
14B
  8
0
 62
     7
 10
61.720999999999997
 20
230.03999999999999
 30
0.0
 11
60.883099999999992
 21
229.202
 31
0.0
  0
LINE
  5
14C
  8
0
 62
     7
 10
67.321700000000007
 20
224.43899999999999
 30
0.0
 11
65.339699999999993
 21
225.583
 31
0.0
  0
LINE
  5
14D
  8
0
 62
     7
 10
65.339699999999993
 20
225.583
 30
0.0
 11
66.484200000000001
 21
223.601
 31
0.0
  0
LINE
  5
14E
  8
0
 62
     7
 10
66.484200000000001
 20
223.601
 30
0.0
 11
67.321700000000007
 21
224.43899999999999
 31
0.0
  0
LINE
  5
14F
  8
0
 62
     7
 10
68.238799999999983
 20
222.684
 30
0.0
 11
52.912500000000001
 21
238.011
 31
0.0
  0
LINE
  5
150
  8
0
 62
     7
 10
100.17100000000001
 20
229.03100000000001
 30
0.0
 11
100.76300000000001
 21
226.821
 31
0.0
  0
LINE
  5
151
  8
0
 62
     7
 10
100.76300000000001
 20
226.821
 30
0.0
 11
101.35599999999999
 21
229.03100000000001
 31
0.0
  0
LINE
  5
152
  8
0
 62
     7
 10
101.35599999999999
 20
229.03100000000001
 30
0.0
 11
100.17100000000001
 21
229.03100000000001
 31
0.0
  0
LINE
  5
153
  8
0
 62
     7
 10
100.17100000000001
 20
222.53100000000001
 30
0.0
 11
100.76300000000001
 21
220.321
 31
0.0
  0
LINE
  5
154
  8
0
 62
     7
 10
100.76300000000001
 20
220.321
 30
0.0
 11
101.35599999999999
 21
222.53100000000001
 31
0.0
  0
LINE
  5
155
  8
0
 62
     7
 10
101.35599999999999
 20
222.53100000000001
 30
0.0
 11
100.17100000000001
 21
222.53100000000001
 31
0.0
  0
LINE
  5
156
  8
0
 62
     7
 10
101.355
 20
224.61000000000001
 30
0.0
 11
100.76300000000001
 21
226.821
 31
0.0
  0
LINE
  5
157
  8
0
 62
     7
 10
100.76300000000001
 20
226.821
 30
0.0
 11
100.17100000000001
 21
224.61000000000001
 31
0.0
  0
LINE
  5
158
  8
0
 62
     7
 10
100.17100000000001
 20
224.61000000000001
 30
0.0
 11
101.355
 21
224.61000000000001
 31
0.0
  0
LINE
  5
159
  8
0
 62
     7
 10
101.355
 20
231.61000000000001
 30
0.0
 11
100.76300000000001
 21
233.821
 31
0.0
  0
LINE
  5
15A
  8
0
 62
     7
 10
100.76300000000001
 20
233.821
 30
0.0
 11
100.17100000000001
 21
231.61000000000001
 31
0.0
  0
LINE
  5
15B
  8
0
 62
     7
 10
100.17100000000001
 20
231.61000000000001
 30
0.0
 11
101.355
 21
231.61000000000001
 31
0.0
  0
LINE
  5
15C
  8
0
 62
     7
 10
100.76300000000001
 20
220.321
 30
0.0
 11
100.76300000000001
 21
233.821
 31
0.0
  0
LINE
  5
15D
  8
0
 62
     7
 10
26.546399999999998
 20
186.53100000000001
 30
0.0
 11
27.1386
 21
184.31999999999999
 31
0.0
  0
LINE
  5
15E
  8
0
 62
     7
 10
27.1386
 20
184.31999999999999
 30
0.0
 11
27.730799999999999
 21
186.53100000000001
 31
0.0
  0
LINE
  5
15F
  8
0
 62
     7
 10
27.730799999999999
 20
186.53100000000001
 30
0.0
 11
26.546399999999998
 21
186.53100000000001
 31
0.0
  0
LINE
  5
160
  8
0
 62
     7
 10
27.7163
 20
231.61000000000001
 30
0.0
 11
27.124099999999999
 21
233.821
 31
0.0
  0
LINE
  5
161
  8
0
 62
     7
 10
27.124099999999999
 20
233.821
 30
0.0
 11
26.5319
 21
231.61000000000001
 31
0.0
  0
LINE
  5
162
  8
0
 62
     7
 10
26.5319
 20
231.61000000000001
 30
0.0
 11
27.7163
 21
231.61000000000001
 31
0.0
  0
LINE
  5
163
  8
0
 62
     7
 10
27.1313
 20
184.31999999999999
 30
0.0
 11
27.1313
 21
233.821
 31
0.0
  0
LINE
  5
164
  8
0
 62
     7
 10
106.852
 20
222.53100000000001
 30
0.0
 11
107.44499999999999
 21
220.321
 31
0.0
  0
LINE
  5
165
  8
0
 62
     7
 10
107.44499999999999
 20
220.321
 30
0.0
 11
108.03700000000001
 21
222.53100000000001
 31
0.0
  0
LINE
  5
166
  8
0
 62
     7
 10
108.03700000000001
 20
222.53100000000001
 30
0.0
 11
106.852
 21
222.53100000000001
 31
0.0
  0
LINE
  5
167
  8
0
 62
     7
 10
106.86
 20
190.03099999999989
 30
0.0
 11
107.452
 21
187.821
 31
0.0
  0
LINE
  5
168
  8
0
 62
     7
 10
107.452
 20
187.821
 30
0.0
 11
108.044
 21
190.03099999999989
 31
0.0
  0
LINE
  5
169
  8
0
 62
     7
 10
108.044
 20
190.03099999999989
 30
0.0
 11
106.86
 21
190.03099999999989
 31
0.0
  0
LINE
  5
16A
  8
0
 62
     7
 10
108.03700000000001
 20
182.11000000000001
 30
0.0
 11
107.44499999999999
 21
184.31999999999999
 31
0.0
  0
LINE
  5
16B
  8
0
 62
     7
 10
107.44499999999999
 20
184.31999999999999
 30
0.0
 11
106.852
 21
182.11000000000001
 31
0.0
  0
LINE
  5
16C
  8
0
 62
     7
 10
106.852
 20
182.11000000000001
 30
0.0
 11
108.03700000000001
 21
182.11000000000001
 31
0.0
  0
LINE
  5
16D
  8
0
 62
     7
 10
108.03700000000001
 20
218.11000000000001
 30
0.0
 11
107.44499999999999
 21
220.321
 31
0.0
  0
LINE
  5
16E
  8
0
 62
     7
 10
107.44499999999999
 20
220.321
 30
0.0
 11
106.852
 21
218.11000000000001
 31
0.0
  0
LINE
  5
16F
  8
0
 62
     7
 10
106.852
 20
218.11000000000001
 30
0.0
 11
108.03700000000001
 21
218.11000000000001
 31
0.0
  0
LINE
  5
170
  8
0
 62
     7
 10
108.03
 20
231.61000000000001
 30
0.0
 11
107.437
 21
233.821
 31
0.0
  0
LINE
  5
171
  8
0
 62
     7
 10
107.437
 20
233.821
 30
0.0
 11
106.845
 21
231.61000000000001
 31
0.0
  0
LINE
  5
172
  8
0
 62
     7
 10
106.845
 20
231.61000000000001
 30
0.0
 11
108.03
 21
231.61000000000001
 31
0.0
  0
LINE
  5
173
  8
0
 62
     7
 10
182.88800000000001
 20
190.65000000000001
 30
0.0
 11
182.88800000000001
 21
175.535
 31
0.0
  0
LINE
  5
174
  8
0
 62
     7
 10
124.88800000000001
 20
190.65000000000001
 30
0.0
 11
124.88800000000001
 21
175.535
 31
0.0
  0
LINE
  5
175
  8
0
 62
     7
 10
127.098
 20
176.81999999999999
 30
0.0
 11
124.887
 21
176.22800000000001
 31
0.0
  0
LINE
  5
176
  8
0
 62
     7
 10
124.887
 20
176.22800000000001
 30
0.0
 11
127.098
 21
175.636
 31
0.0
  0
LINE
  5
177
  8
0
 62
     7
 10
127.098
 20
175.636
 30
0.0
 11
127.098
 21
176.81999999999999
 31
0.0
  0
LINE
  5
178
  8
0
 62
     7
 10
180.67699999999999
 20
175.65000000000001
 30
0.0
 11
182.88900000000001
 21
176.24299999999999
 31
0.0
  0
LINE
  5
179
  8
0
 62
     7
 10
182.88900000000001
 20
176.24299999999999
 30
0.0
 11
180.67699999999999
 21
176.83500000000001
 31
0.0
  0
LINE
  5
17A
  8
0
 62
     7
 10
180.67699999999999
 20
176.83500000000001
 30
0.0
 11
180.67699999999999
 21
175.65000000000001
 31
0.0
  0
LINE
  5
17B
  8
0
 62
     7
 10
124.88800000000001
 20
176.23500000000001
 30
0.0
 11
182.88800000000001
 21
176.23500000000001
 31
0.0
  0
LINE
  5
17C
  8
0
 62
     7
 10
182.88800000000001
 20
227.221
 30
0.0
 11
182.88800000000001
 21
241.636
 31
0.0
  0
LINE
  5
17D
  8
0
 62
     7
 10
153.88800000000001
 20
235.69
 30
0.0
 11
153.88800000000001
 21
241.636
 31
0.0
  0
LINE
  5
17E
  8
0
 62
     7
 10
124.88800000000001
 20
227.221
 30
0.0
 11
124.88800000000001
 21
241.636
 31
0.0
  0
LINE
  5
17F
  8
0
 62
     7
 10
151.67699999999999
 20
240.34299999999999
 30
0.0
 11
153.88800000000001
 21
240.93600000000001
 31
0.0
  0
LINE
  5
180
  8
0
 62
     7
 10
153.88800000000001
 20
240.93600000000001
 30
0.0
 11
151.67699999999999
 21
241.52799999999999
 31
0.0
  0
LINE
  5
181
  8
0
 62
     7
 10
151.67699999999999
 20
241.52799999999999
 30
0.0
 11
151.67699999999999
 21
240.34299999999999
 31
0.0
  0
LINE
  5
182
  8
0
 62
     7
 10
156.0979999999999
 20
241.52799999999999
 30
0.0
 11
153.88800000000001
 21
240.93600000000001
 31
0.0
  0
LINE
  5
183
  8
0
 62
     7
 10
153.88800000000001
 20
240.93600000000001
 30
0.0
 11
156.0979999999999
 21
240.34299999999999
 31
0.0
  0
LINE
  5
184
  8
0
 62
     7
 10
156.0979999999999
 20
240.34299999999999
 30
0.0
 11
156.0979999999999
 21
241.52799999999999
 31
0.0
  0
LINE
  5
185
  8
0
 62
     7
 10
166.55199999999999
 20
214.53100000000001
 30
0.0
 11
167.14400000000001
 21
212.321
 31
0.0
  0
LINE
  5
186
  8
0
 62
     7
 10
167.14400000000001
 20
212.321
 30
0.0
 11
167.73699999999999
 21
214.53100000000001
 31
0.0
  0
LINE
  5
187
  8
0
 62
     7
 10
167.73699999999999
 20
214.53100000000001
 30
0.0
 11
166.55199999999999
 21
214.53100000000001
 31
0.0
  0
LINE
  5
188
  8
0
 62
     7
 10
166.559
 20
188.28100000000001
 30
0.0
 11
167.15199999999999
 21
186.071
 31
0.0
  0
LINE
  5
189
  8
0
 62
     7
 10
167.15199999999999
 20
186.071
 30
0.0
 11
167.744
 21
188.28100000000001
 31
0.0
  0
LINE
  5
18A
  8
0
 62
     7
 10
167.744
 20
188.28100000000001
 30
0.0
 11
166.559
 21
188.28100000000001
 31
0.0
  0
LINE
  5
18B
  8
0
 62
     7
 10
167.73699999999999
 20
210.11000000000001
 30
0.0
 11
167.14400000000001
 21
212.321
 31
0.0
  0
LINE
  5
18C
  8
0
 62
     7
 10
167.14400000000001
 20
212.321
 30
0.0
 11
166.55199999999999
 21
210.11000000000001
 31
0.0
  0
LINE
  5
18D
  8
0
 62
     7
 10
166.55199999999999
 20
210.11000000000001
 30
0.0
 11
167.73699999999999
 21
210.11000000000001
 31
0.0
  0
LINE
  5
18E
  8
0
 62
     7
 10
167.72900000000001
 20
229.86000000000001
 30
0.0
 11
167.137
 21
232.071
 31
0.0
  0
LINE
  5
18F
  8
0
 62
     7
 10
167.137
 20
232.071
 30
0.0
 11
166.54499999999999
 21
229.86000000000001
 31
0.0
  0
LINE
  5
190
  8
0
 62
     7
 10
166.54499999999999
 20
229.86000000000001
 30
0.0
 11
167.72900000000001
 21
229.86000000000001
 31
0.0
  0
LINE
  5
191
  8
0
 62
     7
 10
167.14400000000001
 20
186.071
 30
0.0
 11
167.14400000000001
 21
232.071
 31
0.0
  0
LINE
  5
192
  8
0
 62
     7
 10
116.849
 20
188.28100000000001
 30
0.0
 11
117.441
 21
186.071
 31
0.0
  0
LINE
  5
193
  8
0
 62
     7
 10
117.441
 20
186.071
 30
0.0
 11
118.033
 21
188.28100000000001
 31
0.0
  0
LINE
  5
194
  8
0
 62
     7
 10
118.033
 20
188.28100000000001
 30
0.0
 11
116.849
 21
188.28100000000001
 31
0.0
  0
LINE
  5
195
  8
0
 62
     7
 10
118.01900000000001
 20
229.86000000000001
 30
0.0
 11
117.426
 21
232.071
 31
0.0
  0
LINE
  5
196
  8
0
 62
     7
 10
117.426
 20
232.071
 30
0.0
 11
116.834
 21
229.86000000000001
 31
0.0
  0
LINE
  5
197
  8
0
 62
     7
 10
116.834
 20
229.86000000000001
 30
0.0
 11
118.01900000000001
 21
229.86000000000001
 31
0.0
  0
LINE
  5
198
  8
0
 62
     7
 10
117.434
 20
186.071
 30
0.0
 11
117.434
 21
232.071
 31
0.0
  0
LINE
  5
199
  8
0
 62
     7
 10
107.44499999999999
 20
177.649
 30
0.0
 11
107.44499999999999
 21
233.821
 31
0.0
  0
LINE
  5
19A
  8
0
 62
     7
 10
102.06699999999999
 20
127.896
 30
0.0
 11
102.65900000000001
 21
125.685
 31
0.0
  0
LINE
  5
19B
  8
0
 62
     7
 10
102.65900000000001
 20
125.685
 30
0.0
 11
103.252
 21
127.896
 31
0.0
  0
LINE
  5
19C
  8
0
 62
     7
 10
103.252
 20
127.896
 30
0.0
 11
102.06699999999999
 21
127.896
 31
0.0
  0
LINE
  5
19D
  8
0
 62
     7
 10
103.252
 20
118.974
 30
0.0
 11
102.65900000000001
 21
121.185
 31
0.0
  0
LINE
  5
19E
  8
0
 62
     7
 10
102.65900000000001
 20
121.185
 30
0.0
 11
102.06699999999999
 21
118.974
 31
0.0
  0
LINE
  5
19F
  8
0
 62
     7
 10
102.06699999999999
 20
118.974
 30
0.0
 11
103.252
 21
118.974
 31
0.0
  0
LINE
  5
1A0
  8
0
 62
     7
 10
102.65900000000001
 20
117.667
 30
0.0
 11
102.65900000000001
 21
129.334
 31
0.0
  0
LINE
  5
1A1
  8
0
 62
     7
 10
109.342
 20
110.895
 30
0.0
 11
109.934
 21
108.684
 31
0.0
  0
LINE
  5
1A2
  8
0
 62
     7
 10
109.934
 20
108.684
 30
0.0
 11
110.527
 21
110.895
 31
0.0
  0
LINE
  5
1A3
  8
0
 62
     7
 10
110.527
 20
110.895
 30
0.0
 11
109.342
 21
110.895
 31
0.0
  0
LINE
  5
1A4
  8
0
 62
     7
 10
110.512
 20
123.474
 30
0.0
 11
109.92
 21
125.685
 31
0.0
  0
LINE
  5
1A5
  8
0
 62
     7
 10
109.92
 20
125.685
 30
0.0
 11
109.328
 21
123.474
 31
0.0
  0
LINE
  5
1A6
  8
0
 62
     7
 10
109.328
 20
123.474
 30
0.0
 11
110.512
 21
123.474
 31
0.0
  0
LINE
  5
1A7
  8
0
 62
     7
 10
109.92700000000001
 20
108.684
 30
0.0
 11
109.92700000000001
 21
125.685
 31
0.0
  0
LINE
  5
1A8
  8
0
 62
     7
 10
95.682999999999979
 20
125.685
 30
0.0
 11
110.627
 21
125.685
 31
0.0
  0
LINE
  5
1A9
  8
0
 62
     7
 10
156.09899999999999
 20
101.983
 30
0.0
 11
153.88800000000001
 21
101.392
 31
0.0
  0
LINE
  5
1AA
  8
0
 62
     7
 10
153.88800000000001
 20
101.392
 30
0.0
 11
156.09899999999999
 21
100.79900000000001
 31
0.0
  0
LINE
  5
1AB
  8
0
 62
     7
 10
156.09899999999999
 20
100.79900000000001
 30
0.0
 11
156.09899999999999
 21
101.983
 31
0.0
  0
LINE
  5
1AC
  8
0
 62
     7
 10
173.17699999999999
 20
100.813
 30
0.0
 11
175.38900000000001
 21
101.40600000000001
 31
0.0
  0
LINE
  5
1AD
  8
0
 62
     7
 10
175.38900000000001
 20
101.40600000000001
 30
0.0
 11
173.17699999999999
 21
101.998
 31
0.0
  0
LINE
  5
1AE
  8
0
 62
     7
 10
173.17699999999999
 20
101.998
 30
0.0
 11
173.17699999999999
 21
100.813
 31
0.0
  0
LINE
  5
1AF
  8
0
 62
     7
 10
153.88800000000001
 20
101.398
 30
0.0
 11
175.38800000000001
 21
101.398
 31
0.0
  0
LINE
  5
1B0
  8
0
 62
     7
 10
116.73399999999999
 20
186.071
 30
0.0
 11
129.06
 21
186.071
 31
0.0
  0
LINE
  5
1B1
  8
0
 62
     7
 10
116.73399999999999
 20
232.071
 30
0.0
 11
129.06
 21
232.071
 31
0.0
  0
LINE
  5
1B2
  8
0
 62
     7
 10
132.81
 20
193.99299999999999
 30
0.0
 11
140.26499999999999
 21
193.99299999999999
 31
0.0
  0
LINE
  5
1B3
  8
0
 62
     7
 10
160.10900000000001
 20
212.321
 30
0.0
 11
167.84399999999999
 21
212.321
 31
0.0
  0
LINE
  5
1B4
  8
0
 62
     7
 10
127.098
 20
241.52099999999999
 30
0.0
 11
124.887
 21
240.928
 31
0.0
  0
LINE
  5
1B5
  8
0
 62
     7
 10
124.887
 20
240.928
 30
0.0
 11
127.098
 21
240.33600000000001
 31
0.0
  0
LINE
  5
1B6
  8
0
 62
     7
 10
127.098
 20
240.33600000000001
 30
0.0
 11
127.098
 21
241.52099999999999
 31
0.0
  0
LINE
  5
1B7
  8
0
 62
     7
 10
180.67699999999999
 20
240.351
 30
0.0
 11
182.88900000000001
 21
240.94300000000001
 31
0.0
  0
LINE
  5
1B8
  8
0
 62
     7
 10
182.88900000000001
 20
240.94300000000001
 30
0.0
 11
180.67699999999999
 21
241.535
 31
0.0
  0
LINE
  5
1B9
  8
0
 62
     7
 10
180.67699999999999
 20
241.535
 30
0.0
 11
180.67699999999999
 21
240.351
 31
0.0
  0
LINE
  5
1BA
  8
0
 62
     7
 10
124.88800000000001
 20
240.93600000000001
 30
0.0
 11
182.88800000000001
 21
240.93600000000001
 31
0.0
  0
LINE
  5
1BB
  8
0
 62
     7
 10
86.498599999999996
 20
233.821
 30
0.0
 11
108.145
 21
233.821
 31
0.0
  0
LINE
  5
1BC
  8
0
  6
AIGENLINE002
 62
     7
 10
148.18899999999999
 20
212.321
 30
0.0
 11
159.40899999999999
 21
212.321
 31
0.0
  0
LINE
  5
1BD
  8
0
  6
AIGENLINE002
 62
     7
 10
58.517000000000003
 20
212.321
 30
0.0
 11
69.736400000000003
 21
212.321
 31
0.0
  0
LINE
  5
1BE
  8
0
  6
AIGENLINE002
 62
     7
 10
60.739800000000002
 20
226.821
 30
0.0
 11
67.408199999999994
 21
226.821
 31
0.0
  0
LINE
  5
1BF
  8
0
  6
AIGENLINE001
 62
     7
 10
60.702599999999997
 20
113.685
 30
0.0
 11
61.852600000000002
 21
112.685
 31
0.0
  0
LINE
  5
1C0
  8
0
  6
AIGENLINE001
 62
     7
 10
61.852600000000002
 20
112.685
 30
0.0
 11
61.852600000000002
 21
108.685
 31
0.0
  0
LINE
  5
1C1
  8
0
  6
AIGENLINE002
 62
     7
 10
64.102599999999995
 20
128.012
 30
0.0
 11
64.102599999999995
 21
107.056
 31
0.0
  0
LINE
  5
1C2
  8
0
 62
     7
 10
91.102699999999984
 20
193.13200000000001
 30
0.0
 11
91.102699999999984
 21
173.37299999999999
 31
0.0
  0
LINE
  5
1C3
  8
0
 62
     7
 10
37.102200000000003
 20
193.13200000000001
 30
0.0
 11
37.102200000000003
 21
173.37299999999999
 31
0.0
  0
LINE
  5
1C4
  8
0
  6
AIGENLINE002
 62
     7
 10
64.102599999999995
 20
236.756
 30
0.0
 11
64.102599999999995
 21
180.3359999999999
 31
0.0
  0
TEXT
  5
1C5
  8
_________2
 62
     7
 10
29.525700000000001
 20
22.2272
 30
0.0
 40
4.6583899999999989
  1
実容量：7.0L、重量12.5kg、オーバーフロー付
 41
0.5
  0
LINE
  5
1C6
  8
_________2
 62
     7
 10
105.239
 20
17.4285
 30
0.0
 11
105.239
 21
0.4485540000000001
 31
0.0
  0
LINE
  5
1C7
  8
_________2
 62
     7
 10
81.679900000000004
 20
51.324300000000001
 30
0.0
 11
79.493700000000004
 21
51.324300000000001
 31
0.0
  0
LINE
  5
1C8
  8
_________2
 62
     7
 10
82.172600000000017
 20
51.324300000000001
 30
0.0
 11
81.920400000000001
 21
51.324300000000001
 31
0.0
  0
LINE
  5
1C9
  8
_________2
 62
     7
 10
82.665199999999984
 20
51.324300000000001
 30
0.0
 11
85.590100000000007
 21
51.324300000000001
 31
0.0
  0
LINE
  5
1CA
  8
_________2
 62
     7
 10
82.172600000000017
 20
51.324300000000001
 30
0.0
 11
82.424800000000005
 21
51.324300000000001
 31
0.0
  0
LINE
  5
1CB
  8
_________2
 62
     7
 10
75.776399999999995
 20
51.324300000000001
 30
0.0
 11
73.589399999999998
 21
51.324300000000001
 31
0.0
  0
LINE
  5
1CC
  8
_________2
 62
     7
 10
76.2684
 20
51.324300000000001
 30
0.0
 11
76.016900000000007
 21
51.324300000000001
 31
0.0
  0
LINE
  5
1CD
  8
_________2
 62
     7
 10
76.2684
 20
51.817
 30
0.0
 11
76.2684
 21
54.003900000000002
 31
0.0
  0
LINE
  5
1CE
  8
_________2
 62
     7
 10
76.2684
 20
51.324300000000001
 30
0.0
 11
76.2684
 21
51.576900000000002
 31
0.0
  0
LINE
  5
1CF
  8
_________2
 62
     7
 10
76.76100000000001
 20
51.324300000000001
 30
0.0
 11
78.947999999999993
 21
51.324300000000001
 31
0.0
  0
LINE
  5
1D0
  8
_________2
 62
     7
 10
76.2684
 20
51.324300000000001
 30
0.0
 11
76.520499999999998
 21
51.324300000000001
 31
0.0
  0
LINE
  5
1D1
  8
_________2
 62
     7
 10
76.2684
 20
50.832399999999993
 30
0.0
 11
76.2684
 21
48.645699999999998
 31
0.0
  0
LINE
  5
1D2
  8
_________2
 62
     7
 10
76.2684
 20
51.324300000000001
 30
0.0
 11
76.2684
 21
51.072800000000001
 31
0.0
  0
LINE
  5
1D3
  8
_________2
 62
     7
 10
79.979399999999984
 20
50.104799999999997
 30
0.0
 11
85.157399999999996
 21
49.240000000000002
 31
0.0
  0
LINE
  5
1D4
  8
_________2
 62
     7
 10
79.979399999999984
 20
52.544199999999989
 30
0.0
 11
85.157399999999996
 21
53.409700000000001
 31
0.0
  0
LINE
  5
1D5
  8
_________2
 62
     7
 10
85.157399999999996
 20
49.240000000000002
 30
0.0
 11
85.157399999999996
 21
53.409700000000001
 31
0.0
  0
LINE
  5
1D6
  8
_________2
 62
     7
 10
79.979399999999984
 20
50.104799999999997
 30
0.0
 11
79.979399999999984
 21
52.544199999999989
 31
0.0
  0
ARC
  5
1D7
  8
_________2
 62
     7
 10
76.221766000000002
 20
51.277380999999998
 30
0.0
 40
1.267714
 50
2.1220840000000001
 51
87.894083999999992
  0
ARC
  5
1D8
  8
_________2
 62
     7
 10
76.315297000000001
 20
51.277734999999993
 30
0.0
 40
1.267374999999999
 50
92.122849999999985
 51
177.893304
  0
ARC
  5
1D9
  8
_________2
 62
     7
 10
76.315273000000005
 20
51.371245999999992
 30
0.0
 40
1.267363
 50
182.121815
 51
267.87821400000001
  0
ARC
  5
1DA
  8
_________2
 62
     7
 10
76.221461000000005
 20
51.371928999999987
 30
0.0
 40
1.2680439999999991
 50
272.11916400000001
 51
357.84848499999998
  0
ARC
  5
1DB
  8
_________2
 62
     7
 10
76.187981999999991
 20
51.244312999999998
 30
0.0
 40
2.1668310000000002
 50
2.1161439999999989
 51
87.874379000000005
  0
ARC
  5
1DC
  8
_________2
 62
     7
 10
76.348411999999996
 20
51.245334999999997
 30
0.0
 40
2.1657980000000001
 50
92.118487999999999
 51
177.909886
  0
ARC
  5
1DD
  8
_________2
 62
     7
 10
76.348354
 20
51.404327000000002
 30
0.0
 40
2.1657779999999991
 50
182.11700400000001
 51
267.88302499999998
  0
ARC
  5
1DE
  8
_________2
 62
     7
 10
76.188378999999983
 20
51.405009999999997
 30
0.0
 40
2.1664590000000001
 50
272.11546800000002
 51
357.86560400000002
  0
TEXT
  5
1DF
  8
_________2
 62
     7
 10
109.544
 20
23.199100000000001
 30
0.0
 40
3.660169999999999
  1
図番
 41
0.5
  0
LINE
  5
1E0
  8
_________2
 62
     7
 10
108.489
 20
27.4283
 30
0.0
 11
188.49000000000001
 21
27.4283
 31
0.0
  0
TEXT
  5
1E1
  8
_________2
 62
     7
 10
109.544
 20
33.198900000000002
 30
0.0
 40
3.660169999999999
  1
品番
 41
0.5
  0
TEXT
  5
1E2
  8
_________2
 62
     7
 10
109.544
 20
53.338000000000001
 30
0.0
 40
3.660169999999999
  1
名称
 41
0.5
  0
TEXT
  5
1E3
  8
_________2
 62
     7
 10
96.504445833333335
 20
48.341900000000003
 30
0.0
 40
4.3256500000000004
  1
mm
 41
0.5
 72
     1
 11
98.306799999999996
 21
48.341900000000003
 31
0.0
  0
TEXT
  5
1E4
  8
_________2
 62
     7
 10
90.582099999999997
 20
53.338000000000001
 30
0.0
 40
3.660169999999999
  1
単位
 41
0.5
  0
TEXT
  5
1E5
  8
_________2
 62
     7
 10
90.582099999999997
 20
40.930399999999999
 30
0.0
 40
3.660169999999999
  1
尺度
 41
0.5
  0
TEXT
  5
1E6
  8
_________2
 62
     7
 10
94.320620416666657
 20
34.7378
 30
0.0
 40
4.3256500000000004
  1
1 ： 10
 41
0.5
 72
     1
 11
98.898600000000002
 21
34.7378
 31
0.0
  0
TEXT
  5
1E7
  8
_________2
 62
     7
 10
136.26072625
 20
30.627800000000001
 30
0.0
 40
4.6583899999999989
  1
DV037462-00
 41
0.5
 72
     1
 11
148.489
 21
30.627800000000001
 31
0.0
  0
TEXT
  5
1E8
  8
_________2
 62
     7
 10
139.36631958333331
 20
20.626999999999999
 30
0.0
 40
4.6583899999999989
  1
DV037462
 41
0.5
 72
     1
 11
148.489
 21
20.626999999999999
 31
0.0
  0
TEXT
  5
1E9
  8
_________2
 62
     7
 10
114.11799999999999
 20
45.745600000000003
 30
0.0
 40
4.6583899999999989
  1
デュラスタイル 洗面器
 41
0.5
  0
TEXT
  5
1EA
  8
_________2
 62
     7
 10
44.01748083333333
 20
35.123000000000012
 30
0.0
 40
4.3256500000000004
  1
早川
 41
0.5
 72
     1
 11
46.252400000000002
 21
35.123000000000012
 31
0.0
  0
TEXT
  5
1EB
  8
_________2
 62
     7
 10
25.443480833333329
 20
35.123000000000012
 30
0.0
 40
4.3256500000000004
  1
福田
 41
0.5
 72
     1
 11
27.6784
 21
35.123000000000012
 31
0.0
  0
TEXT
  5
1EC
  8
_________2
 62
     7
 10
72.724699999999999
 20
34.7378
 30
0.0
 40
4.3256500000000004
  1
15.04.28
 41
0.5
  0
TEXT
  5
1ED
  8
_________2
 62
     7
 10
71.531999999999996
 20
40.930399999999999
 30
0.0
 40
3.660169999999999
  1
日付
 41
0.5
  0
TEXT
  5
1EE
  8
_________2
 62
     7
 10
34.578299999999999
 20
40.930399999999999
 30
0.0
 40
3.660169999999999
  1
検図
 41
0.5
  0
TEXT
  5
1EF
  8
_________2
 62
     7
 10
22.9602
 20
26.731000000000002
 30
0.0
 40
3.660169999999999
  1
備考
 41
0.5
  0
TEXT
  5
1F0
  8
_________2
 62
     7
 10
22.9602
 20
40.930399999999999
 30
0.0
 40
3.660169999999999
  1
製図
 41
0.5
  0
TEXT
  5
1F1
  8
_________2
 62
     7
 10
25.533730666666688
 20
49.456400000000002
 30
0.0
 40
5.3238799999999991
  1
セラトレーディング株式会社
 41
0.5
 72
     1
 11
46.119399999999992
 21
49.456400000000002
 31
0.0
  0
LINE
  5
1F2
  8
_________2
 62
     7
 10
188.49000000000001
 20
17.4285
 30
0.0
 11
21.988499999999998
 21
17.4285
 31
0.0
  0
LINE
  5
1F3
  8
_________2
 62
     7
 10
21.988499999999998
 20
17.4285
 30
0.0
 11
21.988499999999998
 21
280.43000000000001
 31
0.0
  0
LINE
  5
1F4
  8
_________2
 62
     7
 10
21.988499999999998
 20
280.43000000000001
 30
0.0
 11
188.49000000000001
 21
280.43000000000001
 31
0.0
  0
LINE
  5
1F5
  8
_________2
 62
     7
 10
188.49000000000001
 20
280.43000000000001
 30
0.0
 11
188.49000000000001
 21
17.4285
 31
0.0
  0
LINE
  5
1F6
  8
_________2
 62
     7
 10
70.488799999999998
 20
30.928899999999999
 30
0.0
 11
70.488799999999998
 21
57.428699999999992
 31
0.0
  0
LINE
  5
1F7
  8
_________2
 62
     7
 10
89.488600000000005
 20
30.928899999999999
 30
0.0
 11
89.488600000000005
 21
57.428699999999992
 31
0.0
  0
LINE
  5
1F8
  8
_________2
 62
     7
 10
108.489
 20
17.4285
 30
0.0
 11
108.489
 21
57.428699999999992
 31
0.0
  0
LINE
  5
1F9
  8
_________2
 62
     7
 10
33.488300000000002
 20
30.928899999999999
 30
0.0
 11
33.488300000000002
 21
44.928800000000003
 31
0.0
  0
LINE
  5
1FA
  8
_________2
 62
     7
 10
21.988499999999998
 20
30.928899999999999
 30
0.0
 11
108.489
 21
30.928899999999999
 31
0.0
  0
LINE
  5
1FB
  8
_________2
 62
     7
 10
21.988499999999998
 20
44.928800000000003
 30
0.0
 11
108.489
 21
44.928800000000003
 31
0.0
  0
LINE
  5
1FC
  8
_________2
 62
     7
 10
108.489
 20
37.428100000000001
 30
0.0
 11
188.49000000000001
 21
37.428100000000001
 31
0.0
  0
LINE
  5
1FD
  8
_________2
 62
     7
 10
21.988499999999998
 20
57.428699999999992
 30
0.0
 11
188.49000000000001
 21
57.428699999999992
 31
0.0
  0
LINE
  5
1FE
  8
_________2
 62
     7
 10
210.24000000000001
 20
148.93100000000001
 30
0.0
 11
188.489
 21
148.93100000000001
 31
0.0
  0
LINE
  5
1FF
  8
_________2
 62
     7
 10
105.239
 20
297.45100000000002
 30
0.0
 11
105.239
 21
280.43000000000001
 31
0.0
  0
LINE
  5
200
  8
_________2
 62
     7
 10
21.988499999999998
 20
148.93100000000001
 30
0.0
 11
0.238402
 21
148.93100000000001
 31
0.0
  0
ENDSEC
  0
EOF
