  0
SECTION
  2
HEADER
  9
$ACADVER
  1
AC1009
  9
$INSBASE
 10
0.0
 20
0.0
 30
0.0
  9
$EXTMIN
 10
0.238402
 20
0.4485540000000001
 30
0.0
  9
$EXTMAX
 10
210.24000000000001
 20
297.45099999999991
 30
0.0
  9
$LIMMIN
 10
0.0
 20
0.0
  9
$LIMMAX
 10
12.0
 20
9.0
  9
$ORTHOMODE
 70
     0
  9
$REGENMODE
 70
     1
  9
$FILLMODE
 70
     1
  9
$QTEXTMODE
 70
     0
  9
$MIRRTEXT
 70
     1
  9
$DRAGMODE
 70
     2
  9
$LTSCALE
 40
1.0
  9
$OSMODE
 70
    37
  9
$ATTMODE
 70
     1
  9
$TEXTSIZE
 40
0.0
  9
$TRACEWID
 40
0.05
  9
$TEXTSTYLE
  7
STANDARD
  9
$CLAYER
  8
0
  9
$CELTYPE
  6
CONTINUOUS
  9
$CECOLOR
 62
   256
  9
$DIMSCALE
 40
1.0
  9
$DIMASZ
 40
0.18
  9
$DIMEXO
 40
0.0625
  9
$DIMDLI
 40
0.38
  9
$DIMRND
 40
0.0
  9
$DIMDLE
 40
0.0
  9
$DIMEXE
 40
0.18
  9
$DIMTP
 40
0.0
  9
$DIMTM
 40
0.0
  9
$DIMTXT
 40
0.18
  9
$DIMCEN
 40
0.09
  9
$DIMTSZ
 40
0.0
  9
$DIMTOL
 70
     0
  9
$DIMLIM
 70
     0
  9
$DIMTIH
 70
     1
  9
$DIMTOH
 70
     1
  9
$DIMSE1
 70
     0
  9
$DIMSE2
 70
     0
  9
$DIMTAD
 70
     0
  9
$DIMZIN
 70
     0
  9
$DIMBLK
  1

  9
$DIMASO
 70
     1
  9
$DIMSHO
 70
     1
  9
$DIMPOST
  1

  9
$DIMAPOST
  1

  9
$DIMALT
 70
     0
  9
$DIMALTD
 70
     2
  9
$DIMALTF
 40
25.399999999999999
  9
$DIMLFAC
 40
1.0
  9
$DIMTOFL
 70
     0
  9
$DIMTVP
 40
0.0
  9
$DIMTIX
 70
     0
  9
$DIMSOXD
 70
     0
  9
$DIMSAH
 70
     0
  9
$DIMBLK1
  1

  9
$DIMBLK2
  1

  9
$DIMSTYLE
  2
STANDARD
  9
$DIMCLRD
 70
     0
  9
$DIMCLRE
 70
     0
  9
$DIMCLRT
 70
     0
  9
$DIMTFAC
 40
1.0
  9
$DIMGAP
 40
0.09
  9
$LUNITS
 70
     2
  9
$LUPREC
 70
     4
  9
$SKETCHINC
 40
0.1
  9
$FILLETRAD
 40
0.0
  9
$AUNITS
 70
     0
  9
$AUPREC
 70
     0
  9
$MENU
  1
.
  9
$ELEVATION
 40
0.0
  9
$PELEVATION
 40
0.0
  9
$THICKNESS
 40
0.0
  9
$LIMCHECK
 70
     0
  9
$BLIPMODE
 70
     0
  9
$CHAMFERA
 40
0.0
  9
$CHAMFERB
 40
0.0
  9
$SKPOLY
 70
     0
  9
$TDCREATE
 40
2444972.375
  9
$TDUPDATE
 40
2457064.2496462381
  9
$TDINDWG
 40
0.0000118171
  9
$TDUSRTIMER
 40
0.0000118171
  9
$USRTIMER
 70
     1
  9
$ANGBASE
 50
0.0
  9
$ANGDIR
 70
     0
  9
$PDMODE
 70
     0
  9
$PDSIZE
 40
0.0
  9
$PLINEWID
 40
0.0
  9
$COORDS
 70
     1
  9
$SPLFRAME
 70
     0
  9
$SPLINETYPE
 70
     6
  9
$SPLINESEGS
 70
     8
  9
$ATTDIA
 70
     0
  9
$ATTREQ
 70
     1
  9
$HANDLING
 70
     1
  9
$HANDSEED
  5
45B
  9
$SURFTAB1
 70
     6
  9
$SURFTAB2
 70
     6
  9
$SURFTYPE
 70
     6
  9
$SURFU
 70
     6
  9
$SURFV
 70
     6
  9
$UCSNAME
  2

  9
$UCSORG
 10
0.0
 20
0.0
 30
0.0
  9
$UCSXDIR
 10
1.0
 20
0.0
 30
0.0
  9
$UCSYDIR
 10
0.0
 20
1.0
 30
0.0
  9
$PUCSNAME
  2

  9
$PUCSORG
 10
0.0
 20
0.0
 30
0.0
  9
$PUCSXDIR
 10
1.0
 20
0.0
 30
0.0
  9
$PUCSYDIR
 10
0.0
 20
1.0
 30
0.0
  9
$USERI1
 70
     0
  9
$USERI2
 70
     0
  9
$USERI3
 70
     0
  9
$USERI4
 70
     0
  9
$USERI5
 70
     0
  9
$USERR1
 40
0.0
  9
$USERR2
 40
0.0
  9
$USERR3
 40
0.0
  9
$USERR4
 40
0.0
  9
$USERR5
 40
0.0
  9
$WORLDVIEW
 70
     1
  9
$SHADEDGE
 70
     3
  9
$SHADEDIF
 70
    70
  9
$TILEMODE
 70
     1
  9
$MAXACTVP
 70
    48
  9
$PLIMCHECK
 70
     0
  9
$PEXTMIN
 10
1.0000000000000000E+020
 20
1.0000000000000000E+020
 30
1.0000000000000000E+020
  9
$PEXTMAX
 10
-1.0000000000000000E+020
 20
-1.0000000000000000E+020
 30
-1.0000000000000000E+020
  9
$PLIMMIN
 10
0.0
 20
0.0
  9
$PLIMMAX
 10
12.0
 20
9.0
  9
$UNITMODE
 70
     0
  9
$VISRETAIN
 70
     1
  9
$PLINEGEN
 70
     0
  9
$PSLTSCALE
 70
     1
  0
ENDSEC
  0
SECTION
  2
TABLES
  0
TABLE
  2
VPORT
 70
     2
  0
VPORT
  2
*ACTIVE
 70
     0
 10
0.0
 20
0.0
 11
1.0
 21
1.0
 12
205.3114106404029
 22
148.7254999999999
 13
0.0
 23
0.0
 14
1.0
 24
1.0
 15
0.0
 25
0.0
 16
0.0
 26
0.0
 36
1.0
 17
0.0
 27
0.0
 37
0.0
 40
299.92289196675898
 41
2.2894736842105261
 42
50.0
 43
0.0
 44
0.0
 50
0.0
 51
0.0
 71
     0
 72
   100
 73
     1
 74
     1
 75
     0
 76
     0
 77
     0
 78
     0
  0
ENDTAB
  0
TABLE
  2
LTYPE
 70
     5
  0
LTYPE
  2
CONTINUOUS
 70
     0
  3
Solid line
 72
    65
 73
     0
 40
0.0
  0
LTYPE
  2
AIGENLINE001
 70
     0
  3
generate AI->DXF Converter
 72
    65
 73
     6
 40
7.4083750000000004
 49
3.5278
 49
-0.776115
 49
0.776115
 49
-0.776115
 49
0.776115
 49
-0.776115
  0
LTYPE
  2
AIGENLINE002
 70
     0
  3
generate AI->DXF Converter
 72
    65
 73
     4
 40
5.8561449999999988
 49
3.5278
 49
-0.776115
 49
0.776115
 49
-0.776115
  0
LTYPE
  2
AIGENLINE003
 70
     0
  3
generate AI->DXF Converter
 72
    65
 73
     2
 40
1.5522299999999991
 49
0.776115
 49
-0.776115
  0
LTYPE
  2
AIGENLINE004
 70
     0
  3
generate AI->DXF Converter
 72
    65
 73
     2
 40
0.9999879999999999
 49
0.499994
 49
-0.499994
  0
ENDTAB
  0
TABLE
  2
LAYER
 70
     2
  0
LAYER
  2
0
 70
     0
 62
     7
  6
CONTINUOUS
  0
LAYER
  2
_________2
 70
     0
 62
     7
  6
CONTINUOUS
  0
ENDTAB
  0
TABLE
  2
STYLE
 70
     1
  0
STYLE
  2
STANDARD
 70
     0
 40
0.0
 41
0.0
 50
0.0
 71
     0
 42
0.0
  3
TXT
  4
EXTFONT.SHX
  0
ENDTAB
  0
TABLE
  2
VIEW
 70
     0
  0
ENDTAB
  0
TABLE
  2
UCS
 70
     0
  0
ENDTAB
  0
TABLE
  2
APPID
 70
     1
  0
APPID
  2
ACAD
 70
     0
  0
ENDTAB
  0
TABLE
  2
DIMSTYLE
 70
     1
  0
DIMSTYLE
  2
STANDARD
 70
     0
  3

  4

  5

  6

  7

 40
1.0
 41
0.18
 42
0.0625
 43
0.38
 44
0.18
 45
0.0
 46
0.0
 47
0.0
 48
0.0
140
0.18
141
0.09
142
0.0
143
25.399999999999999
144
1.0
145
0.0
146
1.0
147
0.09
 71
     0
 72
     0
 73
     1
 74
     1
 75
     0
 76
     0
 77
     0
 78
     0
170
     0
171
     2
172
     0
173
     0
174
     0
175
     0
176
     0
177
     0
178
     0
  0
ENDTAB
  0
ENDSEC
  0
SECTION
  2
BLOCKS
  0
BLOCK
  8
0
  2
$MODEL_SPACE
 70
     0
 10
0.0
 20
0.0
 30
0.0
  3
$MODEL_SPACE
  1

  0
ENDBLK
  5
1A
  8
0
  0
BLOCK
 67
     1
  8
0
  2
$PAPER_SPACE
 70
     0
 10
0.0
 20
0.0
 30
0.0
  3
$PAPER_SPACE
  1

  0
ENDBLK
  5
17
 67
     1
  8
0
  0
ENDSEC
  0
SECTION
  2
ENTITIES
  0
TEXT
  5
25
  8
0
 62
     7
 10
46.766800000000003
 20
82.814243333333323
 30
0.0
 40
3.660169999999999
  1
13
 50
90.0
 41
0.5
 72
     1
 11
46.766800000000003
 21
84.034300000000002
 31
0.0
  0
TEXT
  5
26
  8
0
 62
     7
 10
67.057000000000002
 20
92.349800000000002
 30
0.0
 40
3.660169999999999
  1
固定金具：2個
 41
0.5
  0
TEXT
  5
27
  8
0
 62
     7
 10
67.057000000000002
 20
87.774600000000007
 30
0.0
 40
3.660169999999999
  1
皿木ネジ%%c3.8×15.5 ×4本
 41
0.5
  0
TEXT
  5
28
  8
0
 62
     7
 10
118.398
 20
78.709599999999995
 30
0.0
 40
4.3256500000000004
  1
※排水栓を閉めた状態で毎分10L
 41
0.5
  0
TEXT
  5
29
  8
0
 62
     7
 10
118.398
 20
73.302499999999995
 30
0.0
 40
4.3256500000000004
  1
　以上吐水させないでください。
 41
0.5
  0
TEXT
  5
2A
  8
0
 62
     7
 10
118.398
 20
67.895399999999995
 30
0.0
 40
4.3256500000000004
  1
※陶器の公差によりエプロン部との
 41
0.5
  0
TEXT
  5
2B
  8
0
 62
     7
 10
118.398
 20
62.488399999999999
 30
0.0
 40
4.3256500000000004
  1
　隙間が大きくなることがあります。
 41
0.5
  0
TEXT
  5
2C
  8
0
 62
     7
 10
34.756399999999999
 20
98.222399999999993
 30
0.0
 40
3.660169999999999
  1
付属品（尺度1：5）
 41
0.5
  0
TEXT
  5
2D
  8
0
 62
     7
 10
46.908900000000003
 20
66.435543333333342
 30
0.0
 40
3.660169999999999
  1
19
 50
90.0
 41
0.5
 72
     1
 11
46.908900000000003
 21
67.655600000000007
 31
0.0
  0
TEXT
  5
2E
  8
0
 62
     7
 10
39.947899999999997
 20
82.509229166666671
 30
0.0
 40
3.660169999999999
  1
46
 50
90.0
 41
0.5
 72
     1
 11
39.947899999999997
 21
84.034300000000002
 31
0.0
  0
TEXT
  5
2F
  8
0
 62
     7
 10
60.20182916666667
 20
74.668800000000005
 30
0.0
 40
3.660169999999999
  1
92
 41
0.5
 72
     1
 11
61.726900000000001
 21
74.668800000000005
 31
0.0
  0
TEXT
  5
30
  8
0
 62
     7
 10
55.906543333333339
 20
92.994699999999995
 30
0.0
 40
3.660169999999999
  1
13
 41
0.5
 72
     1
 11
57.126600000000003
 21
92.994699999999995
 31
0.0
  0
TEXT
  5
31
  8
0
 62
     7
 10
149.40542385857739
 20
223.62333261635339
 30
0.0
 40
3.660169999999999
  1
R640
 50
278.39499999999998
 41
0.5
 72
     1
 11
149.87299999999991
 21
220.45500000000001
 31
0.0
  0
TEXT
  5
32
  8
0
 62
     7
 10
140.613
 20
122.4429008333333
 30
0.0
 40
3.660169999999999
  1
125
 50
90.0
 41
0.5
 72
     1
 11
140.613
 21
124.5779999999999
 31
0.0
  0
TEXT
  5
33
  8
0
 62
     7
 10
140.8368866666666
 20
88.834800000000001
 30
0.0
 40
3.660169999999999
  1
455
 41
0.5
 72
     1
 11
143.27699999999999
 21
88.834800000000001
 31
0.0
  0
TEXT
  5
34
  8
0
 62
     7
 10
148.54340791666661
 20
95.571299999999994
 30
0.0
 40
3.660169999999999
  1
310
 41
0.5
 72
     1
 11
150.5259999999999
 21
95.571299999999994
 31
0.0
  0
TEXT
  5
35
  8
0
 62
     7
 10
151.98939375
 20
101.9579999999999
 30
0.0
 40
3.660169999999999
  1
230
 41
0.5
 72
     1
 11
154.27699999999999
 21
101.9579999999999
 31
0.0
  0
TEXT
  5
36
  8
0
 62
     7
 10
124.587
 20
107.294
 30
0.0
 40
3.660169999999999
  1
20以下
 41
0.5
  0
TEXT
  5
37
  8
0
 62
     7
 10
169.45585833333331
 20
107.294
 30
0.0
 40
3.660169999999999
  1
25
 41
0.5
 72
     2
 11
172.50599999999989
 21
107.294
 31
0.0
  0
TEXT
  5
38
  8
0
 62
     7
 10
174.75200000000001
 20
137.19887249999999
 30
0.0
 40
3.660169999999999
  1
20
 50
90.0
 41
0.5
 72
     2
 11
174.75200000000001
 21
139.94399999999999
 31
0.0
  0
TEXT
  5
39
  8
0
 62
     7
 10
181.839
 20
121.6014079166666
 30
0.0
 40
3.660169999999999
  1
170
 50
90.0
 41
0.5
 72
     1
 11
181.839
 21
123.584
 31
0.0
  0
TEXT
  5
3A
  8
0
 62
     7
 10
48.163026000000002
 20
108.7739999999999
 30
0.0
 40
3.660169999999999
  1
エプロン
 41
0.5
 72
     2
 11
56.215400000000002
 21
108.7739999999999
 31
0.0
  0
TEXT
  5
3B
  8
0
 62
     7
 10
39.443019999999997
 20
139.28700000000001
 30
0.0
 40
3.660169999999999
  1
カウンター厚さ
 41
0.5
 72
     2
 11
54.0837
 21
139.28700000000001
 31
0.0
  0
TEXT
  5
3C
  8
0
 62
     7
 10
30.6143
 20
117.8443030833333
 30
0.0
 40
3.660169999999999
  1
160以上
 50
90.0
 41
0.5
 72
     1
 11
30.6143
 21
122.084
 31
0.0
  0
TEXT
  5
3D
  8
0
 62
     7
 10
103.876
 20
121.6014079166666
 30
0.0
 40
3.660169999999999
  1
170
 50
90.0
 41
0.5
 72
     1
 11
103.876
 21
123.584
 31
0.0
  0
TEXT
  5
3E
  8
0
 62
     7
 10
139.11576755553551
 20
217.3792014499667
 30
0.0
 40
3.6609899999999991
  1
R260
 50
58.447999999999993
 41
0.5
 72
     1
 11
140.792
 21
220.10900000000001
 31
0.0
  0
TEXT
  5
3F
  8
0
 62
     7
 10
171.12299999999999
 20
220.56687249999999
 30
0.0
 40
3.660169999999999
  1
30
 50
90.0
 41
0.5
 72
     2
 11
171.12299999999999
 21
223.3119999999999
 31
0.0
  0
TEXT
  5
40
  8
0
 62
     7
 10
164.44192066666659
 20
135.15100000000001
 30
0.0
 40
3.660169999999999
  1
壁
 41
0.5
 72
     2
 11
166.15000000000001
 21
135.15100000000001
 31
0.0
  0
TEXT
  5
41
  8
0
 62
     7
 10
87.934860333333333
 20
214.59999999999991
 30
0.0
 40
3.660169999999999
  1
壁
 41
0.5
 72
     1
 11
88.788899999999998
 21
214.59999999999991
 31
0.0
  0
TEXT
  5
42
  8
0
 62
     7
 10
153.21875633333329
 20
224.143
 30
0.0
 40
3.660169999999999
  1
カウンター
 41
0.5
 72
     1
 11
158.465
 21
224.143
 31
0.0
  0
TEXT
  5
43
  8
0
 62
     7
 10
155.00091053571421
 20
219.5679999999999
 30
0.0
 40
3.660169999999999
  1
トップ
 41
0.5
 72
     1
 11
158.465
 21
219.5679999999999
 31
0.0
  0
TEXT
  5
44
  8
0
 62
     7
 10
126.41471666666661
 20
265.68599999999992
 30
0.0
 40
3.660169999999999
  1
補強木
 41
0.5
 72
     2
 11
132.5149999999999
 21
265.68599999999992
 31
0.0
  0
TEXT
  5
45
  8
0
 62
     7
 10
138.92596033333331
 20
265.19999999999999
 30
0.0
 40
3.660169999999999
  1
壁
 41
0.5
 72
     1
 11
139.77999999999989
 21
265.19999999999999
 31
0.0
  0
TEXT
  5
46
  8
0
 62
     7
 10
93.773789061896139
 20
246.3985035686004
 30
0.0
 40
3.660169999999999
  1
295
 50
32.067399999999992
 41
0.5
 72
     1
 11
95.8416
 21
247.69399999999999
 31
0.0
  0
TEXT
  5
47
  8
0
 62
     7
 10
102.46078609187801
 20
252.3639610626611
 30
0.0
 40
3.660169999999999
  1
45以上
 50
32.067399999999992
 41
0.5
 72
     2
 11
108.871
 21
256.38
 31
0.0
  0
TEXT
  5
48
  8
0
 62
     7
 10
71.590530488100697
 20
264.52076292139537
 30
0.0
 40
3.66066
  1
517
 50
346.327
 41
0.5
 72
     1
 11
73.665400000000005
 21
264.01599999999991
 31
0.0
  0
TEXT
  5
49
  8
0
 62
     7
 10
93.5458
 20
229.227
 30
0.0
 40
3.660169999999999
  1
160以上
 50
90.0
 41
0.5
  0
TEXT
  5
4A
  8
0
 62
     7
 10
89.730299999999986
 20
241.294915
 30
0.0
 40
3.660169999999999
  1
121
 50
90.0
 41
0.5
 72
     1
 11
89.730299999999986
 21
243.12499999999989
 31
0.0
  0
TEXT
  5
4B
  8
0
 62
     7
 10
85.266099999999994
 20
248.9998724999999
 30
0.0
 40
3.660169999999999
  1
30
 50
90.0
 41
0.5
 72
     2
 11
85.266099999999994
 21
251.745
 31
0.0
  0
TEXT
  5
4C
  8
0
 62
     7
 10
66.384529166666667
 20
254.81200000000001
 30
0.0
 40
3.660169999999999
  1
R5
 41
0.5
 72
     1
 11
67.909599999999998
 21
254.81200000000001
 31
0.0
  0
TEXT
  5
4D
  8
0
 62
     7
 10
57.82962916666667
 20
257.07599999999991
 30
0.0
 40
3.660169999999999
  1
R5
 41
0.5
 72
     1
 11
59.354700000000001
 21
257.07599999999991
 31
0.0
  0
TEXT
  5
4E
  8
0
 62
     7
 10
35.110956500000007
 20
240.36199999999999
 30
0.0
 40
3.660169999999999
  1
エプロン厚さ最大20
 41
0.5
 72
     2
 11
55.424900000000001
 21
240.36199999999999
 31
0.0
  0
TEXT
  5
4F
  8
0
 62
     7
 10
42.004071583333328
 20
269.30700000000002
 30
0.0
 40
3.660169999999999
  1
カウンター厚さ最大30
 41
0.5
 72
     1
 11
53.381100000000004
 21
269.30700000000002
 31
0.0
  0
TEXT
  5
50
  8
0
 62
     7
 10
145.3569008333333
 20
272.63799999999992
 30
0.0
 40
3.660169999999999
  1
517
 41
0.5
 72
     1
 11
147.49199999999999
 21
272.63799999999992
 31
0.0
  0
TEXT
  5
51
  8
0
 62
     7
 10
154.69799999999989
 20
267.67799999999988
 30
0.0
 40
3.660169999999999
  1
10
 41
0.5
  0
TEXT
  5
52
  8
0
 62
     7
 10
164.0236628333333
 20
267.67799999999988
 30
0.0
 40
3.660169999999999
  1
50以上
 41
0.5
 72
     2
 11
171.2829999999999
 21
267.67799999999988
 31
0.0
  0
TEXT
  5
53
  8
0
 62
     7
 10
167.87
 20
245.6749999999999
 30
0.0
 40
3.660169999999999
  1
100以上
 50
90.0
 41
0.5
  0
TEXT
  5
54
  8
0
 62
     7
 10
172.44499999999999
 20
245.6749999999999
 30
0.0
 40
3.660169999999999
  1
150以下
 50
90.0
 41
0.5
  0
TEXT
  5
55
  8
0
 62
     7
 10
125.68899999999999
 20
252.4143937499999
 30
0.0
 40
3.660169999999999
  1
205
 50
90.0
 41
0.5
 72
     1
 11
125.68899999999999
 21
254.70199999999991
 31
0.0
  0
TEXT
  5
56
  8
0
 62
     7
 10
171.63200000000001
 20
262.75887249999988
 30
0.0
 40
3.660169999999999
  1
40
 50
90.0
 41
0.5
 72
     2
 11
171.63200000000001
 21
265.50400000000002
 31
0.0
  0
TEXT
  5
57
  8
0
 62
     7
 10
177.46299999999991
 20
250.01188666666661
 30
0.0
 40
3.660169999999999
  1
295
 50
90.0
 41
0.5
 72
     1
 11
177.46299999999991
 21
252.45199999999991
 31
0.0
  0
TEXT
  5
58
  8
0
 62
     7
 10
140.5438583333333
 20
255.62499999999989
 30
0.0
 40
3.660169999999999
  1
R5
 41
0.5
 72
     2
 11
143.59399999999991
 21
255.62499999999989
 31
0.0
  0
TEXT
  5
59
  8
0
 62
     7
 10
153.47972233333331
 20
248.56
 30
0.0
 40
3.660169999999999
  1
排水口
 41
0.5
 72
     2
 11
159.458
 21
248.56
 31
0.0
  0
TEXT
  5
5A
  8
0
 62
     7
 10
151.38900000000001
 20
255.62499999999989
 30
0.0
 40
3.660169999999999
  1
R5
 41
0.5
  0
TEXT
  5
5B
  8
0
 62
     7
 10
128.53999999999991
 20
203.92299999999989
 30
0.0
 40
3.660169999999999
  1
エプロン
 41
0.5
  0
TEXT
  5
5C
  8
0
 62
     7
 10
72.971973333333324
 20
180.68199999999999
 30
0.0
 40
3.660169999999999
  1
%%c46
 41
0.5
 72
     2
 11
77.852199999999996
 21
180.68199999999999
 31
0.0
  0
TEXT
  5
5D
  8
0
 62
     7
 10
45.255600000000001
 20
214.74999999999989
 30
0.0
 40
3.660169999999999
  1
%%c35
 41
0.5
  0
TEXT
  5
5E
  8
0
 62
     7
 10
30.8018
 20
189.93228891666661
 30
0.0
 40
3.660169999999999
  1
340以上
 50
90.0
 41
0.5
 72
     1
 11
30.8018
 21
194.477
 31
0.0
  0
TEXT
  5
5F
  8
0
 62
     7
 10
30.8018
 20
168.09190083333331
 30
0.0
 40
3.660169999999999
  1
145
 50
90.0
 41
0.5
 72
     1
 11
30.8018
 21
170.227
 31
0.0
  0
TEXT
  5
60
  8
0
 62
     7
 10
99.778899999999993
 20
203.10443624999991
 30
0.0
 40
3.660169999999999
  1
80
 50
90.0
 41
0.5
 72
     1
 11
99.778899999999993
 21
204.477
 31
0.0
  0
TEXT
  5
61
  8
0
 62
     7
 10
99.778899999999993
 20
195.5384362499999
 30
0.0
 40
3.660169999999999
  1
70
 50
90.0
 41
0.5
 72
     1
 11
99.778899999999993
 21
196.91099999999989
 31
0.0
  0
TEXT
  5
62
  8
0
 62
     7
 10
69.137614999999997
 20
217.9559999999999
 30
0.0
 40
3.660169999999999
  1
100
 41
0.5
 72
     1
 11
70.967699999999994
 21
217.9559999999999
 31
0.0
  0
TEXT
  5
63
  8
0
 62
     7
 10
144.23592916666661
 20
229.226
 30
0.0
 40
3.660169999999999
  1
66
 41
0.5
 72
     1
 11
145.761
 21
229.226
 31
0.0
  0
TEXT
  5
64
  8
0
 62
     7
 10
124.3929999999999
 20
218.5069008333333
 30
0.0
 40
3.660169999999999
  1
145
 50
90.0
 41
0.5
 72
     1
 11
124.3929999999999
 21
220.642
 31
0.0
  0
TEXT
  5
65
  8
0
 62
     7
 10
59.137515
 20
217.9559999999999
 30
0.0
 40
3.660169999999999
  1
100
 41
0.5
 72
     1
 11
60.96759999999999
 21
217.9559999999999
 31
0.0
  0
TEXT
  5
66
  8
0
 62
     7
 10
106.32599999999999
 20
198.93040791666661
 30
0.0
 40
3.660169999999999
  1
150
 50
90.0
 41
0.5
 72
     1
 11
106.32599999999999
 21
200.9129999999999
 31
0.0
  0
TEXT
  5
67
  8
0
 62
     7
 10
183.059
 20
208.7843030833333
 30
0.0
 40
3.660169999999999
  1
160以上
 50
90.0
 41
0.5
 72
     1
 11
183.059
 21
213.024
 31
0.0
  0
TEXT
  5
68
  8
0
 62
     7
 10
177.06700000000001
 20
212.16191499999999
 30
0.0
 40
3.660169999999999
  1
121
 50
90.0
 41
0.5
 72
     1
 11
177.06700000000001
 21
213.99199999999999
 31
0.0
  0
TEXT
  5
69
  8
0
 62
     7
 10
106.32599999999999
 20
177.56039374999989
 30
0.0
 40
3.660169999999999
  1
270
 50
90.0
 41
0.5
 72
     1
 11
106.32599999999999
 21
179.8479999999999
 31
0.0
  0
TEXT
  5
6A
  8
0
 62
     7
 10
112.538
 20
183.28688666666659
 30
0.0
 40
3.660169999999999
  1
455
 50
90.0
 41
0.5
 72
     1
 11
112.538
 21
185.72699999999989
 31
0.0
  0
TEXT
  5
6B
  8
0
 62
     7
 10
119.04900000000001
 20
185.06399999999999
 30
0.0
 40
3.3274199999999992
  1
〈注記〉：木ネジが直接打てるカウンターの場合、カウンター厚さは
 41
0.5
  0
TEXT
  5
6C
  8
0
 62
     7
 10
119.04900000000001
 20
180.904
 30
0.0
 40
3.3274199999999992
  1
 21mm～30mmとしてください。
 41
0.5
  0
TEXT
  5
6D
  8
0
 62
     7
 10
119.04900000000001
 20
176.745
 30
0.0
 40
3.3274199999999992
  1
 カウンター厚さが30mm以下の場合はA部が約30mmになるよ
 41
0.5
  0
TEXT
  5
6E
  8
0
 62
     7
 10
119.04900000000001
 20
172.5859999999999
 30
0.0
 40
3.3274199999999992
  1
 うに補強木を入れてください。
 41
0.5
  0
TEXT
  5
6F
  8
0
 62
     7
 10
119.04900000000001
 20
164.267
 30
0.0
 40
3.3274199999999992
  1
:人工大理石のカウンターの場合、カウンター厚さは13mm
 41
0.5
  0
TEXT
  5
70
  8
0
 62
     7
 10
119.04900000000001
 20
160.108
 30
0.0
 40
3.3274199999999992
  1
 以下にしてください。A部に17mm以上の補強木を入れて人工
 41
0.5
  0
TEXT
  5
71
  8
0
 62
     7
 10
119.04900000000001
 20
155.9489999999999
 30
0.0
 40
3.3274199999999992
  1
 大理石＋補強木合わせて約30mmにしてください。
 41
0.5
  0
TEXT
  5
72
  8
0
 62
     7
 10
119.04900000000001
 20
147.62999999999991
 30
0.0
 40
3.3274199999999992
  1
：カウンター厚さによってエプロン切込寸法を調整
 41
0.5
  0
TEXT
  5
73
  8
0
 62
     7
 10
119.04900000000001
 20
143.471
 30
0.0
 40
3.3274199999999992
  1
 ください。エプロン厚さは20mm以下にしてください。
 41
0.5
  0
TEXT
  5
74
  8
0
 62
     7
 10
119.04900000000001
 20
135.15199999999999
 30
0.0
 40
3.3274199999999992
  1
：カウンター製作時はカウンター業者様にご確認ください。
 41
0.5
  0
TEXT
  5
75
  8
0
 62
     7
 10
132.20797166666659
 20
249.70799999999991
 30
0.0
 40
3.660169999999999
  1
A
 41
0.5
 72
     1
 11
132.8179999999999
 21
249.70799999999991
 31
0.0
  0
TEXT
  5
76
  8
0
 62
     7
 10
161.55697166666661
 20
249.70799999999991
 30
0.0
 40
3.660169999999999
  1
A
 41
0.5
 72
     1
 11
162.16699999999989
 21
249.70799999999991
 31
0.0
  0
TEXT
  5
77
  8
0
 62
     7
 10
131.32858341666659
 20
197.178
 30
0.0
 40
3.660169999999999
  1
カウンター切込寸法 尺度1：20（正面）
 41
0.5
 72
     1
 11
151.0629999999999
 21
197.178
 31
0.0
  0
TEXT
  5
78
  8
0
 62
     7
 10
127.75758341666661
 20
237.55799999999991
 30
0.0
 40
3.660169999999999
  1
カウンター切込寸法 尺度1：20（平面）
 41
0.5
 72
     1
 11
147.49199999999999
 21
237.55799999999991
 31
0.0
  0
TEXT
  5
79
  8
0
 62
     7
 10
63.679993750000001
 20
154.33500000000001
 30
0.0
 40
3.660169999999999
  1
480
 41
0.5
 72
     1
 11
65.967600000000004
 21
154.33500000000001
 31
0.0
  0
TEXT
  5
7A
  8
0
 62
     7
 10
63.66639374999999
 20
148.0329999999999
 30
0.0
 40
3.660169999999999
  1
550
 41
0.5
 72
     1
 11
65.953999999999994
 21
148.0329999999999
 31
0.0
  0
TEXT
  5
7B
  8
0
 62
     7
 10
177.46299999999991
 20
264.65964866666661
 30
0.0
 40
3.660169999999999
  1
45以上
 50
90.0
 41
0.5
 72
     2
 11
177.46299999999991
 21
272.22399999999988
 31
0.0
  0
TEXT
  5
7C
  8
0
 62
     7
 10
112.1729999999999
 20
216.39466283333331
 30
0.0
 40
3.660169999999999
  1
30以上
 50
90.0
 41
0.5
 72
     2
 11
112.1729999999999
 21
223.654
 31
0.0
  0
LINE
  5
7D
  8
0
 62
     7
 10
76.333299999999994
 20
257.596
 30
0.0
 11
82.412199999999999
 21
261.36500000000001
 31
0.0
  0
LINE
  5
7E
  8
0
 62
     7
 10
58.156700000000001
 20
262.73399999999998
 30
0.0
 11
64.024699999999996
 21
266.37299999999999
 31
0.0
  0
LINE
  5
7F
  8
0
 62
     7
 10
52.7136
 20
254.25399999999999
 30
0.0
 11
51.1462
 21
252.58500000000001
 31
0.0
  0
LINE
  5
80
  8
0
 62
     7
 10
51.1462
 20
252.58500000000001
 30
0.0
 11
53.338200000000001
 21
253.2469999999999
 31
0.0
  0
LINE
  5
81
  8
0
 62
     7
 10
53.338200000000001
 20
253.2469999999999
 30
0.0
 11
52.7136
 21
254.25399999999999
 31
0.0
  0
LINE
  5
82
  8
0
 62
     7
 10
49.111699999999999
 20
250.62599999999989
 30
0.0
 11
50.678899999999999
 21
252.2949999999999
 31
0.0
  0
LINE
  5
83
  8
0
 62
     7
 10
50.678899999999999
 20
252.2949999999999
 30
0.0
 11
48.487099999999998
 21
251.63399999999999
 31
0.0
  0
LINE
  5
84
  8
0
 62
     7
 10
48.487099999999998
 20
251.63399999999999
 30
0.0
 11
49.111699999999999
 21
250.62599999999989
 31
0.0
  0
LINE
  5
85
  8
0
 62
     7
 10
47.664099999999991
 20
250.4259999999999
 30
0.0
 11
53.837200000000003
 21
254.25399999999999
 31
0.0
  0
LINE
  5
86
  8
0
 62
     7
 10
88.141400000000004
 20
249.11000000000001
 30
0.0
 11
88.141400000000004
 21
255.8479999999999
 31
0.0
  0
LINE
  5
87
  8
0
  6
AIGENLINE002
 62
     7
 10
57.129899999999999
 20
245.16499999999991
 30
0.0
 11
57.129899999999999
 21
253.893
 31
0.0
  0
LINE
  5
88
  8
0
  6
AIGENLINE002
 62
     7
 10
57.129899999999999
 20
253.893
 30
0.0
 11
70.514099999999999
 21
262.19200000000001
 31
0.0
  0
LINE
  5
89
  8
0
 62
     7
 10
55.855499999999999
 20
263.887
 30
0.0
 11
56.44809999999999
 21
261.67500000000001
 31
0.0
  0
LINE
  5
8A
  8
0
 62
     7
 10
56.44809999999999
 20
261.67500000000001
 30
0.0
 11
57.040599999999998
 21
263.887
 31
0.0
  0
LINE
  5
8B
  8
0
 62
     7
 10
57.040599999999998
 20
263.887
 30
0.0
 11
55.855499999999999
 21
263.887
 31
0.0
  0
LINE
  5
8C
  8
0
 62
     7
 10
57.040599999999998
 20
258.62299999999999
 30
0.0
 11
56.44809999999999
 21
260.83499999999992
 31
0.0
  0
LINE
  5
8D
  8
0
 62
     7
 10
56.44809999999999
 20
260.83499999999992
 30
0.0
 11
55.855499999999999
 21
258.62299999999999
 31
0.0
  0
LINE
  5
8E
  8
0
 62
     7
 10
55.855499999999999
 20
258.62299999999999
 30
0.0
 11
57.040599999999998
 21
258.62299999999999
 31
0.0
  0
LINE
  5
8F
  8
0
 62
     7
 10
56.44809999999999
 20
257.25700000000001
 30
0.0
 11
56.44809999999999
 21
268.529
 31
0.0
  0
LINE
  5
90
  8
0
 62
     7
 10
93.599699999999999
 20
239.25200000000001
 30
0.0
 11
94.192300000000003
 21
237.03999999999999
 31
0.0
  0
LINE
  5
91
  8
0
 62
     7
 10
94.192300000000003
 20
237.03999999999999
 30
0.0
 11
94.784800000000004
 21
239.25200000000001
 31
0.0
  0
LINE
  5
92
  8
0
 62
     7
 10
94.784800000000004
 20
239.25200000000001
 30
0.0
 11
93.599699999999999
 21
239.25200000000001
 31
0.0
  0
LINE
  5
93
  8
0
 62
     7
 10
89.88600000000001
 20
247.00099999999989
 30
0.0
 11
90.4786
 21
244.78899999999999
 31
0.0
  0
LINE
  5
94
  8
0
 62
     7
 10
90.4786
 20
244.78899999999999
 30
0.0
 11
91.071200000000005
 21
247.00099999999989
 31
0.0
  0
LINE
  5
95
  8
0
 62
     7
 10
91.071200000000005
 20
247.00099999999989
 30
0.0
 11
89.88600000000001
 21
247.00099999999989
 31
0.0
  0
LINE
  5
96
  8
0
 62
     7
 10
94.784800000000004
 20
241.56599999999989
 30
0.0
 11
94.192300000000003
 21
243.77799999999999
 31
0.0
  0
LINE
  5
97
  8
0
 62
     7
 10
94.192300000000003
 20
243.77799999999999
 30
0.0
 11
93.599699999999999
 21
241.56599999999989
 31
0.0
  0
LINE
  5
98
  8
0
 62
     7
 10
93.599699999999999
 20
241.56599999999989
 30
0.0
 11
94.784800000000004
 21
241.56599999999989
 31
0.0
  0
LINE
  5
99
  8
0
 62
     7
 10
91.071200000000005
 20
237.95999999999989
 30
0.0
 11
90.4786
 21
240.172
 31
0.0
  0
LINE
  5
9A
  8
0
 62
     7
 10
90.4786
 20
240.172
 30
0.0
 11
89.88600000000001
 21
237.95999999999989
 31
0.0
  0
LINE
  5
9B
  8
0
 62
     7
 10
89.88600000000001
 20
237.95999999999989
 30
0.0
 11
91.071200000000005
 21
237.95999999999989
 31
0.0
  0
LINE
  5
9C
  8
0
 62
     7
 10
47.664099999999991
 20
244.07400000000001
 30
0.0
 11
47.664099999999991
 21
250.4259999999999
 31
0.0
  0
LINE
  5
9D
  8
0
 62
     7
 10
94.192300000000003
 20
229.227
 30
0.0
 11
94.192300000000003
 21
243.77799999999999
 31
0.0
  0
LINE
  5
9E
  8
0
 62
     7
 10
90.4786
 20
237.08500000000001
 30
0.0
 11
90.4786
 21
247.78700000000001
 31
0.0
  0
LINE
  5
9F
  8
0
 62
     7
 10
85.216200000000001
 20
248.273
 30
0.0
 11
85.808700000000002
 21
246.06099999999989
 31
0.0
  0
LINE
  5
A0
  8
0
 62
     7
 10
85.808700000000002
 20
246.06099999999989
 30
0.0
 11
86.401300000000006
 21
248.273
 31
0.0
  0
LINE
  5
A1
  8
0
 62
     7
 10
86.401300000000006
 20
248.273
 30
0.0
 11
85.216200000000001
 21
248.273
 31
0.0
  0
LINE
  5
A2
  8
0
 62
     7
 10
86.401300000000006
 20
242.64599999999999
 30
0.0
 11
85.808700000000002
 21
244.858
 31
0.0
  0
LINE
  5
A3
  8
0
 62
     7
 10
85.808700000000002
 20
244.858
 30
0.0
 11
85.216200000000001
 21
242.64599999999999
 31
0.0
  0
LINE
  5
A4
  8
0
 62
     7
 10
85.216200000000001
 20
242.64599999999999
 30
0.0
 11
86.401300000000006
 21
242.64599999999999
 31
0.0
  0
LINE
  5
A5
  8
0
 62
     7
 10
85.808700000000002
 20
241.9909999999999
 30
0.0
 11
85.808700000000002
 21
251.51599999999991
 31
0.0
  0
LINE
  5
A6
  8
0
 62
     7
 10
76.463899999999995
 20
241.86799999999999
 30
0.0
 11
76.463899999999995
 21
248.60599999999999
 31
0.0
  0
ARC
  5
A7
  8
0
 62
     7
 10
63.618687999999992
 20
271.7182279999999
 30
0.0
 40
22.977257999999988
 50
254.78166999999999
 51
263.88225599999993
  0
LINE
  5
A8
  8
0
 62
     7
 10
61.170000000000002
 20
248.87200000000001
 30
0.0
 11
61.170099999999998
 21
248.8709999999999
 31
0.0
  0
ARC
  5
A9
  8
0
 62
     7
 10
62.019253999999997
 20
257.20202599999988
 30
0.0
 40
8.3743940000000006
 50
264.18044500000002
 51
284.19215000000003
  0
ARC
  5
AA
  8
0
 62
     7
 10
62.295581000000013
 20
255.82937299999989
 30
0.0
 40
6.9762250000000003
 50
284.75595600000003
 51
298.83508799999998
  0
LINE
  5
AB
  8
0
  6
AIGENLINE004
 62
     7
 10
52.570599999999999
 20
258.44
 30
0.0
 11
52.570599999999999
 21
259.01400000000001
 31
0.0
  0
LINE
  5
AC
  8
0
  6
AIGENLINE004
 62
     7
 10
50.796900000000001
 20
259.50099999999992
 30
0.0
 11
50.796900000000001
 21
258.92700000000002
 31
0.0
  0
LINE
  5
AD
  8
0
  6
AIGENLINE004
 62
     7
 10
50.796900000000001
 20
258.92700000000002
 30
0.0
 11
52.570599999999999
 21
258.44
 31
0.0
  0
LINE
  5
AE
  8
0
  6
AIGENLINE004
 62
     7
 10
52.570599999999999
 20
258.44
 30
0.0
 11
55.98449999999999
 21
260.55700000000002
 31
0.0
  0
LINE
  5
AF
  8
0
  6
AIGENLINE004
 62
     7
 10
55.98449999999999
 20
260.55700000000002
 30
0.0
 11
55.98449999999999
 21
261.13099999999991
 31
0.0
  0
LINE
  5
B0
  8
0
  6
AIGENLINE004
 62
     7
 10
52.570599999999999
 20
259.01400000000001
 30
0.0
 11
50.796900000000001
 21
259.50099999999992
 31
0.0
  0
LINE
  5
B1
  8
0
  6
AIGENLINE004
 62
     7
 10
50.796900000000001
 20
259.50099999999992
 30
0.0
 11
54.210599999999999
 21
261.61799999999988
 31
0.0
  0
LINE
  5
B2
  8
0
  6
AIGENLINE004
 62
     7
 10
54.210599999999999
 20
261.61799999999988
 30
0.0
 11
55.98449999999999
 21
261.13099999999991
 31
0.0
  0
LINE
  5
B3
  8
0
  6
AIGENLINE004
 62
     7
 10
55.98449999999999
 20
261.13099999999991
 30
0.0
 11
52.570599999999999
 21
259.01400000000001
 31
0.0
  0
LINE
  5
B4
  8
0
  6
AIGENLINE004
 62
     7
 10
73.396500000000003
 20
252.7229999999999
 30
0.0
 11
73.396500000000003
 21
253.29599999999999
 31
0.0
  0
LINE
  5
B5
  8
0
  6
AIGENLINE004
 62
     7
 10
71.622799999999984
 20
253.78299999999999
 30
0.0
 11
71.622799999999984
 21
253.209
 31
0.0
  0
LINE
  5
B6
  8
0
  6
AIGENLINE004
 62
     7
 10
71.622799999999984
 20
253.209
 30
0.0
 11
73.396500000000003
 21
252.7229999999999
 31
0.0
  0
LINE
  5
B7
  8
0
  6
AIGENLINE004
 62
     7
 10
73.396500000000003
 20
252.7229999999999
 30
0.0
 11
76.810400000000001
 21
254.83999999999989
 31
0.0
  0
LINE
  5
B8
  8
0
  6
AIGENLINE004
 62
     7
 10
76.810400000000001
 20
254.83999999999989
 30
0.0
 11
76.810400000000001
 21
255.4129999999999
 31
0.0
  0
LINE
  5
B9
  8
0
 62
     7
 10
76.463899999999995
 20
241.86799999999999
 30
0.0
 11
37.795699999999989
 21
252.43999999999991
 31
0.0
  0
LINE
  5
BA
  8
0
 62
     7
 10
37.795699999999989
 20
252.43999999999991
 30
0.0
 11
37.795699999999989
 21
259.17799999999988
 31
0.0
  0
LINE
  5
BB
  8
0
 62
     7
 10
65.804000000000002
 20
266.04700000000003
 30
0.0
 11
63.514499999999991
 21
266.05700000000002
 31
0.0
  0
LINE
  5
BC
  8
0
 62
     7
 10
63.514499999999991
 20
266.05700000000002
 30
0.0
 11
65.492500000000007
 21
264.90399999999988
 31
0.0
  0
LINE
  5
BD
  8
0
 62
     7
 10
65.492500000000007
 20
264.90399999999988
 30
0.0
 11
65.804000000000002
 21
266.04700000000003
 31
0.0
  0
LINE
  5
BE
  8
0
 62
     7
 10
79.612499999999983
 20
261.05799999999999
 30
0.0
 11
81.902000000000001
 21
261.04899999999998
 31
0.0
  0
LINE
  5
BF
  8
0
 62
     7
 10
81.902000000000001
 20
261.04899999999998
 30
0.0
 11
79.923999999999992
 21
262.202
 31
0.0
  0
LINE
  5
C0
  8
0
 62
     7
 10
79.923999999999992
 20
262.202
 30
0.0
 11
79.612499999999983
 21
261.05799999999999
 31
0.0
  0
LINE
  5
C1
  8
0
 62
     7
 10
69.673000000000002
 20
256.41300000000001
 30
0.0
 11
75.722999999999999
 21
257.2709999999999
 31
0.0
  0
LINE
  5
C2
  8
0
 62
     7
 10
57.5199
 20
262.27499999999992
 30
0.0
 11
58.718099999999993
 21
260.2709999999999
 31
0.0
  0
LINE
  5
C3
  8
0
 62
     7
 10
63.514499999999991
 20
266.05700000000002
 30
0.0
 11
81.902000000000001
 21
261.04899999999998
 31
0.0
  0
LINE
  5
C4
  8
0
 62
     7
 10
60.758600000000001
 20
248.26599999999999
 30
0.0
 11
91.267700000000005
 21
239.95699999999999
 31
0.0
  0
LINE
  5
C5
  8
0
 62
     7
 10
77.158100000000005
 20
241.679
 30
0.0
 11
94.932100000000005
 21
236.83799999999999
 31
0.0
  0
LINE
  5
C6
  8
0
 62
     7
 10
66.904499999999999
 20
250.05999999999989
 30
0.0
 11
86.383600000000001
 21
244.755
 31
0.0
  0
LINE
  5
C7
  8
0
 62
     7
 10
77.069900000000004
 20
248.441
 30
0.0
 11
94.995999999999995
 21
243.559
 31
0.0
  0
LINE
  5
C8
  8
0
 62
     7
 10
49.4283
 20
266.39099999999991
 30
0.0
 11
37.795699999999989
 21
259.17799999999988
 31
0.0
  0
LINE
  5
C9
  8
0
 62
     7
 10
88.141400000000004
 20
249.11000000000001
 30
0.0
 11
76.463899999999995
 21
241.86799999999999
 31
0.0
  0
LINE
  5
CA
  8
0
 62
     7
 10
99.554900000000004
 20
248.73099999999991
 30
0.0
 11
101.121
 21
250.39899999999989
 31
0.0
  0
LINE
  5
CB
  8
0
 62
     7
 10
101.121
 20
250.39899999999989
 30
0.0
 11
98.930499999999995
 21
249.73699999999999
 31
0.0
  0
LINE
  5
CC
  8
0
 62
     7
 10
98.930499999999995
 20
249.73699999999999
 30
0.0
 11
99.554900000000004
 21
248.73099999999991
 31
0.0
  0
LINE
  5
CD
  8
0
 62
     7
 10
104.8329999999999
 20
253.39699999999999
 30
0.0
 11
103.267
 21
251.72900000000001
 31
0.0
  0
LINE
  5
CE
  8
0
 62
     7
 10
103.267
 20
251.72900000000001
 30
0.0
 11
105.458
 21
252.3899999999999
 31
0.0
  0
LINE
  5
CF
  8
0
 62
     7
 10
105.458
 20
252.3899999999999
 30
0.0
 11
104.8329999999999
 21
253.39699999999999
 31
0.0
  0
LINE
  5
D0
  8
0
 62
     7
 10
93.154799999999994
 20
246.15499999999989
 30
0.0
 11
91.588300000000004
 21
244.48699999999991
 31
0.0
  0
LINE
  5
D1
  8
0
 62
     7
 10
91.588300000000004
 20
244.48699999999991
 30
0.0
 11
93.779200000000003
 21
245.149
 31
0.0
  0
LINE
  5
D2
  8
0
 62
     7
 10
93.779200000000003
 20
245.149
 30
0.0
 11
93.154799999999994
 21
246.15499999999989
 31
0.0
  0
LINE
  5
D3
  8
0
 62
     7
 10
109.38499999999991
 20
255.52299999999991
 30
0.0
 11
91.588300000000004
 21
244.48699999999991
 31
0.0
  0
LINE
  5
D4
  8
0
 62
     7
 10
88.141400000000004
 20
255.8479999999999
 30
0.0
 11
76.463899999999995
 21
248.60599999999999
 31
0.0
  0
LINE
  5
D5
  8
0
 62
     7
 10
49.4283
 20
266.39099999999991
 30
0.0
 11
88.141400000000004
 21
255.8479999999999
 31
0.0
  0
LINE
  5
D6
  8
0
 62
     7
 10
88.913300000000007
 20
255.63800000000001
 30
0.0
 11
103.943
 21
251.5449999999999
 31
0.0
  0
LINE
  5
D7
  8
0
 62
     7
 10
77.354399999999998
 20
256.87200000000001
 30
0.0
 11
101.687
 21
250.245
 31
0.0
  0
LINE
  5
D8
  8
0
 62
     7
 10
37.795699999999989
 20
259.17799999999988
 30
0.0
 11
47.958399999999997
 21
256.41000000000003
 31
0.0
  0
LINE
  5
D9
  8
0
 62
     7
 10
66.301100000000005
 20
251.374
 30
0.0
 11
76.463899999999995
 21
248.60599999999999
 31
0.0
  0
ARC
  5
DA
  8
0
 62
     7
 10
57.602263000000001
 20
261.19713999999988
 30
0.0
 40
0.243475
 50
74.590931999999995
 51
84.748160999999996
  0
ARC
  5
DB
  8
0
 62
     7
 10
57.581508999999997
 20
260.96927299999987
 30
0.0
 40
0.4722850000000001
 50
84.771210999999994
 51
104.26463800000001
  0
ARC
  5
DC
  8
0
 62
     7
 10
57.593589000000001
 20
260.85111799999999
 30
0.0
 40
0.5900300000000001
 50
102.574158
 51
120.5310529999999
  0
LINE
  5
DD
  8
0
 62
     7
 10
47.9557
 20
255.22099999999989
 30
0.0
 11
48.422800000000002
 21
255.51099999999991
 31
0.0
  0
LINE
  5
DE
  8
0
 62
     7
 10
48.42369999999999
 20
255.85900000000001
 30
0.0
 11
57.293900000000001
 21
261.35899999999998
 31
0.0
  0
LINE
  5
DF
  8
0
 62
     7
 10
66.661000000000001
 20
258.96299999999991
 30
0.0
 11
57.667000000000002
 21
261.43200000000002
 31
0.0
  0
LINE
  5
E0
  8
0
 62
     7
 10
66.661000000000001
 20
258.96299999999991
 30
0.0
 11
74.893100000000004
 21
256.70299999999992
 31
0.0
  0
ARC
  5
E1
  8
0
 62
     7
 10
57.601110999999989
 20
262.03279900000001
 30
0.0
 40
0.247888
 50
74.595780000000005
 51
84.574421999999998
  0
ARC
  5
E2
  8
0
 62
     7
 10
57.581212999999991
 20
261.80987599999992
 30
0.0
 40
0.471695
 50
84.728567999999996
 51
104.245751
  0
ARC
  5
E3
  8
0
 62
     7
 10
57.593721000000002
 20
261.69069200000001
 30
0.0
 40
0.5905430000000002
 50
102.576189
 51
120.516561
  0
LINE
  5
E4
  8
0
 62
     7
 10
47.958399999999997
 20
256.41000000000003
 30
0.0
 11
57.293900000000001
 21
262.19900000000001
 31
0.0
  0
LINE
  5
E5
  8
0
 62
     7
 10
66.661000000000001
 20
259.803
 30
0.0
 11
57.667000000000002
 21
262.27199999999999
 31
0.0
  0
ARC
  5
E6
  8
0
 62
     7
 10
75.615204000000006
 20
257.18498499999993
 30
0.0
 40
0.153701
 50
60.368868000000013
 51
75.147510999999994
  0
ARC
  5
E7
  8
0
 62
     7
 10
75.661007999999995
 20
257.26407399999999
 30
0.0
 40
0.062313
 50
5.9239790000000001
 51
61.022812000000009
  0
ARC
  5
E8
  8
0
 62
     7
 10
75.664284999999992
 20
257.26941599999998
 30
0.0
 40
0.058713
 50
339.93723199999988
 51
1.0627489999999991
  0
ARC
  5
E9
  8
0
 62
     7
 10
75.621339000000006
 20
257.28505999999987
 30
0.0
 40
0.10442
 50
320.31161500000002
 51
339.958125
  0
ARC
  5
EA
  8
0
 62
     7
 10
75.51723100000001
 20
257.371825
 30
0.0
 40
0.239944
 50
299.76344699999999
 51
320.24393300000003
  0
LINE
  5
EB
  8
0
 62
     7
 10
66.301100000000005
 20
251.374
 30
0.0
 11
75.636300000000006
 21
257.16399999999987
 31
0.0
  0
LINE
  5
EC
  8
0
 62
     7
 10
66.661000000000001
 20
259.803
 30
0.0
 11
75.654600000000002
 21
257.33399999999989
 31
0.0
  0
LINE
  5
ED
  8
0
  6
AIGENLINE004
 62
     7
 10
73.396500000000003
 20
253.29599999999999
 30
0.0
 11
71.622799999999984
 21
253.78299999999999
 31
0.0
  0
LINE
  5
EE
  8
0
  6
AIGENLINE004
 62
     7
 10
71.622799999999984
 20
253.78299999999999
 30
0.0
 11
75.036500000000004
 21
255.90000000000001
 31
0.0
  0
LINE
  5
EF
  8
0
  6
AIGENLINE004
 62
     7
 10
75.036500000000004
 20
255.90000000000001
 30
0.0
 11
76.810400000000001
 21
255.4129999999999
 31
0.0
  0
LINE
  5
F0
  8
0
  6
AIGENLINE004
 62
     7
 10
76.810400000000001
 20
255.4129999999999
 30
0.0
 11
73.396500000000003
 21
253.29599999999999
 31
0.0
  0
ARC
  5
F1
  8
0
 62
     7
 10
64.135579000000007
 20
273.59055000000001
 30
0.0
 40
24.919606999999989
 50
246.015467
 51
254.76492300000001
  0
LINE
  5
F2
  8
0
 62
     7
 10
54.006
 20
250.82299999999989
 30
0.0
 11
54.006
 21
250.822
 31
0.0
  0
ARC
  5
F3
  8
0
 62
     7
 10
58.946316000000003
 20
261.982462
 30
0.0
 40
12.204769000000001
 50
234.463112
 51
246.12232599999999
  0
ARC
  5
F4
  8
0
 62
     7
 10
59.893645999999997
 20
263.45197000000002
 30
0.0
 40
13.95143
 50
214.6948569999999
 51
234.80494999999999
  0
LINE
  5
F5
  8
0
 62
     7
 10
48.4253
 20
255.85900000000001
 30
0.0
 11
48.422800000000002
 21
255.51099999999991
 31
0.0
  0
ARC
  5
F6
  8
0
 62
     7
 10
63.155120999999987
 20
271.441891
 30
0.0
 40
22.990962
 50
254.78168799999989
 51
263.87691799999999
  0
LINE
  5
F7
  8
0
 62
     7
 10
60.702800000000003
 20
248.58199999999991
 30
0.0
 11
60.703000000000003
 21
248.5809999999999
 31
0.0
  0
ARC
  5
F8
  8
0
 62
     7
 10
61.548763999999998
 20
256.87964899999997
 30
0.0
 40
8.3414099999999998
 50
264.180364
 51
285.56860499999999
  0
ARC
  5
F9
  8
0
 62
     7
 10
61.869674000000003
 20
255.43228300000001
 30
0.0
 40
6.8614769999999998
 50
286.2310129999999
 51
299.99396699999988
  0
ARC
  5
FA
  8
0
 62
     7
 10
62.282720999999988
 20
254.63121699999991
 30
0.0
 40
5.961358999999999
 50
300.40464400000002
 51
312.34856400000001
  0
LINE
  5
FB
  8
0
 62
     7
 10
66.301100000000005
 20
251.36799999999991
 30
0.0
 11
66.298500000000004
 21
250.22499999999999
 31
0.0
  0
ARC
  5
FC
  8
0
 62
     7
 10
63.670015999999997
 20
273.30683199999999
 30
0.0
 40
24.925664000000001
 50
246.01721599999991
 51
254.764916
  0
LINE
  5
FD
  8
0
 62
     7
 10
53.538699999999999
 20
250.5329999999999
 30
0.0
 11
53.538699999999999
 21
250.5329999999999
 31
0.0
  0
ARC
  5
FE
  8
0
 62
     7
 10
58.477980000000002
 20
261.69063899999998
 30
0.0
 40
12.202294
 50
234.46111599999989
 51
246.12235000000001
  0
ARC
  5
FF
  8
0
 62
     7
 10
59.425696999999992
 20
263.16142400000001
 30
0.0
 40
13.95022
 50
214.69338300000001
 51
234.8049859999999
  0
LINE
  5
100
  8
0
 62
     7
 10
57.511899999999997
 20
262.05799999999988
 30
0.0
 11
57.509500000000003
 21
261.71299999999991
 31
0.0
  0
LINE
  5
101
  8
0
 62
     7
 10
47.957900000000002
 20
256.36399999999998
 30
0.0
 11
47.9557
 21
255.22099999999989
 31
0.0
  0
LINE
  5
102
  8
0
 62
     7
 10
48.059399999999989
 20
80.523399999999995
 30
0.0
 11
47.466799999999999
 21
82.734499999999997
 31
0.0
  0
LINE
  5
103
  8
0
 62
     7
 10
47.466799999999999
 20
82.734499999999997
 30
0.0
 11
46.874299999999991
 21
80.523399999999995
 31
0.0
  0
LINE
  5
104
  8
0
 62
     7
 10
46.874299999999991
 20
80.523399999999995
 30
0.0
 11
48.059399999999989
 21
80.523399999999995
 31
0.0
  0
LINE
  5
105
  8
0
 62
     7
 10
46.874299999999991
 20
87.546300000000002
 30
0.0
 11
47.466799999999999
 21
85.334500000000006
 31
0.0
  0
LINE
  5
106
  8
0
 62
     7
 10
47.466799999999999
 20
85.334500000000006
 30
0.0
 11
48.059399999999989
 21
87.546300000000002
 31
0.0
  0
LINE
  5
107
  8
0
 62
     7
 10
48.059399999999989
 20
87.546300000000002
 30
0.0
 11
46.874299999999991
 21
87.546300000000002
 31
0.0
  0
LINE
  5
108
  8
0
 62
     7
 10
47.466799999999999
 20
88.095399999999998
 30
0.0
 11
47.466799999999999
 21
79.844700000000003
 31
0.0
  0
LINE
  5
109
  8
0
 62
     7
 10
51.826599999999999
 20
85.334500000000006
 30
0.0
 11
46.766800000000003
 21
85.334500000000006
 31
0.0
  0
LINE
  5
10A
  8
0
 62
     7
 10
51.826599999999999
 20
82.734499999999997
 30
0.0
 11
46.766800000000003
 21
82.734499999999997
 31
0.0
  0
ARC
  5
10B
  8
0
 62
     7
 10
37.639727999999998
 20
128.45971099999991
 30
0.0
 40
0.3542969999999999
 50
272.10157099999992
 51
357.898439
  0
ARC
  5
10C
  8
0
 62
     7
 10
37.666109999999989
 20
128.46010799999999
 30
0.0
 40
0.354709
 50
182.163353
 51
267.83667700000001
  0
ARC
  5
10D
  8
0
 62
     7
 10
37.665721999999988
 20
128.43371599999989
 30
0.0
 40
0.354307
 50
92.103068000000007
 51
177.89690200000001
  0
ARC
  5
10E
  8
0
 62
     7
 10
37.639336
 20
128.433334
 30
0.0
 40
0.354703
 50
2.1624929999999991
 51
87.837496999999985
  0
LINE
  5
10F
  8
0
 62
     7
 10
37.652700000000003
 20
128.44699999999989
 30
0.0
 11
36.077100000000002
 21
138.58699999999999
 31
0.0
  0
ARC
  5
110
  8
0
 62
     7
 10
37.639727999999998
 20
120.411573
 30
0.0
 40
0.3542969999999999
 50
272.10157099999992
 51
357.898439
  0
ARC
  5
111
  8
0
 62
     7
 10
37.666109999999989
 20
120.4119699999999
 30
0.0
 40
0.354709
 50
182.163353
 51
267.83667700000001
  0
ARC
  5
112
  8
0
 62
     7
 10
37.665721999999988
 20
120.385578
 30
0.0
 40
0.354307
 50
92.103068000000007
 51
177.89690200000001
  0
ARC
  5
113
  8
0
 62
     7
 10
37.639336
 20
120.38519599999989
 30
0.0
 40
0.354703
 50
2.1624929999999991
 51
87.837496999999985
  0
LINE
  5
114
  8
0
 62
     7
 10
150.75399999999991
 20
248.76900000000001
 30
0.0
 11
148.476
 21
248.98400000000001
 31
0.0
  0
LINE
  5
115
  8
0
 62
     7
 10
148.476
 20
248.98400000000001
 30
0.0
 11
150.34100000000001
 21
247.65899999999999
 31
0.0
  0
LINE
  5
116
  8
0
 62
     7
 10
150.34100000000001
 20
247.65899999999999
 30
0.0
 11
150.75399999999991
 21
248.76900000000001
 31
0.0
  0
LINE
  5
117
  8
0
 62
     7
 10
148.476
 20
248.98400000000001
 30
0.0
 11
151.5
 21
247.86000000000001
 31
0.0
  0
LINE
  5
118
  8
0
 62
     7
 10
166.6879999999999
 20
137.94699999999989
 30
0.0
 11
169.0259999999999
 21
136.596
 31
0.0
  0
LINE
  5
119
  8
0
 62
     7
 10
169.0259999999999
 20
136.596
 30
0.0
 11
166.6879999999999
 21
135.24600000000001
 31
0.0
  0
LINE
  5
11A
  8
0
 62
     7
 10
166.6879999999999
 20
135.24600000000001
 30
0.0
 11
166.6879999999999
 21
137.94699999999989
 31
0.0
  0
LINE
  5
11B
  8
0
 62
     7
 10
90.139399999999995
 20
213.81499999999991
 30
0.0
 11
88.788899999999998
 21
211.477
 31
0.0
  0
LINE
  5
11C
  8
0
 62
     7
 10
88.788899999999998
 20
211.477
 30
0.0
 11
87.438500000000005
 21
213.81499999999991
 31
0.0
  0
LINE
  5
11D
  8
0
 62
     7
 10
87.438500000000005
 20
213.81499999999991
 30
0.0
 11
90.139399999999995
 21
213.81499999999991
 31
0.0
  0
LINE
  5
11E
  8
0
 62
     7
 10
159.816
 20
219.35599999999999
 30
0.0
 11
158.465
 21
217.017
 31
0.0
  0
LINE
  5
11F
  8
0
 62
     7
 10
158.465
 20
217.017
 30
0.0
 11
157.11500000000001
 21
219.35599999999999
 31
0.0
  0
LINE
  5
120
  8
0
 62
     7
 10
157.11500000000001
 20
219.35599999999999
 30
0.0
 11
159.816
 21
219.35599999999999
 31
0.0
  0
LINE
  5
121
  8
0
 62
     7
 10
141.131
 20
264.41599999999988
 30
0.0
 11
139.77999999999989
 21
262.07699999999988
 31
0.0
  0
LINE
  5
122
  8
0
 62
     7
 10
139.77999999999989
 20
262.07699999999988
 30
0.0
 11
138.43000000000001
 21
264.41599999999988
 31
0.0
  0
LINE
  5
123
  8
0
 62
     7
 10
138.43000000000001
 20
264.41599999999988
 30
0.0
 11
141.131
 21
264.41599999999988
 31
0.0
  0
ARC
  5
124
  8
0
  6
AIGENLINE003
 62
     7
 10
147.44808199999991
 20
249.62132
 30
0.0
 40
1.1950789999999989
 50
272.12332400000003
 51
357.87668599999989
  0
ARC
  5
125
  8
0
  6
AIGENLINE003
 62
     7
 10
147.535854
 20
249.62053499999999
 30
0.0
 40
1.194266
 50
182.087118
 51
267.91291100000001
  0
ARC
  5
126
  8
0
  6
AIGENLINE003
 62
     7
 10
147.5366379999999
 20
249.5327629999999
 30
0.0
 40
1.1950789999999989
 50
92.123304000000005
 51
177.876666
  0
ARC
  5
127
  8
0
  6
AIGENLINE003
 62
     7
 10
147.4488659999999
 20
249.533548
 30
0.0
 40
1.194266
 50
2.0871159999999991
 51
87.912873999999988
  0
LINE
  5
128
  8
0
 62
     7
 10
77.329099999999997
 20
68.454099999999997
 30
0.0
 11
80.206500000000005
 21
68.454099999999997
 31
0.0
  0
LINE
  5
129
  8
0
  6
AIGENLINE003
 62
     7
 10
78.267899999999983
 20
66.453900000000004
 30
0.0
 11
78.267899999999983
 21
65.854500000000002
 31
0.0
  0
LINE
  5
12A
  8
0
  6
AIGENLINE003
 62
     7
 10
79.267700000000005
 20
66.453900000000004
 30
0.0
 11
79.267700000000005
 21
65.854500000000002
 31
0.0
  0
ARC
  5
12B
  8
0
 62
     7
 10
79.472006000000007
 20
63.555439
 30
0.0
 40
0.265923
 50
323.92778199999992
 51
359.795502
  0
ARC
  5
12C
  8
0
 62
     7
 10
79.310885999999996
 20
63.658026
 30
0.0
 40
0.4567130000000001
 50
305.902219
 51
325.42704800000001
  0
ARC
  5
12D
  8
0
 62
     7
 10
79.086386000000005
 20
63.945538999999997
 30
0.0
 40
0.821358
 50
291.97899799999999
 51
306.82660199999992
  0
ARC
  5
12E
  8
0
 62
     7
 10
78.851254999999995
 20
64.484998000000004
 30
0.0
 40
1.4097049999999991
 50
275.51984599999992
 51
292.63503199999991
  0
ARC
  5
12F
  8
0
 62
     7
 10
78.769604000000001
 20
64.976606000000004
 30
0.0
 40
1.9071889999999989
 50
269.94529699999998
 51
276.54084799999998
  0
ARC
  5
130
  8
0
 62
     7
 10
78.767526000000004
 20
64.875215999999995
 30
0.0
 40
1.8057989999999999
 50
251.890209
 51
270.00817899999998
  0
ARC
  5
131
  8
0
 62
     7
 10
78.546711000000002
 20
64.131694999999993
 30
0.0
 40
1.030691
 50
237.79695499999991
 51
250.70945499999999
  0
ARC
  5
132
  8
0
 62
     7
 10
78.309577000000004
 20
63.746519999999997
 30
0.0
 40
0.5784150000000001
 50
219.76140599999991
 51
237.3398819999999
  0
ARC
  5
133
  8
0
 62
     7
 10
78.104241000000002
 20
63.568782999999989
 30
0.0
 40
0.306936
 50
182.66914199999999
 51
218.77242000000001
  0
LINE
  5
134
  8
0
 62
     7
 10
78.767799999999994
 20
69.054299999999984
 30
0.0
 11
79.944299999999998
 21
69.054299999999984
 31
0.0
  0
ARC
  5
135
  8
0
 62
     7
 10
79.944081000000011
 20
69.254281000000006
 30
0.0
 40
0.200006
 50
270.06011799999999
 51
308.14886799999999
  0
ARC
  5
136
  8
0
 62
     7
 10
80.431105000000002
 20
69.552385999999998
 30
0.0
 40
0.102038
 50
90.784859999999995
 51
153.06727599999991
  0
LINE
  5
137
  8
0
 62
     7
 10
80.691900000000004
 20
69.054299999999984
 30
0.0
 11
83.367699999999985
 21
69.054299999999984
 31
0.0
  0
LINE
  5
138
  8
0
 62
     7
 10
83.367699999999985
 20
69.054299999999984
 30
0.0
 11
83.367699999999985
 21
69.654399999999995
 31
0.0
  0
LINE
  5
139
  8
0
 62
     7
 10
83.367699999999985
 20
69.654399999999995
 30
0.0
 11
80.429699999999997
 21
69.654399999999995
 31
0.0
  0
LINE
  5
13A
  8
0
 62
     7
 10
80.340100000000007
 20
69.598600000000005
 30
0.0
 11
80.123099999999994
 21
69.164500000000004
 31
0.0
  0
LINE
  5
13B
  8
0
 62
     7
 10
78.767799999999994
 20
69.054299999999984
 30
0.0
 11
77.591300000000004
 21
69.054299999999984
 31
0.0
  0
ARC
  5
13C
  8
0
 62
     7
 10
77.591907999999975
 20
69.256501999999983
 30
0.0
 40
0.202228
 50
232.06892300000001
 51
269.82087699999988
  0
ARC
  5
13D
  8
0
 62
     7
 10
79.945696999999996
 20
69.253692999999984
 30
0.0
 40
0.198548
 50
307.88683399999991
 51
333.31185399999998
  0
ARC
  5
13E
  8
0
 62
     7
 10
77.592967999999999
 20
69.255600000000001
 30
0.0
 40
0.202173
 50
206.77652499999991
 51
231.67485400000001
  0
ARC
  5
13F
  8
0
 62
     7
 10
80.206138999999993
 20
68.655473999999998
 30
0.0
 40
0.201339
 50
270.09265099999988
 51
308.01758899999999
  0
ARC
  5
140
  8
0
 62
     7
 10
80.207115000000002
 20
68.652649999999994
 30
0.0
 40
0.198515
 50
308.29751099999999
 51
333.82047299999999
  0
ARC
  5
141
  8
0
 62
     7
 10
80.693252999999999
 20
68.951706999999999
 30
0.0
 40
0.102577
 50
90.766260999999986
 51
152.44871599999991
  0
LINE
  5
142
  8
0
 62
     7
 10
80.385299999999987
 20
68.565100000000001
 30
0.0
 11
80.6023
 21
68.999200000000002
 31
0.0
  0
ARC
  5
143
  8
0
 62
     7
 10
77.329734000000002
 20
68.656362000000001
 30
0.0
 40
0.202228
 50
232.06892300000001
 51
269.82087699999988
  0
ARC
  5
144
  8
0
 62
     7
 10
77.328733
 20
68.652878000000001
 30
0.0
 40
0.198868
 50
206.202607
 51
231.67944900000001
  0
ARC
  5
145
  8
0
 62
     7
 10
77.104496999999995
 20
69.552444999999992
 30
0.0
 40
0.101979
 50
26.912625999999989
 51
89.235197999999997
  0
ARC
  5
146
  8
0
 62
     7
 10
76.842318000000006
 20
68.951714999999993
 30
0.0
 40
0.102569
 50
27.548487999999988
 51
89.236494999999991
  0
LINE
  5
147
  8
0
 62
     7
 10
77.467600000000004
 20
65.854500000000002
 30
0.0
 11
80.067599999999985
 21
65.854500000000002
 31
0.0
  0
LINE
  5
148
  8
0
 62
     7
 10
77.467600000000004
 20
66.453900000000004
 30
0.0
 11
80.067599999999985
 21
66.453900000000004
 31
0.0
  0
LINE
  5
149
  8
0
 62
     7
 10
79.737899999999996
 20
63.554499999999997
 30
0.0
 11
77.797600000000003
 21
63.554499999999997
 31
0.0
  0
LINE
  5
14A
  8
0
 62
     7
 10
77.797600000000003
 20
63.554499999999997
 30
0.0
 11
77.797600000000003
 21
63.954099999999997
 31
0.0
  0
LINE
  5
14B
  8
0
 62
     7
 10
77.797600000000003
 20
63.954099999999997
 30
0.0
 11
79.737899999999996
 21
63.954099999999997
 31
0.0
  0
LINE
  5
14C
  8
0
 62
     7
 10
79.737899999999996
 20
63.954099999999997
 30
0.0
 11
79.737899999999996
 21
63.554499999999997
 31
0.0
  0
LINE
  5
14D
  8
0
 62
     7
 10
79.267700000000005
 20
68.454099999999997
 30
0.0
 11
79.267700000000005
 21
66.453900000000004
 31
0.0
  0
LINE
  5
14E
  8
0
 62
     7
 10
79.267700000000005
 20
65.854500000000002
 30
0.0
 11
79.267700000000005
 21
63.954099999999997
 31
0.0
  0
LINE
  5
14F
  8
0
 62
     7
 10
79.267700000000005
 20
63.954099999999997
 30
0.0
 11
78.267899999999983
 21
63.954099999999997
 31
0.0
  0
LINE
  5
150
  8
0
 62
     7
 10
78.267899999999983
 20
63.954099999999997
 30
0.0
 11
78.267899999999983
 21
65.854500000000002
 31
0.0
  0
LINE
  5
151
  8
0
 62
     7
 10
78.267899999999983
 20
66.453900000000004
 30
0.0
 11
78.267899999999983
 21
68.454099999999997
 31
0.0
  0
LINE
  5
152
  8
0
  6
AIGENLINE003
 62
     7
 10
77.467600000000004
 20
69.096999999999994
 30
0.0
 11
77.467600000000004
 21
68.454099999999997
 31
0.0
  0
LINE
  5
153
  8
0
  6
AIGENLINE003
 62
     7
 10
80.067599999999985
 20
69.096999999999994
 30
0.0
 11
80.067599999999985
 21
68.454099999999997
 31
0.0
  0
LINE
  5
154
  8
0
 62
     7
 10
80.067599999999985
 20
68.454099999999997
 30
0.0
 11
80.067599999999985
 21
65.854500000000002
 31
0.0
  0
LINE
  5
155
  8
0
 62
     7
 10
77.467600000000004
 20
68.454099999999997
 30
0.0
 11
77.467600000000004
 21
65.854500000000002
 31
0.0
  0
LINE
  5
156
  8
0
 62
     7
 10
76.843699999999998
 20
69.054299999999984
 30
0.0
 11
74.167900000000003
 21
69.054299999999984
 31
0.0
  0
LINE
  5
157
  8
0
 62
     7
 10
74.167900000000003
 20
69.054299999999984
 30
0.0
 11
74.167900000000003
 21
69.654399999999995
 31
0.0
  0
LINE
  5
158
  8
0
 62
     7
 10
74.167900000000003
 20
69.654399999999995
 30
0.0
 11
77.105900000000005
 21
69.654399999999995
 31
0.0
  0
LINE
  5
159
  8
0
 62
     7
 10
77.195400000000006
 20
69.598600000000005
 30
0.0
 11
77.412499999999994
 21
69.164500000000004
 31
0.0
  0
LINE
  5
15A
  8
0
 62
     7
 10
77.150300000000001
 20
68.565100000000001
 30
0.0
 11
76.933300000000003
 21
68.999200000000002
 31
0.0
  0
LINE
  5
15B
  8
0
 62
     7
 10
77.467600000000004
 20
69.096999999999994
 30
0.0
 11
77.467600000000004
 21
69.654399999999995
 31
0.0
  0
LINE
  5
15C
  8
0
 62
     7
 10
77.467600000000004
 20
69.654399999999995
 30
0.0
 11
80.067599999999985
 21
69.654399999999995
 31
0.0
  0
LINE
  5
15D
  8
0
 62
     7
 10
80.067599999999985
 20
69.654399999999995
 30
0.0
 11
80.067599999999985
 21
69.096999999999994
 31
0.0
  0
LINE
  5
15E
  8
0
  6
AIGENLINE002
 62
     7
 10
78.767799999999994
 20
61.999400000000001
 30
0.0
 11
78.767799999999994
 21
70.846400000000003
 31
0.0
  0
LINE
  5
15F
  8
0
 62
     7
 10
48.201500000000003
 20
63.6434
 30
0.0
 11
47.608899999999991
 21
65.854500000000002
 31
0.0
  0
LINE
  5
160
  8
0
 62
     7
 10
47.608899999999991
 20
65.854500000000002
 30
0.0
 11
47.016399999999997
 21
63.6434
 31
0.0
  0
LINE
  5
161
  8
0
 62
     7
 10
47.016399999999997
 20
63.6434
 30
0.0
 11
48.201500000000003
 21
63.6434
 31
0.0
  0
LINE
  5
162
  8
0
 62
     7
 10
47.016399999999997
 20
71.866200000000006
 30
0.0
 11
47.608899999999991
 21
69.654399999999995
 31
0.0
  0
LINE
  5
163
  8
0
 62
     7
 10
47.608899999999991
 20
69.654399999999995
 30
0.0
 11
48.201500000000003
 21
71.866200000000006
 31
0.0
  0
LINE
  5
164
  8
0
 62
     7
 10
48.201500000000003
 20
71.866200000000006
 30
0.0
 11
47.016399999999997
 21
71.866200000000006
 31
0.0
  0
LINE
  5
165
  8
0
 62
     7
 10
47.608899999999991
 20
73.150199999999998
 30
0.0
 11
47.608899999999991
 21
61.957700000000003
 31
0.0
  0
LINE
  5
166
  8
0
 62
     7
 10
41.24049999999999
 20
86.423900000000003
 30
0.0
 11
40.6479
 21
88.634900000000002
 31
0.0
  0
LINE
  5
167
  8
0
 62
     7
 10
40.6479
 20
88.634900000000002
 30
0.0
 11
40.055300000000003
 21
86.423900000000003
 31
0.0
  0
LINE
  5
168
  8
0
 62
     7
 10
40.055300000000003
 20
86.423900000000003
 30
0.0
 11
41.24049999999999
 21
86.423900000000003
 31
0.0
  0
LINE
  5
169
  8
0
 62
     7
 10
40.055300000000003
 20
81.646199999999993
 30
0.0
 11
40.6479
 21
79.434399999999997
 31
0.0
  0
LINE
  5
16A
  8
0
 62
     7
 10
40.6479
 20
79.434399999999997
 30
0.0
 11
41.24049999999999
 21
81.646199999999993
 31
0.0
  0
LINE
  5
16B
  8
0
 62
     7
 10
41.24049999999999
 20
81.646199999999993
 30
0.0
 11
40.055300000000003
 21
81.646199999999993
 31
0.0
  0
LINE
  5
16C
  8
0
 62
     7
 10
40.6479
 20
88.634900000000002
 30
0.0
 11
40.6479
 21
79.434399999999997
 31
0.0
  0
LINE
  5
16D
  8
0
 62
     7
 10
51.737000000000002
 20
69.654399999999995
 30
0.0
 11
46.908900000000003
 21
69.654399999999995
 31
0.0
  0
LINE
  5
16E
  8
0
 62
     7
 10
51.737000000000002
 20
65.854500000000002
 30
0.0
 11
46.908900000000003
 21
65.854500000000002
 31
0.0
  0
LINE
  5
16F
  8
0
 62
     7
 10
55.126699999999992
 20
88.634900000000002
 30
0.0
 11
39.947899999999997
 21
88.634900000000002
 31
0.0
  0
LINE
  5
170
  8
0
 62
     7
 10
55.126699999999992
 20
79.434399999999997
 30
0.0
 11
39.947899999999997
 21
79.434399999999997
 31
0.0
  0
LINE
  5
171
  8
0
 62
     7
 10
68.715599999999995
 20
73.376199999999997
 30
0.0
 11
70.926699999999997
 21
73.968699999999984
 31
0.0
  0
LINE
  5
172
  8
0
 62
     7
 10
70.926699999999997
 20
73.968699999999984
 30
0.0
 11
68.715599999999995
 21
74.561300000000003
 31
0.0
  0
LINE
  5
173
  8
0
 62
     7
 10
68.715599999999995
 20
74.561300000000003
 30
0.0
 11
68.715599999999995
 21
73.376199999999997
 31
0.0
  0
LINE
  5
174
  8
0
 62
     7
 10
54.738399999999999
 20
74.561300000000003
 30
0.0
 11
52.526699999999998
 21
73.968699999999984
 31
0.0
  0
LINE
  5
175
  8
0
 62
     7
 10
52.526699999999998
 20
73.968699999999984
 30
0.0
 11
54.738399999999999
 21
73.376199999999997
 31
0.0
  0
LINE
  5
176
  8
0
 62
     7
 10
54.738399999999999
 20
73.376199999999997
 30
0.0
 11
54.738399999999999
 21
74.561300000000003
 31
0.0
  0
LINE
  5
177
  8
0
 62
     7
 10
70.926699999999997
 20
73.968699999999984
 30
0.0
 11
52.526699999999998
 21
73.968699999999984
 31
0.0
  0
LINE
  5
178
  8
0
 62
     7
 10
70.926699999999997
 20
67.153899999999993
 30
0.0
 11
70.926699999999997
 21
74.668800000000005
 31
0.0
  0
LINE
  5
179
  8
0
 62
     7
 10
52.526699999999998
 20
70.299999999999997
 30
0.0
 11
52.526699999999998
 21
74.668800000000005
 31
0.0
  0
LINE
  5
17A
  8
0
 62
     7
 10
53.615699999999997
 20
91.702100000000002
 30
0.0
 11
55.826700000000002
 21
92.294700000000006
 31
0.0
  0
LINE
  5
17B
  8
0
 62
     7
 10
55.826700000000002
 20
92.294700000000006
 30
0.0
 11
53.615699999999997
 21
92.887299999999996
 31
0.0
  0
LINE
  5
17C
  8
0
 62
     7
 10
53.615699999999997
 20
92.887299999999996
 30
0.0
 11
53.615699999999997
 21
91.702100000000002
 31
0.0
  0
LINE
  5
17D
  8
0
 62
     7
 10
60.638500000000001
 20
92.887299999999996
 30
0.0
 11
58.4268
 21
92.294700000000006
 31
0.0
  0
LINE
  5
17E
  8
0
 62
     7
 10
58.4268
 20
92.294700000000006
 30
0.0
 11
60.638500000000001
 21
91.702100000000002
 31
0.0
  0
LINE
  5
17F
  8
0
 62
     7
 10
60.638500000000001
 20
91.702100000000002
 30
0.0
 11
60.638500000000001
 21
92.887299999999996
 31
0.0
  0
LINE
  5
180
  8
0
 62
     7
 10
61.997300000000003
 20
92.294700000000006
 30
0.0
 11
51.955500000000001
 21
92.294700000000006
 31
0.0
  0
ARC
  5
181
  8
0
 62
     7
 10
52.838436999999999
 20
69.342659999999995
 30
0.0
 40
0.311974
 50
92.148877999999968
 51
177.91683599999999
  0
ARC
  5
182
  8
0
 62
     7
 10
52.838388000000002
 20
66.166182999999975
 30
0.0
 40
0.31195
 50
182.20596499999999
 51
267.85988399999991
  0
ARC
  5
183
  8
0
 62
     7
 10
53.230522000000001
 20
66.557614000000001
 30
0.0
 40
0.103783
 50
182.10112099999989
 51
267.89890800000001
  0
ARC
  5
184
  8
0
 62
     7
 10
53.230522000000001
 20
68.950562000000005
 30
0.0
 40
0.103783
 50
92.101092000000008
 51
177.89887899999991
  0
LINE
  5
185
  8
0
 62
     7
 10
58.4268
 20
68.454099999999997
 30
0.0
 11
55.826700000000002
 21
68.454099999999997
 31
0.0
  0
LINE
  5
186
  8
0
 62
     7
 10
55.826700000000002
 20
68.454099999999997
 30
0.0
 11
55.826700000000002
 21
69.654399999999995
 31
0.0
  0
LINE
  5
187
  8
0
 62
     7
 10
58.4268
 20
68.454099999999997
 30
0.0
 11
58.4268
 21
69.654399999999995
 31
0.0
  0
LINE
  5
188
  8
0
 62
     7
 10
58.727200000000011
 20
69.054299999999984
 30
0.0
 11
58.727200000000011
 21
69.654399999999995
 31
0.0
  0
LINE
  5
189
  8
0
 62
     7
 10
70.926699999999997
 20
65.854500000000002
 30
0.0
 11
70.926699999999997
 21
66.453900000000004
 31
0.0
  0
LINE
  5
18A
  8
0
 62
     7
 10
53.126800000000003
 20
66.553799999999995
 30
0.0
 11
53.126800000000003
 21
68.954400000000007
 31
0.0
  0
LINE
  5
18B
  8
0
 62
     7
 10
52.526699999999998
 20
66.154200000000003
 30
0.0
 11
52.526699999999998
 21
69.353999999999999
 31
0.0
  0
LINE
  5
18C
  8
0
 62
     7
 10
53.226700000000001
 20
69.054299999999984
 30
0.0
 11
58.727200000000011
 21
69.054299999999984
 31
0.0
  0
LINE
  5
18D
  8
0
 62
     7
 10
52.826700000000002
 20
69.654399999999995
 30
0.0
 11
58.727200000000011
 21
69.654399999999995
 31
0.0
  0
LINE
  5
18E
  8
0
 62
     7
 10
53.226700000000001
 20
66.453900000000004
 30
0.0
 11
70.926699999999997
 21
66.453900000000004
 31
0.0
  0
LINE
  5
18F
  8
0
 62
     7
 10
52.826700000000002
 20
65.854500000000002
 30
0.0
 11
70.926699999999997
 21
65.854500000000002
 31
0.0
  0
ARC
  5
190
  8
0
 62
     7
 10
57.830812999999999
 20
63.555439
 30
0.0
 40
0.265923
 50
323.92778199999992
 51
359.795502
  0
ARC
  5
191
  8
0
 62
     7
 10
57.669693000000002
 20
63.658026
 30
0.0
 40
0.4567130000000001
 50
305.902219
 51
325.42704800000001
  0
ARC
  5
192
  8
0
 62
     7
 10
57.445193000000003
 20
63.945538999999997
 30
0.0
 40
0.821358
 50
291.97899799999999
 51
306.82660199999992
  0
ARC
  5
193
  8
0
 62
     7
 10
57.210062000000001
 20
64.484998000000004
 30
0.0
 40
1.4097049999999991
 50
275.51984599999992
 51
292.63503199999991
  0
ARC
  5
194
  8
0
 62
     7
 10
57.128411
 20
64.976606000000004
 30
0.0
 40
1.9071889999999989
 50
269.94529699999998
 51
276.54084799999998
  0
ARC
  5
195
  8
0
 62
     7
 10
57.126330000000003
 20
64.874459999999999
 30
0.0
 40
1.8050419999999989
 50
251.88638299999991
 51
270.00825099999992
  0
ARC
  5
196
  8
0
 62
     7
 10
56.905451999999997
 20
64.130786000000001
 30
0.0
 40
1.029771999999999
 50
237.78320199999999
 51
250.70239100000001
  0
ARC
  5
197
  8
0
 62
     7
 10
56.668689000000001
 20
63.746313999999998
 30
0.0
 40
0.5782890000000001
 50
219.7451889999999
 51
237.32143699999989
  0
ARC
  5
198
  8
0
 62
     7
 10
56.463391999999999
 20
63.568717999999997
 30
0.0
 40
0.306932
 50
182.656925
 51
218.75733699999989
  0
LINE
  5
199
  8
0
 62
     7
 10
58.096699999999998
 20
63.554499999999997
 30
0.0
 11
56.156799999999997
 21
63.554499999999997
 31
0.0
  0
LINE
  5
19A
  8
0
 62
     7
 10
56.156799999999997
 20
63.554499999999997
 30
0.0
 11
56.156799999999997
 21
63.954099999999997
 31
0.0
  0
LINE
  5
19B
  8
0
 62
     7
 10
56.156799999999997
 20
63.954099999999997
 30
0.0
 11
58.096699999999998
 21
63.954099999999997
 31
0.0
  0
LINE
  5
19C
  8
0
 62
     7
 10
58.096699999999998
 20
63.954099999999997
 30
0.0
 11
58.096699999999998
 21
63.554499999999997
 31
0.0
  0
LINE
  5
19D
  8
0
  6
AIGENLINE003
 62
     7
 10
56.6267
 20
68.454099999999997
 30
0.0
 11
56.6267
 21
69.054299999999984
 31
0.0
  0
LINE
  5
19E
  8
0
  6
AIGENLINE003
 62
     7
 10
57.6265
 20
69.054299999999984
 30
0.0
 11
57.6265
 21
68.454099999999997
 31
0.0
  0
LINE
  5
19F
  8
0
 62
     7
 10
56.6267
 20
66.453900000000004
 30
0.0
 11
56.6267
 21
68.454099999999997
 31
0.0
  0
LINE
  5
1A0
  8
0
 62
     7
 10
57.6265
 20
68.454099999999997
 30
0.0
 11
57.6265
 21
66.453900000000004
 31
0.0
  0
LINE
  5
1A1
  8
0
 62
     7
 10
57.6265
 20
65.854500000000002
 30
0.0
 11
57.6265
 21
63.954099999999997
 31
0.0
  0
LINE
  5
1A2
  8
0
 62
     7
 10
57.6265
 20
63.954099999999997
 30
0.0
 11
56.6267
 21
63.954099999999997
 31
0.0
  0
LINE
  5
1A3
  8
0
 62
     7
 10
56.6267
 20
63.954099999999997
 30
0.0
 11
56.6267
 21
65.854500000000002
 31
0.0
  0
LINE
  5
1A4
  8
0
 62
     7
 10
58.727200000000011
 20
82.734800000000007
 30
0.0
 11
58.727200000000011
 21
85.334500000000006
 31
0.0
  0
LINE
  5
1A5
  8
0
  6
AIGENLINE002
 62
     7
 10
57.126600000000003
 20
78.176900000000003
 30
0.0
 11
57.126600000000003
 21
90.187999999999974
 31
0.0
  0
LINE
  5
1A6
  8
0
  6
AIGENLINE002
 62
     7
 10
56.1265
 20
87.334800000000001
 30
0.0
 11
58.1267
 21
87.334800000000001
 31
0.0
  0
ARC
  5
1A7
  8
0
 62
     7
 10
57.1053
 20
87.355688000000015
 30
0.0
 40
0.571858
 50
272.133599
 51
357.90227700000003
  0
ARC
  5
1A8
  8
0
 62
     7
 10
57.147565
 20
87.355016000000006
 30
0.0
 40
0.5711750000000001
 50
182.03276600000001
 51
267.895509
  0
ARC
  5
1A9
  8
0
 62
     7
 10
57.147516000000003
 20
87.31383000000001
 30
0.0
 40
0.5711500000000001
 50
92.099688999999984
 51
177.90028100000001
  0
ARC
  5
1AA
  8
0
 62
     7
 10
57.105673000000003
 20
87.31348100000001
 30
0.0
 40
0.571498
 50
2.1334080000000002
 51
87.902471000000006
  0
LINE
  5
1AB
  8
0
  6
AIGENLINE002
 62
     7
 10
56.1265
 20
80.7346
 30
0.0
 11
58.1267
 21
80.7346
 31
0.0
  0
LINE
  5
1AC
  8
0
  6
AIGENLINE002
 62
     7
 10
51.526899999999991
 20
84.034300000000002
 30
0.0
 11
72.0715
 21
84.034300000000002
 31
0.0
  0
ARC
  5
1AD
  8
0
 62
     7
 10
57.105996999999988
 20
80.755550999999997
 30
0.0
 40
0.571163
 50
272.06623799999988
 51
357.89788299999998
  0
ARC
  5
1AE
  8
0
 62
     7
 10
57.147516000000003
 20
80.755527000000015
 30
0.0
 40
0.5711500000000001
 50
182.09971899999999
 51
267.90031099999999
  0
ARC
  5
1AF
  8
0
 62
     7
 10
57.147516000000003
 20
80.713673999999983
 30
0.0
 40
0.5711500000000001
 50
92.099688999999984
 51
177.90028100000001
  0
ARC
  5
1B0
  8
0
 62
     7
 10
57.105673000000003
 20
80.713325999999995
 30
0.0
 40
0.571498
 50
2.1334080000000002
 51
87.902471000000006
  0
LINE
  5
1B1
  8
0
 62
     7
 10
70.926699999999997
 20
82.734800000000007
 30
0.0
 11
52.526699999999998
 21
82.734800000000007
 31
0.0
  0
LINE
  5
1B2
  8
0
 62
     7
 10
52.526699999999998
 20
82.734800000000007
 30
0.0
 11
52.526699999999998
 21
85.334500000000006
 31
0.0
  0
LINE
  5
1B3
  8
0
 62
     7
 10
52.526699999999998
 20
85.334500000000006
 30
0.0
 11
70.926699999999997
 21
85.334500000000006
 31
0.0
  0
LINE
  5
1B4
  8
0
 62
     7
 10
70.926699999999997
 20
85.334500000000006
 30
0.0
 11
70.926699999999997
 21
82.734800000000007
 31
0.0
  0
LINE
  5
1B5
  8
0
 62
     7
 10
55.826700000000002
 20
85.334500000000006
 30
0.0
 11
55.826700000000002
 21
88.634900000000002
 31
0.0
  0
LINE
  5
1B6
  8
0
 62
     7
 10
55.826700000000002
 20
88.634900000000002
 30
0.0
 11
58.4268
 21
88.634900000000002
 31
0.0
  0
LINE
  5
1B7
  8
0
 62
     7
 10
58.4268
 20
88.634900000000002
 30
0.0
 11
58.4268
 21
85.334500000000006
 31
0.0
  0
LINE
  5
1B8
  8
0
  6
AIGENLINE003
 62
     7
 10
58.4268
 20
85.334500000000006
 30
0.0
 11
58.4268
 21
82.734800000000007
 31
0.0
  0
LINE
  5
1B9
  8
0
 62
     7
 10
58.4268
 20
82.734800000000007
 30
0.0
 11
58.4268
 21
79.434399999999997
 31
0.0
  0
LINE
  5
1BA
  8
0
 62
     7
 10
58.4268
 20
79.434399999999997
 30
0.0
 11
55.826700000000002
 21
79.434399999999997
 31
0.0
  0
LINE
  5
1BB
  8
0
 62
     7
 10
55.826700000000002
 20
79.434399999999997
 30
0.0
 11
55.826700000000002
 21
82.734800000000007
 31
0.0
  0
LINE
  5
1BC
  8
0
  6
AIGENLINE003
 62
     7
 10
55.826700000000002
 20
82.734800000000007
 30
0.0
 11
55.826700000000002
 21
85.334500000000006
 31
0.0
  0
LINE
  5
1BD
  8
0
 62
     7
 10
58.4268
 20
89.334999999999994
 30
0.0
 11
58.4268
 21
92.994699999999995
 31
0.0
  0
LINE
  5
1BE
  8
0
 62
     7
 10
55.826700000000002
 20
89.334999999999994
 30
0.0
 11
55.826700000000002
 21
92.994699999999995
 31
0.0
  0
LINE
  5
1BF
  8
0
 62
     7
 10
139.06
 20
214.77799999999999
 30
0.0
 11
137.399
 21
213.20500000000001
 31
0.0
  0
LINE
  5
1C0
  8
0
 62
     7
 10
137.399
 20
213.20500000000001
 30
0.0
 11
138.05099999999999
 21
215.39699999999999
 31
0.0
  0
LINE
  5
1C1
  8
0
 62
     7
 10
138.05099999999999
 20
215.39699999999999
 30
0.0
 11
139.06
 21
214.77799999999999
 31
0.0
  0
LINE
  5
1C2
  8
0
 62
     7
 10
144.19200000000001
 20
224.26699999999991
 30
0.0
 11
137.399
 21
213.20500000000001
 31
0.0
  0
LINE
  5
1C3
  8
0
 62
     7
 10
149.67500000000001
 20
213.2109999999999
 30
0.0
 11
150.59
 21
211.114
 31
0.0
  0
LINE
  5
1C4
  8
0
 62
     7
 10
150.59
 20
211.114
 30
0.0
 11
150.846
 21
213.38799999999989
 31
0.0
  0
LINE
  5
1C5
  8
0
 62
     7
 10
150.846
 20
213.38799999999989
 30
0.0
 11
149.67500000000001
 21
213.2109999999999
 31
0.0
  0
LINE
  5
1C6
  8
0
 62
     7
 10
147.49299999999999
 20
224.73699999999999
 30
0.0
 11
148.78999999999991
 21
216.12700000000001
 31
0.0
  0
LINE
  5
1C7
  8
0
 62
     7
 10
148.78999999999991
 20
216.12700000000001
 30
0.0
 11
149.34499999999991
 21
219.375
 31
0.0
  0
LINE
  5
1C8
  8
0
 62
     7
 10
149.34499999999991
 20
219.375
 30
0.0
 11
150.59
 21
211.114
 31
0.0
  0
LINE
  5
1C9
  8
0
 62
     7
 10
144.19200000000001
 20
223.82599999999991
 30
0.0
 11
144.19200000000001
 21
224.709
 31
0.0
  0
LINE
  5
1CA
  8
0
 62
     7
 10
143.751
 20
224.26699999999991
 30
0.0
 11
144.63399999999999
 21
224.26699999999991
 31
0.0
  0
ARC
  5
1CB
  8
0
 62
     7
 10
143.387338
 20
117.4442269999999
 30
0.0
 40
0.861003
 50
182.098659
 51
267.90137099999993
  0
ARC
  5
1CC
  8
0
 62
     7
 10
146.39931799999991
 20
222.270197
 30
0.0
 40
104.312727
 50
267.61308199999991
 51
267.87252799999999
  0
LINE
  5
1CD
  8
0
 62
     7
 10
142.52699999999999
 20
117.4129999999999
 30
0.0
 11
142.52699999999999
 21
118.029
 31
0.0
  0
ARC
  5
1CE
  8
0
 62
     7
 10
160.90895199999991
 20
266.81133399999999
 30
0.0
 40
0.233821
 50
272.04450700000001
 51
357.823939
  0
ARC
  5
1CF
  8
0
 62
     7
 10
160.92613099999991
 20
266.81147199999998
 30
0.0
 40
0.233977
 50
182.20850999999999
 51
267.83540799999997
  0
ARC
  5
1D0
  8
0
 62
     7
 10
160.9263179999999
 20
266.79360999999989
 30
0.0
 40
0.234158
 50
92.208694999999963
 51
177.83512899999991
  0
ARC
  5
1D1
  8
0
 62
     7
 10
160.9084399999999
 20
266.79342300000002
 30
0.0
 40
0.234338
 50
2.2089199999999991
 51
87.834890000000016
  0
LINE
  5
1D2
  8
0
 62
     7
 10
142.03100000000001
 20
129.87299999999991
 30
0.0
 11
141.43899999999999
 21
132.084
 31
0.0
  0
LINE
  5
1D3
  8
0
 62
     7
 10
141.43899999999999
 20
132.084
 30
0.0
 11
140.846
 21
129.87299999999991
 31
0.0
  0
LINE
  5
1D4
  8
0
 62
     7
 10
140.846
 20
129.87299999999991
 30
0.0
 11
142.03100000000001
 21
129.87299999999991
 31
0.0
  0
LINE
  5
1D5
  8
0
 62
     7
 10
140.8609999999999
 20
121.795
 30
0.0
 11
141.453
 21
119.584
 31
0.0
  0
LINE
  5
1D6
  8
0
 62
     7
 10
141.453
 20
119.584
 30
0.0
 11
142.0449999999999
 21
121.795
 31
0.0
  0
LINE
  5
1D7
  8
0
 62
     7
 10
142.0449999999999
 20
121.795
 30
0.0
 11
140.8609999999999
 21
121.795
 31
0.0
  0
LINE
  5
1D8
  8
0
 62
     7
 10
141.453
 20
132.084
 30
0.0
 11
141.453
 21
119.584
 31
0.0
  0
LINE
  5
1D9
  8
0
 62
     7
 10
163.816
 20
87.5501
 30
0.0
 11
166.0259999999999
 21
88.142300000000006
 31
0.0
  0
LINE
  5
1DA
  8
0
 62
     7
 10
166.0259999999999
 20
88.142300000000006
 30
0.0
 11
163.816
 21
88.734499999999997
 31
0.0
  0
LINE
  5
1DB
  8
0
 62
     7
 10
163.816
 20
88.734499999999997
 30
0.0
 11
163.816
 21
87.5501
 31
0.0
  0
LINE
  5
1DC
  8
0
 62
     7
 10
122.73699999999999
 20
88.719999999999985
 30
0.0
 11
120.527
 21
88.127799999999993
 31
0.0
  0
LINE
  5
1DD
  8
0
 62
     7
 10
120.527
 20
88.127799999999993
 30
0.0
 11
122.73699999999999
 21
87.535600000000002
 31
0.0
  0
LINE
  5
1DE
  8
0
 62
     7
 10
122.73699999999999
 20
87.535600000000002
 30
0.0
 11
122.73699999999999
 21
88.719999999999985
 31
0.0
  0
LINE
  5
1DF
  8
0
 62
     7
 10
166.02699999999999
 20
88.135400000000004
 30
0.0
 11
120.527
 21
88.135400000000004
 31
0.0
  0
LINE
  5
1E0
  8
0
 62
     7
 10
163.816
 20
94.286699999999996
 30
0.0
 11
166.0259999999999
 21
94.878900000000002
 31
0.0
  0
LINE
  5
1E1
  8
0
 62
     7
 10
166.0259999999999
 20
94.878900000000002
 30
0.0
 11
163.816
 21
95.471100000000007
 31
0.0
  0
LINE
  5
1E2
  8
0
 62
     7
 10
163.816
 20
95.471100000000007
 30
0.0
 11
163.816
 21
94.286699999999996
 31
0.0
  0
LINE
  5
1E3
  8
0
 62
     7
 10
137.23699999999991
 20
95.456599999999995
 30
0.0
 11
135.02699999999999
 21
94.864399999999989
 31
0.0
  0
LINE
  5
1E4
  8
0
 62
     7
 10
135.02699999999999
 20
94.864399999999989
 30
0.0
 11
137.23699999999991
 21
94.272199999999998
 31
0.0
  0
LINE
  5
1E5
  8
0
 62
     7
 10
137.23699999999991
 20
94.272199999999998
 30
0.0
 11
137.23699999999991
 21
95.456599999999995
 31
0.0
  0
LINE
  5
1E6
  8
0
 62
     7
 10
166.02699999999999
 20
94.871300000000005
 30
0.0
 11
135.02699999999999
 21
94.871300000000005
 31
0.0
  0
LINE
  5
1E7
  8
0
 62
     7
 10
163.816
 20
100.6729999999999
 30
0.0
 11
166.0259999999999
 21
101.265
 31
0.0
  0
LINE
  5
1E8
  8
0
 62
     7
 10
166.0259999999999
 20
101.265
 30
0.0
 11
163.816
 21
101.8579999999999
 31
0.0
  0
LINE
  5
1E9
  8
0
 62
     7
 10
163.816
 20
101.8579999999999
 30
0.0
 11
163.816
 21
100.6729999999999
 31
0.0
  0
LINE
  5
1EA
  8
0
 62
     7
 10
145.23799999999989
 20
101.8429999999999
 30
0.0
 11
143.02699999999999
 21
101.251
 31
0.0
  0
LINE
  5
1EB
  8
0
 62
     7
 10
143.02699999999999
 20
101.251
 30
0.0
 11
145.23799999999989
 21
100.6579999999999
 31
0.0
  0
LINE
  5
1EC
  8
0
 62
     7
 10
145.23799999999989
 20
100.6579999999999
 30
0.0
 11
145.23799999999989
 21
101.8429999999999
 31
0.0
  0
LINE
  5
1ED
  8
0
 62
     7
 10
166.02699999999999
 20
101.25699999999991
 30
0.0
 11
143.02699999999999
 21
101.25699999999991
 31
0.0
  0
LINE
  5
1EE
  8
0
 62
     7
 10
132.816
 20
106.001
 30
0.0
 11
135.02699999999999
 21
106.59399999999989
 31
0.0
  0
LINE
  5
1EF
  8
0
 62
     7
 10
135.02699999999999
 20
106.59399999999989
 30
0.0
 11
132.816
 21
107.18600000000001
 31
0.0
  0
LINE
  5
1F0
  8
0
 62
     7
 10
132.816
 20
107.18600000000001
 30
0.0
 11
132.816
 21
106.001
 31
0.0
  0
LINE
  5
1F1
  8
0
 62
     7
 10
139.23799999999989
 20
107.179
 30
0.0
 11
137.02699999999999
 21
106.587
 31
0.0
  0
LINE
  5
1F2
  8
0
 62
     7
 10
137.02699999999999
 20
106.587
 30
0.0
 11
139.23799999999989
 21
105.995
 31
0.0
  0
LINE
  5
1F3
  8
0
 62
     7
 10
139.23799999999989
 20
105.995
 30
0.0
 11
139.23799999999989
 21
107.179
 31
0.0
  0
LINE
  5
1F4
  8
0
 62
     7
 10
140.495
 20
106.59399999999989
 30
0.0
 11
124.587
 21
106.59399999999989
 31
0.0
  0
LINE
  5
1F5
  8
0
 62
     7
 10
161.316
 20
106.0089999999999
 30
0.0
 11
163.52699999999999
 21
106.6009999999999
 31
0.0
  0
LINE
  5
1F6
  8
0
 62
     7
 10
163.52699999999999
 20
106.6009999999999
 30
0.0
 11
161.316
 21
107.193
 31
0.0
  0
LINE
  5
1F7
  8
0
 62
     7
 10
161.316
 20
107.193
 30
0.0
 11
161.316
 21
106.0089999999999
 31
0.0
  0
LINE
  5
1F8
  8
0
 62
     7
 10
168.23699999999991
 20
107.179
 30
0.0
 11
166.0259999999999
 21
106.587
 31
0.0
  0
LINE
  5
1F9
  8
0
 62
     7
 10
166.0259999999999
 20
106.587
 30
0.0
 11
168.23699999999991
 21
105.995
 31
0.0
  0
LINE
  5
1FA
  8
0
 62
     7
 10
168.23699999999991
 20
105.995
 30
0.0
 11
168.23699999999991
 21
107.179
 31
0.0
  0
LINE
  5
1FB
  8
0
 62
     7
 10
172.50599999999989
 20
106.59399999999989
 30
0.0
 11
160.0739999999999
 21
106.59399999999989
 31
0.0
  0
LINE
  5
1FC
  8
0
 62
     7
 10
143.02699999999999
 20
112.3589999999999
 30
0.0
 11
143.02699999999999
 21
100.55
 31
0.0
  0
LINE
  5
1FD
  8
0
 62
     7
 10
120.527
 20
124.6329999999999
 30
0.0
 11
120.527
 21
87.434700000000007
 31
0.0
  0
LINE
  5
1FE
  8
0
 62
     7
 10
135.02699999999999
 20
113.06699999999999
 30
0.0
 11
135.02699999999999
 21
94.164399999999986
 31
0.0
  0
LINE
  5
1FF
  8
0
 62
     7
 10
137.02699999999999
 20
113.3829999999999
 30
0.0
 11
137.02699999999999
 21
105.8869999999999
 31
0.0
  0
LINE
  5
200
  8
0
 62
     7
 10
163.52699999999999
 20
115.884
 30
0.0
 11
163.52699999999999
 21
105.901
 31
0.0
  0
LINE
  5
201
  8
0
  6
AIGENLINE001
 62
     7
 10
137.02699999999999
 20
127.0839999999999
 30
0.0
 11
137.02699999999999
 21
114.083
 31
0.0
  0
LINE
  5
202
  8
0
  6
AIGENLINE001
 62
     7
 10
137.02699999999999
 20
114.083
 30
0.0
 11
135.02699999999999
 21
114.083
 31
0.0
  0
LINE
  5
203
  8
0
  6
AIGENLINE001
 62
     7
 10
135.02699999999999
 20
114.083
 30
0.0
 11
135.02699999999999
 21
127.0839999999999
 31
0.0
  0
LINE
  5
204
  8
0
  6
AIGENLINE001
 62
     7
 10
169.0259999999999
 20
141.12299999999991
 30
0.0
 11
169.0259999999999
 21
112.16800000000001
 31
0.0
  0
LINE
  5
205
  8
0
 62
     7
 10
166.0259999999999
 20
129.3839999999999
 30
0.0
 11
166.0259999999999
 21
87.434700000000007
 31
0.0
  0
LINE
  5
206
  8
0
 62
     7
 10
176.03599999999989
 20
127.87299999999991
 30
0.0
 11
175.44399999999999
 21
130.08399999999989
 31
0.0
  0
LINE
  5
207
  8
0
 62
     7
 10
175.44399999999999
 20
130.08399999999989
 30
0.0
 11
174.852
 21
127.87299999999991
 31
0.0
  0
LINE
  5
208
  8
0
 62
     7
 10
174.852
 20
127.87299999999991
 30
0.0
 11
176.03599999999989
 21
127.87299999999991
 31
0.0
  0
LINE
  5
209
  8
0
 62
     7
 10
174.8659999999999
 20
134.2939999999999
 30
0.0
 11
175.45799999999991
 21
132.084
 31
0.0
  0
LINE
  5
20A
  8
0
 62
     7
 10
175.45799999999991
 20
132.084
 30
0.0
 11
176.05099999999999
 21
134.2939999999999
 31
0.0
  0
LINE
  5
20B
  8
0
 62
     7
 10
176.05099999999999
 20
134.2939999999999
 30
0.0
 11
174.8659999999999
 21
134.2939999999999
 31
0.0
  0
LINE
  5
20C
  8
0
 62
     7
 10
175.45099999999991
 20
139.94399999999999
 30
0.0
 11
175.45099999999991
 21
125.6129999999999
 31
0.0
  0
LINE
  5
20D
  8
0
 62
     7
 10
166.727
 20
130.08399999999989
 30
0.0
 11
176.1579999999999
 21
130.08399999999989
 31
0.0
  0
LINE
  5
20E
  8
0
 62
     7
 10
183.124
 20
129.87299999999991
 30
0.0
 11
182.5319999999999
 21
132.084
 31
0.0
  0
LINE
  5
20F
  8
0
 62
     7
 10
182.5319999999999
 20
132.084
 30
0.0
 11
181.93899999999999
 21
129.87299999999991
 31
0.0
  0
LINE
  5
210
  8
0
 62
     7
 10
181.93899999999999
 20
129.87299999999991
 30
0.0
 11
183.124
 21
129.87299999999991
 31
0.0
  0
LINE
  5
211
  8
0
 62
     7
 10
181.95400000000001
 20
117.294
 30
0.0
 11
182.54599999999991
 21
115.084
 31
0.0
  0
LINE
  5
212
  8
0
 62
     7
 10
182.54599999999991
 20
115.084
 30
0.0
 11
183.13800000000001
 21
117.294
 31
0.0
  0
LINE
  5
213
  8
0
 62
     7
 10
183.13800000000001
 20
117.294
 30
0.0
 11
181.95400000000001
 21
117.294
 31
0.0
  0
LINE
  5
214
  8
0
 62
     7
 10
182.53899999999999
 20
132.08500000000001
 30
0.0
 11
182.53899999999999
 21
115.084
 31
0.0
  0
LINE
  5
215
  8
0
 62
     7
 10
146.977
 20
115.084
 30
0.0
 11
183.23099999999991
 21
115.084
 31
0.0
  0
LINE
  5
216
  8
0
 62
     7
 10
166.727
 20
132.084
 30
0.0
 11
183.23099999999991
 21
132.084
 31
0.0
  0
LINE
  5
217
  8
0
 62
     7
 10
56.215400000000002
 20
108.074
 30
0.0
 11
43.940600000000003
 21
108.074
 31
0.0
  0
LINE
  5
218
  8
0
 62
     7
 10
54.0837
 20
138.58699999999999
 30
0.0
 11
36.077100000000002
 21
138.58699999999999
 31
0.0
  0
LINE
  5
219
  8
0
 62
     7
 10
37.652700000000003
 20
120.399
 30
0.0
 11
43.940600000000003
 21
108.074
 31
0.0
  0
LINE
  5
21A
  8
0
 62
     7
 10
32.2134
 20
127.87299999999991
 30
0.0
 11
31.620999999999999
 21
130.08399999999989
 31
0.0
  0
LINE
  5
21B
  8
0
 62
     7
 10
31.620999999999999
 20
130.08399999999989
 30
0.0
 11
31.028600000000001
 21
127.87299999999991
 31
0.0
  0
LINE
  5
21C
  8
0
 62
     7
 10
31.028600000000001
 20
127.87299999999991
 30
0.0
 11
32.2134
 21
127.87299999999991
 31
0.0
  0
LINE
  5
21D
  8
0
 62
     7
 10
31.035299999999999
 20
116.294
 30
0.0
 11
31.627700000000001
 21
114.083
 31
0.0
  0
LINE
  5
21E
  8
0
 62
     7
 10
31.627700000000001
 20
114.083
 30
0.0
 11
32.220100000000002
 21
116.294
 31
0.0
  0
LINE
  5
21F
  8
0
 62
     7
 10
32.220100000000002
 20
116.294
 30
0.0
 11
31.035299999999999
 21
116.294
 31
0.0
  0
LINE
  5
220
  8
0
 62
     7
 10
31.620999999999999
 20
130.08399999999989
 30
0.0
 11
31.620999999999999
 21
114.083
 31
0.0
  0
LINE
  5
221
  8
0
 62
     7
 10
30.927700000000002
 20
114.083
 30
0.0
 11
35.326599999999992
 21
114.083
 31
0.0
  0
LINE
  5
222
  8
0
 62
     7
 10
30.9208
 20
130.08399999999989
 30
0.0
 11
35.326599999999992
 21
130.08399999999989
 31
0.0
  0
LINE
  5
223
  8
0
 62
     7
 10
105.1609999999999
 20
129.87299999999991
 30
0.0
 11
104.5679999999999
 21
132.084
 31
0.0
  0
LINE
  5
224
  8
0
 62
     7
 10
104.5679999999999
 20
132.084
 30
0.0
 11
103.976
 21
129.87299999999991
 31
0.0
  0
LINE
  5
225
  8
0
 62
     7
 10
103.976
 20
129.87299999999991
 30
0.0
 11
105.1609999999999
 21
129.87299999999991
 31
0.0
  0
LINE
  5
226
  8
0
 62
     7
 10
103.991
 20
117.294
 30
0.0
 11
104.583
 21
115.083
 31
0.0
  0
LINE
  5
227
  8
0
 62
     7
 10
104.583
 20
115.083
 30
0.0
 11
105.1749999999999
 21
117.294
 31
0.0
  0
LINE
  5
228
  8
0
 62
     7
 10
105.1749999999999
 20
117.294
 30
0.0
 11
103.991
 21
117.294
 31
0.0
  0
LINE
  5
229
  8
0
 62
     7
 10
104.57599999999999
 20
132.08500000000001
 30
0.0
 11
104.57599999999999
 21
115.083
 31
0.0
  0
LINE
  5
22A
  8
0
 62
     7
 10
172.23699999999991
 20
219.227
 30
0.0
 11
171.64500000000001
 21
217.017
 31
0.0
  0
LINE
  5
22B
  8
0
 62
     7
 10
171.64500000000001
 20
217.017
 30
0.0
 11
171.053
 21
219.227
 31
0.0
  0
LINE
  5
22C
  8
0
 62
     7
 10
171.053
 20
219.227
 30
0.0
 11
172.23699999999991
 21
219.227
 31
0.0
  0
LINE
  5
22D
  8
0
 62
     7
 10
171.06
 20
213.364
 30
0.0
 11
171.65199999999999
 21
215.57299999999989
 31
0.0
  0
LINE
  5
22E
  8
0
 62
     7
 10
171.65199999999999
 20
215.57299999999989
 30
0.0
 11
172.244
 21
213.364
 31
0.0
  0
LINE
  5
22F
  8
0
 62
     7
 10
172.244
 20
213.364
 30
0.0
 11
171.06
 21
213.364
 31
0.0
  0
LINE
  5
230
  8
0
 62
     7
 10
171.64799999999991
 20
223.3119999999999
 30
0.0
 11
171.64799999999991
 21
212.36600000000001
 31
0.0
  0
LINE
  5
231
  8
0
 62
     7
 10
131.80199999999999
 20
259.68400000000003
 30
0.0
 11
133.13800000000001
 21
257.82699999999988
 31
0.0
  0
LINE
  5
232
  8
0
 62
     7
 10
133.13800000000001
 20
257.82699999999988
 30
0.0
 11
132.90999999999991
 21
260.10300000000001
 31
0.0
  0
LINE
  5
233
  8
0
 62
     7
 10
132.90999999999991
 20
260.10300000000001
 30
0.0
 11
131.80199999999999
 21
259.68400000000003
 31
0.0
  0
LINE
  5
234
  8
0
 62
     7
 10
133.1339999999999
 20
257.82599999999991
 30
0.0
 11
130.59200000000001
 21
264.54399999999998
 31
0.0
  0
LINE
  5
235
  8
0
 62
     7
 10
158.20799999999991
 20
271.35000000000002
 30
0.0
 11
160.417
 21
271.94199999999989
 31
0.0
  0
LINE
  5
236
  8
0
 62
     7
 10
160.417
 20
271.94199999999989
 30
0.0
 11
158.20799999999991
 21
272.53399999999999
 31
0.0
  0
LINE
  5
237
  8
0
 62
     7
 10
158.20799999999991
 20
272.53399999999999
 30
0.0
 11
158.20799999999991
 21
271.35000000000002
 31
0.0
  0
LINE
  5
238
  8
0
 62
     7
 10
136.77699999999999
 20
272.52699999999999
 30
0.0
 11
134.56700000000001
 21
271.93400000000003
 31
0.0
  0
LINE
  5
239
  8
0
 62
     7
 10
134.56700000000001
 20
271.93400000000003
 30
0.0
 11
136.77699999999999
 21
271.34199999999993
 31
0.0
  0
LINE
  5
23A
  8
0
 62
     7
 10
136.77699999999999
 20
271.34199999999993
 30
0.0
 11
136.77699999999999
 21
272.52699999999999
 31
0.0
  0
LINE
  5
23B
  8
0
 62
     7
 10
160.41800000000001
 20
271.93799999999999
 30
0.0
 11
134.56700000000001
 21
271.93799999999999
 31
0.0
  0
LINE
  5
23C
  8
0
 62
     7
 10
158.20699999999991
 20
266.21399999999988
 30
0.0
 11
160.417
 21
266.80599999999998
 31
0.0
  0
LINE
  5
23D
  8
0
 62
     7
 10
160.417
 20
266.80599999999998
 30
0.0
 11
158.20699999999991
 21
267.39799999999991
 31
0.0
  0
LINE
  5
23E
  8
0
 62
     7
 10
158.20699999999991
 20
267.39799999999991
 30
0.0
 11
158.20699999999991
 21
266.21399999999988
 31
0.0
  0
LINE
  5
23F
  8
0
 62
     7
 10
165.62700000000001
 20
266.20999999999992
 30
0.0
 11
163.417
 21
266.80299999999988
 31
0.0
  0
LINE
  5
240
  8
0
 62
     7
 10
163.417
 20
266.80299999999988
 30
0.0
 11
165.62700000000001
 21
267.39499999999998
 31
0.0
  0
LINE
  5
241
  8
0
 62
     7
 10
165.62700000000001
 20
267.39499999999998
 30
0.0
 11
165.62700000000001
 21
266.20999999999992
 31
0.0
  0
LINE
  5
242
  8
0
 62
     7
 10
171.2829999999999
 20
266.80299999999988
 30
0.0
 11
154.69799999999989
 21
266.80299999999988
 31
0.0
  0
LINE
  5
243
  8
0
 62
     7
 10
172.92099999999991
 20
255.61699999999999
 30
0.0
 11
172.32900000000001
 21
257.82699999999988
 31
0.0
  0
LINE
  5
244
  8
0
 62
     7
 10
172.32900000000001
 20
257.82699999999988
 30
0.0
 11
171.73699999999999
 21
255.61699999999999
 31
0.0
  0
LINE
  5
245
  8
0
 62
     7
 10
171.73699999999999
 20
255.61699999999999
 30
0.0
 11
172.92099999999991
 21
255.61699999999999
 31
0.0
  0
LINE
  5
246
  8
0
 62
     7
 10
171.744
 20
262.03699999999998
 30
0.0
 11
172.3359999999999
 21
259.82699999999988
 31
0.0
  0
LINE
  5
247
  8
0
 62
     7
 10
172.3359999999999
 20
259.82699999999988
 30
0.0
 11
172.92799999999991
 21
262.03699999999998
 31
0.0
  0
LINE
  5
248
  8
0
 62
     7
 10
172.92799999999991
 20
262.03699999999998
 30
0.0
 11
171.744
 21
262.03699999999998
 31
0.0
  0
LINE
  5
249
  8
0
 62
     7
 10
171.744
 20
255.03700000000001
 30
0.0
 11
172.3359999999999
 21
252.827
 31
0.0
  0
LINE
  5
24A
  8
0
 62
     7
 10
172.3359999999999
 20
252.827
 30
0.0
 11
172.92799999999991
 21
255.03700000000001
 31
0.0
  0
LINE
  5
24B
  8
0
 62
     7
 10
172.92799999999991
 20
255.03700000000001
 30
0.0
 11
171.744
 21
255.03700000000001
 31
0.0
  0
LINE
  5
24C
  8
0
 62
     7
 10
172.33199999999999
 20
265.50400000000002
 30
0.0
 11
172.33199999999999
 21
245.6749999999999
 31
0.0
  0
LINE
  5
24D
  8
0
 62
     7
 10
126.98099999999999
 20
257.61700000000002
 30
0.0
 11
126.3889999999999
 21
259.82699999999988
 31
0.0
  0
LINE
  5
24E
  8
0
 62
     7
 10
126.3889999999999
 20
259.82699999999988
 30
0.0
 11
125.797
 21
257.61700000000002
 31
0.0
  0
LINE
  5
24F
  8
0
 62
     7
 10
125.797
 20
257.61700000000002
 30
0.0
 11
126.98099999999999
 21
257.61700000000002
 31
0.0
  0
LINE
  5
250
  8
0
 62
     7
 10
125.8
 20
251.78700000000001
 30
0.0
 11
126.392
 21
249.57699999999991
 31
0.0
  0
LINE
  5
251
  8
0
 62
     7
 10
126.392
 20
249.57699999999991
 30
0.0
 11
126.9849999999999
 21
251.78700000000001
 31
0.0
  0
LINE
  5
252
  8
0
 62
     7
 10
126.9849999999999
 20
251.78700000000001
 30
0.0
 11
125.8
 21
251.78700000000001
 31
0.0
  0
LINE
  5
253
  8
0
 62
     7
 10
126.3889999999999
 20
259.82699999999988
 30
0.0
 11
126.3889999999999
 21
249.57699999999991
 31
0.0
  0
LINE
  5
254
  8
0
 62
     7
 10
178.75200000000001
 20
257.36700000000002
 30
0.0
 11
178.15899999999999
 21
259.57699999999988
 31
0.0
  0
LINE
  5
255
  8
0
 62
     7
 10
178.15899999999999
 20
259.57699999999988
 30
0.0
 11
177.56700000000001
 21
257.36700000000002
 31
0.0
  0
LINE
  5
256
  8
0
 62
     7
 10
177.56700000000001
 20
257.36700000000002
 30
0.0
 11
178.75200000000001
 21
257.36700000000002
 31
0.0
  0
LINE
  5
257
  8
0
 62
     7
 10
177.571
 20
264.28699999999998
 30
0.0
 11
178.1629999999999
 21
262.07699999999988
 31
0.0
  0
LINE
  5
258
  8
0
 62
     7
 10
178.1629999999999
 20
262.07699999999988
 30
0.0
 11
178.75499999999991
 21
264.28699999999998
 31
0.0
  0
LINE
  5
259
  8
0
 62
     7
 10
178.75499999999991
 20
264.28699999999998
 30
0.0
 11
177.571
 21
264.28699999999998
 31
0.0
  0
LINE
  5
25A
  8
0
 62
     7
 10
177.57400000000001
 20
247.28699999999989
 30
0.0
 11
178.167
 21
245.07699999999991
 31
0.0
  0
LINE
  5
25B
  8
0
 62
     7
 10
178.167
 20
245.07699999999991
 30
0.0
 11
178.75899999999999
 21
247.28699999999989
 31
0.0
  0
LINE
  5
25C
  8
0
 62
     7
 10
178.75899999999999
 20
247.28699999999989
 30
0.0
 11
177.57400000000001
 21
247.28699999999989
 31
0.0
  0
LINE
  5
25D
  8
0
 62
     7
 10
178.1629999999999
 20
272.22399999999988
 30
0.0
 11
178.1629999999999
 21
245.07699999999991
 31
0.0
  0
LINE
  5
25E
  8
0
 62
     7
 10
143.59399999999991
 20
254.92500000000001
 30
0.0
 11
139.46700000000001
 21
254.92500000000001
 31
0.0
  0
LINE
  5
25F
  8
0
 62
     7
 10
135.7829999999999
 20
257.77199999999988
 30
0.0
 11
134.6399999999999
 21
259.75299999999987
 31
0.0
  0
LINE
  5
260
  8
0
 62
     7
 10
134.6399999999999
 20
259.75299999999987
 30
0.0
 11
136.62100000000001
 21
258.60899999999998
 31
0.0
  0
LINE
  5
261
  8
0
 62
     7
 10
136.62100000000001
 20
258.60899999999998
 30
0.0
 11
135.7829999999999
 21
257.77199999999988
 31
0.0
  0
LINE
  5
262
  8
0
 62
     7
 10
134.6399999999999
 20
259.75299999999987
 30
0.0
 11
139.46700000000001
 21
254.92500000000001
 31
0.0
  0
LINE
  5
263
  8
0
 62
     7
 10
151.5
 20
247.86000000000001
 30
0.0
 11
159.458
 21
247.86000000000001
 31
0.0
  0
LINE
  5
264
  8
0
 62
     7
 10
151.38900000000001
 20
254.92500000000001
 30
0.0
 11
155.51599999999991
 21
254.92500000000001
 31
0.0
  0
LINE
  5
265
  8
0
 62
     7
 10
159.1999999999999
 20
257.77199999999988
 30
0.0
 11
160.34399999999991
 21
259.75299999999987
 31
0.0
  0
LINE
  5
266
  8
0
 62
     7
 10
160.34399999999991
 20
259.75299999999987
 30
0.0
 11
158.36199999999991
 21
258.60899999999998
 31
0.0
  0
LINE
  5
267
  8
0
 62
     7
 10
158.36199999999991
 20
258.60899999999998
 30
0.0
 11
159.1999999999999
 21
257.77199999999988
 31
0.0
  0
LINE
  5
268
  8
0
 62
     7
 10
160.34399999999991
 20
259.75299999999987
 30
0.0
 11
155.51599999999991
 21
254.92500000000001
 31
0.0
  0
LINE
  5
269
  8
0
 62
     7
 10
128.53999999999991
 20
203.2229999999999
 30
0.0
 11
139.80199999999999
 21
203.2229999999999
 31
0.0
  0
LINE
  5
26A
  8
0
 62
     7
 10
144.45199999999991
 20
207.03599999999989
 30
0.0
 11
145.59700000000001
 21
209.017
 31
0.0
  0
LINE
  5
26B
  8
0
 62
     7
 10
145.59700000000001
 20
209.017
 30
0.0
 11
143.61500000000001
 21
207.874
 31
0.0
  0
LINE
  5
26C
  8
0
 62
     7
 10
143.61500000000001
 20
207.874
 30
0.0
 11
144.45199999999991
 21
207.03599999999989
 31
0.0
  0
LINE
  5
26D
  8
0
 62
     7
 10
145.59700000000001
 20
209.017
 30
0.0
 11
139.80199999999999
 21
203.2229999999999
 31
0.0
  0
LINE
  5
26E
  8
0
 62
     7
 10
184.5929999999999
 20
214.80799999999991
 30
0.0
 11
184.00099999999989
 21
217.017
 31
0.0
  0
LINE
  5
26F
  8
0
 62
     7
 10
184.00099999999989
 20
217.017
 30
0.0
 11
183.4079999999999
 21
214.80799999999991
 31
0.0
  0
LINE
  5
270
  8
0
 62
     7
 10
183.4079999999999
 20
214.80799999999991
 30
0.0
 11
184.5929999999999
 21
214.80799999999991
 31
0.0
  0
LINE
  5
271
  8
0
 62
     7
 10
183.41599999999991
 20
211.227
 30
0.0
 11
184.00800000000001
 21
209.017
 31
0.0
  0
LINE
  5
272
  8
0
 62
     7
 10
184.00800000000001
 20
209.017
 30
0.0
 11
184.59999999999999
 21
211.227
 31
0.0
  0
LINE
  5
273
  8
0
 62
     7
 10
184.59999999999999
 20
211.227
 30
0.0
 11
183.41599999999991
 21
211.227
 31
0.0
  0
LINE
  5
274
  8
0
 62
     7
 10
184.00399999999999
 20
217.017
 30
0.0
 11
184.00399999999999
 21
209.017
 31
0.0
  0
LINE
  5
275
  8
0
 62
     7
 10
178.601
 20
214.80799999999991
 30
0.0
 11
178.00899999999999
 21
217.017
 31
0.0
  0
LINE
  5
276
  8
0
 62
     7
 10
178.00899999999999
 20
217.017
 30
0.0
 11
177.41699999999989
 21
214.80799999999991
 31
0.0
  0
LINE
  5
277
  8
0
 62
     7
 10
177.41699999999989
 20
214.80799999999991
 30
0.0
 11
178.601
 21
214.80799999999991
 31
0.0
  0
LINE
  5
278
  8
0
 62
     7
 10
177.42399999999989
 20
213.17699999999999
 30
0.0
 11
178.01599999999991
 21
210.96700000000001
 31
0.0
  0
LINE
  5
279
  8
0
 62
     7
 10
178.01599999999991
 20
210.96700000000001
 30
0.0
 11
178.608
 21
213.17699999999999
 31
0.0
  0
LINE
  5
27A
  8
0
 62
     7
 10
178.608
 20
213.17699999999999
 30
0.0
 11
177.42399999999989
 21
213.17699999999999
 31
0.0
  0
LINE
  5
27B
  8
0
 62
     7
 10
178.01299999999989
 20
217.017
 30
0.0
 11
178.01299999999989
 21
210.96700000000001
 31
0.0
  0
LINE
  5
27C
  8
0
 62
     7
 10
77.852199999999996
 20
179.98099999999991
 30
0.0
 11
71.463099999999983
 21
179.98099999999991
 31
0.0
  0
LINE
  5
27D
  8
0
 62
     7
 10
52.394399999999997
 20
214.05000000000001
 30
0.0
 11
45.255600000000001
 21
214.05000000000001
 31
0.0
  0
LINE
  5
27E
  8
0
 62
     7
 10
69.575900000000004
 20
182.7059999999999
 30
0.0
 11
67.594099999999983
 21
183.851
 31
0.0
  0
LINE
  5
27F
  8
0
 62
     7
 10
67.594099999999983
 20
183.851
 30
0.0
 11
68.738500000000002
 21
181.86799999999999
 31
0.0
  0
LINE
  5
280
  8
0
 62
     7
 10
68.738500000000002
 20
181.86799999999999
 30
0.0
 11
69.575900000000004
 21
182.7059999999999
 31
0.0
  0
LINE
  5
281
  8
0
 62
     7
 10
62.359200000000001
 20
188.24799999999991
 30
0.0
 11
64.341399999999993
 21
187.10299999999989
 31
0.0
  0
LINE
  5
282
  8
0
 62
     7
 10
64.341399999999993
 20
187.10299999999989
 30
0.0
 11
63.1967
 21
189.08500000000001
 31
0.0
  0
LINE
  5
283
  8
0
 62
     7
 10
63.1967
 20
189.08500000000001
 30
0.0
 11
62.359200000000001
 21
188.24799999999991
 31
0.0
  0
LINE
  5
284
  8
0
 62
     7
 10
61.651400000000002
 20
189.79300000000001
 30
0.0
 11
71.463099999999983
 21
179.98099999999991
 31
0.0
  0
LINE
  5
285
  8
0
 62
     7
 10
69.212900000000005
 20
198.06899999999999
 30
0.0
 11
67.231099999999998
 21
199.21299999999991
 31
0.0
  0
LINE
  5
286
  8
0
 62
     7
 10
67.231099999999998
 20
199.21299999999991
 30
0.0
 11
68.375600000000006
 21
197.23099999999999
 31
0.0
  0
LINE
  5
287
  8
0
 62
     7
 10
68.375600000000006
 20
197.23099999999999
 30
0.0
 11
69.212900000000005
 21
198.06899999999999
 31
0.0
  0
LINE
  5
288
  8
0
 62
     7
 10
62.747799999999991
 20
202.85900000000001
 30
0.0
 11
64.730000000000004
 21
201.714
 31
0.0
  0
LINE
  5
289
  8
0
 62
     7
 10
64.730000000000004
 20
201.714
 30
0.0
 11
63.585299999999997
 21
203.696
 31
0.0
  0
LINE
  5
28A
  8
0
 62
     7
 10
63.585299999999997
 20
203.696
 30
0.0
 11
62.747799999999991
 21
202.85900000000001
 31
0.0
  0
LINE
  5
28B
  8
0
 62
     7
 10
52.394399999999997
 20
214.05000000000001
 30
0.0
 11
69.714399999999998
 21
196.72999999999999
 31
0.0
  0
LINE
  5
28C
  8
0
 62
     7
 10
32.506399999999999
 20
209.26599999999991
 30
0.0
 11
31.914400000000001
 21
211.477
 31
0.0
  0
LINE
  5
28D
  8
0
 62
     7
 10
31.914400000000001
 20
211.477
 30
0.0
 11
31.321999999999999
 21
209.26599999999991
 31
0.0
  0
LINE
  5
28E
  8
0
 62
     7
 10
31.321999999999999
 20
209.26599999999991
 30
0.0
 11
32.506399999999999
 21
209.26599999999991
 31
0.0
  0
LINE
  5
28F
  8
0
 62
     7
 10
31.336400000000001
 20
179.68700000000001
 30
0.0
 11
31.928799999999999
 21
177.477
 31
0.0
  0
LINE
  5
290
  8
0
 62
     7
 10
31.928799999999999
 20
177.477
 30
0.0
 11
32.52089999999999
 21
179.68700000000001
 31
0.0
  0
LINE
  5
291
  8
0
 62
     7
 10
32.52089999999999
 20
179.68700000000001
 30
0.0
 11
31.336400000000001
 21
179.68700000000001
 31
0.0
  0
LINE
  5
292
  8
0
 62
     7
 10
31.921800000000001
 20
211.477
 30
0.0
 11
31.921800000000001
 21
177.477
 31
0.0
  0
LINE
  5
293
  8
0
 62
     7
 10
32.506399999999999
 20
175.26599999999991
 30
0.0
 11
31.914400000000001
 21
177.477
 31
0.0
  0
LINE
  5
294
  8
0
 62
     7
 10
31.914400000000001
 20
177.477
 30
0.0
 11
31.321999999999999
 21
175.26599999999991
 31
0.0
  0
LINE
  5
295
  8
0
 62
     7
 10
31.321999999999999
 20
175.26599999999991
 30
0.0
 11
32.506399999999999
 21
175.26599999999991
 31
0.0
  0
LINE
  5
296
  8
0
 62
     7
 10
31.336400000000001
 20
165.18799999999999
 30
0.0
 11
31.928799999999999
 21
162.977
 31
0.0
  0
LINE
  5
297
  8
0
 62
     7
 10
31.928799999999999
 20
162.977
 30
0.0
 11
32.52089999999999
 21
165.18799999999999
 31
0.0
  0
LINE
  5
298
  8
0
 62
     7
 10
32.52089999999999
 20
165.18799999999999
 30
0.0
 11
31.336400000000001
 21
165.18799999999999
 31
0.0
  0
LINE
  5
299
  8
0
 62
     7
 10
31.921800000000001
 20
177.477
 30
0.0
 11
31.921800000000001
 21
162.977
 31
0.0
  0
LINE
  5
29A
  8
0
 62
     7
 10
101.414
 20
206.26599999999999
 30
0.0
 11
100.821
 21
208.477
 31
0.0
  0
LINE
  5
29B
  8
0
 62
     7
 10
100.821
 20
208.477
 30
0.0
 11
100.2289999999999
 21
206.26599999999999
 31
0.0
  0
LINE
  5
29C
  8
0
 62
     7
 10
100.2289999999999
 20
206.26599999999999
 30
0.0
 11
101.414
 21
206.26599999999999
 31
0.0
  0
LINE
  5
29D
  8
0
 62
     7
 10
100.2429999999999
 20
202.68700000000001
 30
0.0
 11
100.8359999999999
 21
200.477
 31
0.0
  0
LINE
  5
29E
  8
0
 62
     7
 10
100.8359999999999
 20
200.477
 30
0.0
 11
101.428
 21
202.68700000000001
 31
0.0
  0
LINE
  5
29F
  8
0
 62
     7
 10
101.428
 20
202.68700000000001
 30
0.0
 11
100.2429999999999
 21
202.68700000000001
 31
0.0
  0
LINE
  5
2A0
  8
0
 62
     7
 10
100.82899999999989
 20
208.477
 30
0.0
 11
100.82899999999989
 21
200.477
 31
0.0
  0
LINE
  5
2A1
  8
0
 62
     7
 10
101.414
 20
198.26599999999991
 30
0.0
 11
100.821
 21
200.477
 31
0.0
  0
LINE
  5
2A2
  8
0
 62
     7
 10
100.821
 20
200.477
 30
0.0
 11
100.2289999999999
 21
198.26599999999991
 31
0.0
  0
LINE
  5
2A3
  8
0
 62
     7
 10
100.2289999999999
 20
198.26599999999991
 30
0.0
 11
101.414
 21
198.26599999999991
 31
0.0
  0
LINE
  5
2A4
  8
0
 62
     7
 10
100.2429999999999
 20
195.68700000000001
 30
0.0
 11
100.8359999999999
 21
193.477
 31
0.0
  0
LINE
  5
2A5
  8
0
 62
     7
 10
100.8359999999999
 20
193.477
 30
0.0
 11
101.428
 21
195.68700000000001
 31
0.0
  0
LINE
  5
2A6
  8
0
 62
     7
 10
101.428
 20
195.68700000000001
 30
0.0
 11
100.2429999999999
 21
195.68700000000001
 31
0.0
  0
LINE
  5
2A7
  8
0
 62
     7
 10
100.82899999999989
 20
200.477
 30
0.0
 11
100.82899999999989
 21
193.477
 31
0.0
  0
LINE
  5
2A8
  8
0
 62
     7
 10
73.757199999999997
 20
216.67099999999999
 30
0.0
 11
75.967799999999997
 21
217.26300000000001
 31
0.0
  0
LINE
  5
2A9
  8
0
 62
     7
 10
75.967799999999997
 20
217.26300000000001
 30
0.0
 11
73.757199999999997
 21
217.85599999999999
 31
0.0
  0
LINE
  5
2AA
  8
0
 62
     7
 10
73.757199999999997
 20
217.85599999999999
 30
0.0
 11
73.757199999999997
 21
216.67099999999999
 31
0.0
  0
LINE
  5
2AB
  8
0
 62
     7
 10
68.178399999999996
 20
217.84099999999989
 30
0.0
 11
65.967600000000004
 21
217.249
 31
0.0
  0
LINE
  5
2AC
  8
0
 62
     7
 10
65.967600000000004
 20
217.249
 30
0.0
 11
68.178399999999996
 21
216.65700000000001
 31
0.0
  0
LINE
  5
2AD
  8
0
 62
     7
 10
68.178399999999996
 20
216.65700000000001
 30
0.0
 11
68.178399999999996
 21
217.84099999999989
 31
0.0
  0
LINE
  5
2AE
  8
0
 62
     7
 10
75.967799999999997
 20
217.25599999999989
 30
0.0
 11
65.967600000000004
 21
217.25599999999989
 31
0.0
  0
LINE
  5
2AF
  8
0
 62
     7
 10
141.982
 20
227.864
 30
0.0
 11
144.19200000000001
 21
228.4559999999999
 31
0.0
  0
LINE
  5
2B0
  8
0
 62
     7
 10
144.19200000000001
 20
228.4559999999999
 30
0.0
 11
141.982
 21
229.048
 31
0.0
  0
LINE
  5
2B1
  8
0
 62
     7
 10
141.982
 20
229.048
 30
0.0
 11
141.982
 21
227.864
 31
0.0
  0
LINE
  5
2B2
  8
0
 62
     7
 10
149.703
 20
229.042
 30
0.0
 11
147.49299999999999
 21
228.44900000000001
 31
0.0
  0
LINE
  5
2B3
  8
0
 62
     7
 10
147.49299999999999
 20
228.44900000000001
 30
0.0
 11
149.703
 21
227.857
 31
0.0
  0
LINE
  5
2B4
  8
0
 62
     7
 10
149.703
 20
227.857
 30
0.0
 11
149.703
 21
229.042
 31
0.0
  0
LINE
  5
2B5
  8
0
 62
     7
 10
151.39699999999999
 20
228.4559999999999
 30
0.0
 11
140.26099999999991
 21
228.4559999999999
 31
0.0
  0
LINE
  5
2B6
  8
0
 62
     7
 10
147.49299999999999
 20
219.9609999999999
 30
0.0
 11
147.49299999999999
 21
229.149
 31
0.0
  0
LINE
  5
2B7
  8
0
 62
     7
 10
144.19200000000001
 20
225.40899999999999
 30
0.0
 11
144.19200000000001
 21
229.149
 31
0.0
  0
LINE
  5
2B8
  8
0
 62
     7
 10
125.678
 20
222.05699999999999
 30
0.0
 11
125.08499999999999
 21
224.26699999999991
 31
0.0
  0
LINE
  5
2B9
  8
0
 62
     7
 10
125.08499999999999
 20
224.26699999999991
 30
0.0
 11
124.4929999999999
 21
222.05699999999999
 31
0.0
  0
LINE
  5
2BA
  8
0
 62
     7
 10
124.4929999999999
 20
222.05699999999999
 30
0.0
 11
125.678
 21
222.05699999999999
 31
0.0
  0
LINE
  5
2BB
  8
0
 62
     7
 10
124.50700000000001
 20
219.22799999999989
 30
0.0
 11
125.09999999999989
 21
217.017
 31
0.0
  0
LINE
  5
2BC
  8
0
 62
     7
 10
125.09999999999989
 20
217.017
 30
0.0
 11
125.69199999999999
 21
219.22799999999989
 31
0.0
  0
LINE
  5
2BD
  8
0
 62
     7
 10
125.69199999999999
 20
219.22799999999989
 30
0.0
 11
124.50700000000001
 21
219.22799999999989
 31
0.0
  0
LINE
  5
2BE
  8
0
 62
     7
 10
125.0929999999999
 20
224.26699999999991
 30
0.0
 11
125.0929999999999
 21
217.017
 31
0.0
  0
LINE
  5
2BF
  8
0
 62
     7
 10
143.26799999999989
 20
224.26699999999991
 30
0.0
 11
124.3989999999999
 21
224.26699999999991
 31
0.0
  0
LINE
  5
2C0
  8
0
 62
     7
 10
133.86699999999999
 20
217.017
 30
0.0
 11
124.3989999999999
 21
217.017
 31
0.0
  0
LINE
  5
2C1
  8
0
 62
     7
 10
63.757100000000001
 20
216.67099999999999
 30
0.0
 11
65.967600000000004
 21
217.26300000000001
 31
0.0
  0
LINE
  5
2C2
  8
0
 62
     7
 10
65.967600000000004
 20
217.26300000000001
 30
0.0
 11
63.757100000000001
 21
217.85599999999999
 31
0.0
  0
LINE
  5
2C3
  8
0
 62
     7
 10
63.757100000000001
 20
217.85599999999999
 30
0.0
 11
63.757100000000001
 21
216.67099999999999
 31
0.0
  0
LINE
  5
2C4
  8
0
 62
     7
 10
58.177999999999997
 20
217.84099999999989
 30
0.0
 11
55.967500000000001
 21
217.249
 31
0.0
  0
LINE
  5
2C5
  8
0
 62
     7
 10
55.967500000000001
 20
217.249
 30
0.0
 11
58.177999999999997
 21
216.65700000000001
 31
0.0
  0
LINE
  5
2C6
  8
0
 62
     7
 10
58.177999999999997
 20
216.65700000000001
 30
0.0
 11
58.177999999999997
 21
217.84099999999989
 31
0.0
  0
LINE
  5
2C7
  8
0
 62
     7
 10
65.967600000000004
 20
217.25599999999989
 30
0.0
 11
55.967500000000001
 21
217.25599999999989
 31
0.0
  0
LINE
  5
2C8
  8
0
 62
     7
 10
96.667900000000003
 20
211.477
 30
0.0
 11
113.93000000000001
 21
211.477
 31
0.0
  0
LINE
  5
2C9
  8
0
 62
     7
 10
93.936099999999996
 20
208.477
 30
0.0
 11
113.93000000000001
 21
208.477
 31
0.0
  0
LINE
  5
2CA
  8
0
 62
     7
 10
65.967600000000004
 20
210.36999999999989
 30
0.0
 11
65.967600000000004
 21
217.94900000000001
 31
0.0
  0
LINE
  5
2CB
  8
0
 62
     7
 10
75.967799999999997
 20
203.76400000000001
 30
0.0
 11
75.967799999999997
 21
217.94900000000001
 31
0.0
  0
LINE
  5
2CC
  8
0
 62
     7
 10
55.967500000000001
 20
203.76400000000001
 30
0.0
 11
55.967500000000001
 21
217.94900000000001
 31
0.0
  0
LINE
  5
2CD
  8
0
 62
     7
 10
31.2286
 20
211.477
 30
0.0
 11
35.145400000000002
 21
211.477
 31
0.0
  0
LINE
  5
2CE
  8
0
 62
     7
 10
31.2286
 20
177.477
 30
0.0
 11
37.267600000000002
 21
177.477
 31
0.0
  0
LINE
  5
2CF
  8
0
 62
     7
 10
79.267799999999994
 20
200.477
 30
0.0
 11
101.5209999999999
 21
200.477
 31
0.0
  0
LINE
  5
2D0
  8
0
 62
     7
 10
79.287499999999994
 20
193.477
 30
0.0
 11
107.7329999999999
 21
193.477
 31
0.0
  0
LINE
  5
2D1
  8
0
 62
     7
 10
70.417900000000003
 20
115.083
 30
0.0
 11
105.2679999999999
 21
115.083
 31
0.0
  0
LINE
  5
2D2
  8
0
 62
     7
 10
94.167800000000014
 20
132.084
 30
0.0
 11
105.2679999999999
 21
132.084
 31
0.0
  0
LINE
  5
2D3
  8
0
 62
     7
 10
85.918999999999997
 20
166.477
 30
0.0
 11
107.7329999999999
 21
166.477
 31
0.0
  0
LINE
  5
2D4
  8
0
 62
     7
 10
31.2286
 20
162.977
 30
0.0
 11
47.721899999999998
 21
162.977
 31
0.0
  0
LINE
  5
2D5
  8
0
 62
     7
 10
85.918999999999997
 20
162.977
 30
0.0
 11
113.93000000000001
 21
162.977
 31
0.0
  0
LINE
  5
2D6
  8
0
 62
     7
 10
113.80799999999989
 20
213.68700000000001
 30
0.0
 11
113.21599999999999
 21
211.477
 31
0.0
  0
LINE
  5
2D7
  8
0
 62
     7
 10
113.21599999999999
 20
211.477
 30
0.0
 11
112.6239999999999
 21
213.68700000000001
 31
0.0
  0
LINE
  5
2D8
  8
0
 62
     7
 10
112.6239999999999
 20
213.68700000000001
 30
0.0
 11
113.80799999999989
 21
213.68700000000001
 31
0.0
  0
LINE
  5
2D9
  8
0
 62
     7
 10
113.223
 20
223.654
 30
0.0
 11
113.223
 21
208.47799999999989
 31
0.0
  0
LINE
  5
2DA
  8
0
 62
     7
 10
107.611
 20
206.26599999999999
 30
0.0
 11
107.0179999999999
 21
208.477
 31
0.0
  0
LINE
  5
2DB
  8
0
 62
     7
 10
107.0179999999999
 20
208.477
 30
0.0
 11
106.4259999999999
 21
206.26599999999999
 31
0.0
  0
LINE
  5
2DC
  8
0
 62
     7
 10
106.4259999999999
 20
206.26599999999999
 30
0.0
 11
107.611
 21
206.26599999999999
 31
0.0
  0
LINE
  5
2DD
  8
0
 62
     7
 10
106.441
 20
195.68700000000001
 30
0.0
 11
107.033
 21
193.477
 31
0.0
  0
LINE
  5
2DE
  8
0
 62
     7
 10
107.033
 20
193.477
 30
0.0
 11
107.6249999999999
 21
195.68700000000001
 31
0.0
  0
LINE
  5
2DF
  8
0
 62
     7
 10
107.6249999999999
 20
195.68700000000001
 30
0.0
 11
106.441
 21
195.68700000000001
 31
0.0
  0
LINE
  5
2E0
  8
0
 62
     7
 10
107.026
 20
208.477
 30
0.0
 11
107.026
 21
193.477
 31
0.0
  0
LINE
  5
2E1
  8
0
 62
     7
 10
107.611
 20
191.26599999999991
 30
0.0
 11
107.0179999999999
 21
193.47599999999991
 31
0.0
  0
LINE
  5
2E2
  8
0
 62
     7
 10
107.0179999999999
 20
193.47599999999991
 30
0.0
 11
106.4259999999999
 21
191.26599999999991
 31
0.0
  0
LINE
  5
2E3
  8
0
 62
     7
 10
106.4259999999999
 20
191.26599999999991
 30
0.0
 11
107.611
 21
191.26599999999991
 31
0.0
  0
LINE
  5
2E4
  8
0
 62
     7
 10
106.441
 20
168.68700000000001
 30
0.0
 11
107.033
 21
166.477
 31
0.0
  0
LINE
  5
2E5
  8
0
 62
     7
 10
107.033
 20
166.477
 30
0.0
 11
107.6249999999999
 21
168.68700000000001
 31
0.0
  0
LINE
  5
2E6
  8
0
 62
     7
 10
107.6249999999999
 20
168.68700000000001
 30
0.0
 11
106.441
 21
168.68700000000001
 31
0.0
  0
LINE
  5
2E7
  8
0
 62
     7
 10
107.026
 20
193.477
 30
0.0
 11
107.026
 21
166.477
 31
0.0
  0
LINE
  5
2E8
  8
0
 62
     7
 10
113.82299999999989
 20
206.26599999999999
 30
0.0
 11
113.23099999999999
 21
208.477
 31
0.0
  0
LINE
  5
2E9
  8
0
 62
     7
 10
113.23099999999999
 20
208.477
 30
0.0
 11
112.63799999999991
 21
206.26599999999999
 31
0.0
  0
LINE
  5
2EA
  8
0
 62
     7
 10
112.63799999999991
 20
206.26599999999999
 30
0.0
 11
113.82299999999989
 21
206.26599999999999
 31
0.0
  0
LINE
  5
2EB
  8
0
 62
     7
 10
112.65300000000001
 20
165.16
 30
0.0
 11
113.245
 21
162.9499999999999
 31
0.0
  0
LINE
  5
2EC
  8
0
 62
     7
 10
113.245
 20
162.9499999999999
 30
0.0
 11
113.837
 21
165.16
 31
0.0
  0
LINE
  5
2ED
  8
0
 62
     7
 10
113.837
 20
165.16
 30
0.0
 11
112.65300000000001
 21
165.16
 31
0.0
  0
LINE
  5
2EE
  8
0
 62
     7
 10
113.2379999999999
 20
208.476
 30
0.0
 11
113.2379999999999
 21
162.9499999999999
 31
0.0
  0
ARC
  5
2EF
  8
0
 62
     7
 10
92.205183000000005
 20
207.43978499999989
 30
0.0
 40
1.0378080000000001
 50
3.93222
 51
88.006069999999994
  0
LINE
  5
2F0
  8
0
 62
     7
 10
92.241299999999995
 20
208.477
 30
0.0
 11
39.693800000000003
 21
208.477
 31
0.0
  0
ARC
  5
2F1
  8
0
 62
     7
 10
39.730530999999992
 20
207.43966499999991
 30
0.0
 40
1.037949999999999
 50
92.029095999999981
 51
176.1951029999999
  0
ARC
  5
2F2
  8
0
 62
     7
 10
491.620722
 20
193.13290799999999
 30
0.0
 40
453.15393399999999
 50
178.182052
 51
182.71508199999991
  0
ARC
  5
2F3
  8
0
 62
     7
 10
47.746689000000003
 20
172.34543699999989
 30
0.0
 40
8.7973820000000007
 50
184.42009400000001
 51
264.42482799999988
  0
ARC
  5
2F4
  8
0
 62
     7
 10
65.967449999999999
 20
460.25655899999998
 30
0.0
 40
297.27952399999998
 50
266.32100200000002
 51
273.67901699999987
  0
ARC
  5
2F5
  8
0
 62
     7
 10
84.192481999999998
 20
172.3419979999999
 30
0.0
 40
8.7935449999999982
 50
275.54966799999988
 51
355.60046399999987
  0
ARC
  5
2F6
  8
0
 62
     7
 10
-359.979152
 20
193.1339989999999
 30
0.0
 40
453.44767400000001
 50
357.28656000000001
 51
1.816916999999999
  0
LINE
  5
2F7
  8
0
  6
AIGENLINE001
 62
     7
 10
35.967500000000001
 20
211.477
 30
0.0
 11
95.9679
 21
211.477
 31
0.0
  0
LINE
  5
2F8
  8
0
  6
AIGENLINE002
 62
     7
 10
37.967799999999997
 20
177.477
 30
0.0
 11
93.967799999999997
 21
177.477
 31
0.0
  0
ARC
  5
2F9
  8
0
 62
     7
 10
84.163043999999985
 20
172.4484699999999
 30
0.0
 40
5.3681190000000001
 50
275.53860600000002
 51
355.50539700000002
  0
ARC
  5
2FA
  8
0
 62
     7
 10
-355.49508700000001
 20
193.15424899999999
 30
0.0
 40
445.51093899999989
 50
357.28197299999988
 51
359.15748500000001
  0
ARC
  5
2FB
  8
0
 62
     7
 10
83.483524000000017
 20
186.287801
 30
0.0
 40
6.461214
 50
2.799722
 51
83.511608999999993
  0
ARC
  5
2FC
  8
0
 62
     7
 10
65.967708000000002
 20
445.50205399999987
 30
0.0
 40
279.024879
 50
266.15445
 51
273.84557000000001
  0
ARC
  5
2FD
  8
0
 62
     7
 10
47.76602299999999
 20
172.44223500000001
 30
0.0
 40
5.3613029999999986
 50
184.43351399999989
 51
264.52252199999998
  0
ARC
  5
2FE
  8
0
 62
     7
 10
486.232373
 20
193.11700899999991
 30
0.0
 40
444.31239099999988
 50
180.84000499999991
 51
182.72057599999999
  0
LINE
  5
2FF
  8
0
  6
AIGENLINE002
 62
     7
 10
55.967500000000001
 20
197.87700000000001
 30
0.0
 11
55.967500000000001
 21
203.07699999999991
 31
0.0
  0
LINE
  5
300
  8
0
  6
AIGENLINE002
 62
     7
 10
75.967799999999997
 20
197.87700000000001
 30
0.0
 11
75.967799999999997
 21
203.07699999999991
 31
0.0
  0
LINE
  5
301
  8
0
  6
AIGENLINE002
 62
     7
 10
65.967600000000004
 20
160.11699999999999
 30
0.0
 11
65.967600000000004
 21
209.67099999999991
 31
0.0
  0
LINE
  5
302
  8
0
  6
AIGENLINE002
 62
     7
 10
144.36000000000001
 20
249.57699999999991
 30
0.0
 11
150.74199999999999
 21
249.57699999999991
 31
0.0
  0
LINE
  5
303
  8
0
  6
AIGENLINE002
 62
     7
 10
53.367600000000003
 20
200.477
 30
0.0
 11
78.567800000000005
 21
200.477
 31
0.0
  0
ARC
  5
304
  8
0
  6
AIGENLINE003
 62
     7
 10
55.900259999999989
 20
200.40949299999991
 30
0.0
 40
1.818754999999999
 50
2.118106
 51
87.881884000000014
  0
ARC
  5
305
  8
0
  6
AIGENLINE003
 62
     7
 10
56.035117000000007
 20
200.40943499999989
 30
0.0
 40
1.818829
 50
92.131138000000007
 51
177.880111
  0
ARC
  5
306
  8
0
  6
AIGENLINE003
 62
     7
 10
55.967393999999992
 20
200.47679899999989
 30
0.0
 40
1.7498610000000001
 50
180.00282999999999
 51
270.00283999999988
  0
ARC
  5
307
  8
0
  6
AIGENLINE003
 62
     7
 10
55.899898999999991
 20
200.54483099999999
 30
0.0
 40
1.8191489999999999
 50
272.12902700000001
 51
357.85406399999988
  0
ARC
  5
308
  8
0
  6
AIGENLINE003
 62
     7
 10
75.900043999999994
 20
200.40952999999999
 30
0.0
 40
1.8187369999999989
 50
2.1169759999999989
 51
87.866095000000016
  0
ARC
  5
309
  8
0
  6
AIGENLINE003
 62
     7
 10
76.035386000000003
 20
200.40926999999999
 30
0.0
 40
1.8189919999999991
 50
92.130480999999989
 51
177.8751279999999
  0
ARC
  5
30A
  8
0
  6
AIGENLINE003
 62
     7
 10
75.967590999999985
 20
200.47688599999989
 30
0.0
 40
1.7499469999999999
 50
180.00565
 51
270.00565999999998
  0
ARC
  5
30B
  8
0
  6
AIGENLINE003
 62
     7
 10
75.967764000000003
 20
200.4767139999999
 30
0.0
 40
1.7497750000000001
 50
270.00002000000001
 51
359.99998999999991
  0
ARC
  5
30C
  8
0
 62
     7
 10
65.900234999999995
 20
200.409505
 30
0.0
 40
1.8187489999999999
 50
2.1177290000000002
 51
87.876621999999983
  0
ARC
  5
30D
  8
0
 62
     7
 10
66.035254000000009
 20
200.40943999999999
 30
0.0
 40
1.818822999999999
 50
92.130981999999989
 51
177.880267
  0
ARC
  5
30E
  8
0
 62
     7
 10
65.967535999999996
 20
200.47679899999989
 30
0.0
 40
1.7498610000000001
 50
180.00282999999999
 51
270.00283999999988
  0
ARC
  5
30F
  8
0
 62
     7
 10
65.900025999999997
 20
200.54466699999989
 30
0.0
 40
1.818984999999999
 50
272.12968299999989
 51
357.85904699999998
  0
ARC
  5
310
  8
0
 62
     7
 10
66.875591999999983
 20
192.664165
 30
0.0
 40
0.092321
 50
321.23864700000001
 51
359.714248
  0
ARC
  5
311
  8
0
 62
     7
 10
66.794347999999999
 20
192.71977200000001
 30
0.0
 40
0.190634
 50
309.394924
 51
323.49490299999991
  0
ARC
  5
312
  8
0
 62
     7
 10
66.686018999999973
 20
192.851641
 30
0.0
 40
0.361294
 50
298.50539399999991
 51
309.39857999999998
  0
ARC
  5
313
  8
0
 62
     7
 10
66.528695999999997
 20
193.13877500000001
 30
0.0
 40
0.688701
 50
290.43344399999989
 51
298.60685899999999
  0
ARC
  5
314
  8
0
 62
     7
 10
66.34115899999999
 20
193.63443499999991
 30
0.0
 40
1.218648999999999
 50
284.62964499999998
 51
290.55999800000001
  0
ARC
  5
315
  8
0
 62
     7
 10
66.115649000000005
 20
194.50963599999989
 30
0.0
 40
2.1224340000000002
 50
275.293994
 51
284.552707
  0
ARC
  5
316
  8
0
 62
     7
 10
65.974491999999984
 20
195.67016699999991
 30
0.0
 40
3.2912089999999989
 50
269.88042000000002
 51
275.87679800000001
  0
ARC
  5
317
  8
0
 62
     7
 10
65.966712000000001
 20
195.6042009999999
 30
0.0
 40
3.2252360000000002
 50
260.03446099999991
 51
270.01617599999992
  0
ARC
  5
318
  8
0
 62
     7
 10
65.682890999999998
 20
193.90353200000001
 30
0.0
 40
1.501182
 50
248.73268799999991
 51
259.47064499999988
  0
ARC
  5
319
  8
0
 62
     7
 10
65.311752999999996
 20
192.93768099999991
 30
0.0
 40
0.4665100000000001
 50
228.96257399999999
 51
248.1835779999999
  0
ARC
  5
31A
  8
0
 62
     7
 10
65.090626
 20
192.675499
 30
0.0
 40
0.123685
 50
185.47227099999989
 51
226.48639499999999
  0
ARC
  5
31B
  8
0
 62
     7
 10
65.059372999999994
 20
192.663231
 30
0.0
 40
0.09187
 50
141.13964000000001
 51
179.7044939999999
  0
ARC
  5
31C
  8
0
 62
     7
 10
65.141475999999997
 20
192.60679500000001
 30
0.0
 40
0.19136
 50
129.37430299999991
 51
143.40637899999999
  0
ARC
  5
31D
  8
0
 62
     7
 10
65.250213000000002
 20
192.47344599999991
 30
0.0
 40
0.363422
 50
118.47032400000001
 51
129.28929099999991
  0
ARC
  5
31E
  8
0
 62
     7
 10
65.408189000000007
 20
192.18406100000001
 30
0.0
 40
0.6931189999999999
 50
110.42782099999989
 51
118.54642200000001
  0
ARC
  5
31F
  8
0
 62
     7
 10
65.591917000000009
 20
191.69800699999999
 30
0.0
 40
1.2127349999999999
 50
104.58934599999991
 51
110.54723799999999
  0
ARC
  5
320
  8
0
 62
     7
 10
65.820323999999999
 20
190.81264999999991
 30
0.0
 40
2.1270790000000002
 50
95.299604000000002
 51
104.53627899999989
  0
ARC
  5
321
  8
0
 62
     7
 10
65.960747999999995
 20
189.6585959999999
 30
0.0
 40
3.289337999999999
 50
89.880255000000005
 51
95.878453000000007
  0
ARC
  5
322
  8
0
 62
     7
 10
65.968531999999996
 20
189.71980600000001
 30
0.0
 40
3.2281209999999989
 50
80.041115999999988
 51
90.016146999999989
  0
ARC
  5
323
  8
0
 62
     7
 10
66.252417000000008
 20
191.42092500000001
 30
0.0
 40
1.5036089999999991
 50
68.764450999999994
 51
79.485287000000014
  0
ARC
  5
324
  8
0
 62
     7
 10
66.624028999999993
 20
192.389274
 30
0.0
 40
0.4664340000000001
 50
49.013944000000002
 51
68.228893999999997
  0
ARC
  5
325
  8
0
 62
     7
 10
66.845394999999996
 20
192.65193099999999
 30
0.0
 40
0.123081
 50
5.488804
 51
46.607353999999987
  0
ARC
  5
326
  8
0
 62
     7
 10
48.460720000000002
 20
186.2793419999999
 30
0.0
 40
6.4706209999999986
 50
96.557570000000013
 51
177.1293379999999
  0
ARC
  5
327
  8
0
 62
     7
 10
65.967708000000002
 20
-23.366364999999998
 30
0.0
 40
216.84299799999991
 50
85.173212000000007
 51
94.826768000000001
  0
LINE
  5
328
  8
0
  6
AIGENLINE002
 62
     7
 10
61.217500000000001
 20
185.477
 30
0.0
 11
70.717699999999994
 21
185.477
 31
0.0
  0
ARC
  5
329
  8
0
 62
     7
 10
65.967621999999992
 20
185.47684499999991
 30
0.0
 40
2.2999610000000001
 50
0.00001
 51
89.999980000000008
  0
ARC
  5
32A
  8
0
 62
     7
 10
65.967708999999999
 20
185.47693100000001
 30
0.0
 40
2.2998750000000001
 50
90.002145999999996
 51
180.00215600000001
  0
ARC
  5
32B
  8
0
 62
     7
 10
65.967879999999994
 20
185.476586
 30
0.0
 40
2.300046
 50
179.99353400000001
 51
269.993583
  0
ARC
  5
32C
  8
0
 62
     7
 10
65.967449000000002
 20
185.47667300000001
 30
0.0
 40
2.3001330000000002
 50
270.00431099999992
 51
0.004281
  0
ARC
  5
32D
  8
0
 62
     7
 10
65.967621999999992
 20
185.47684499999991
 30
0.0
 40
3.5998039999999998
 50
0.00001
 51
89.999980000000008
  0
ARC
  5
32E
  8
0
 62
     7
 10
65.967536999999993
 20
185.47675799999999
 30
0.0
 40
3.5998899999999998
 50
89.998629000000008
 51
179.99859900000001
  0
ARC
  5
32F
  8
0
 62
     7
 10
65.967621999999992
 20
185.47684499999991
 30
0.0
 40
3.5999750000000001
 50
179.99996999999991
 51
270.00002000000001
  0
ARC
  5
330
  8
0
 62
     7
 10
65.967534999999998
 20
185.47676000000001
 30
0.0
 40
3.5998899999999998
 50
270.00139100000001
 51
0.001361
  0
ARC
  5
331
  8
0
 62
     7
 10
147.493819
 20
243.475302
 30
0.0
 40
32.508034000000002
 50
269.99743899999987
 51
278.930947
  0
LINE
  5
332
  8
0
 62
     7
 10
152.53999999999991
 20
211.3609999999999
 30
0.0
 11
152.54099999999991
 21
211.3609999999999
 31
0.0
  0
ARC
  5
333
  8
0
 62
     7
 10
150.32274499999991
 20
225.22769
 30
0.0
 40
14.043437000000001
 50
279.08764300000001
 51
308.49194299999988
  0
ARC
  5
334
  8
0
 62
     7
 10
151.5511469999999
 20
223.52933399999989
 30
0.0
 40
11.949959
 50
308.95031399999999
 51
317.89770299999992
  0
LINE
  5
335
  8
0
 62
     7
 10
160.417
 20
217.017
 30
0.0
 11
160.417
 21
215.517
 31
0.0
  0
LINE
  5
336
  8
0
 62
     7
 10
166.745
 20
209.017
 30
0.0
 11
185.04300000000001
 21
209.017
 31
0.0
  0
LINE
  5
337
  8
0
 62
     7
 10
151.89699999999999
 20
210.96700000000001
 30
0.0
 11
178.3659999999999
 21
210.96700000000001
 31
0.0
  0
LINE
  5
338
  8
0
 62
     7
 10
134.56700000000001
 20
260.17700000000002
 30
0.0
 11
134.56700000000001
 21
272.28399999999999
 31
0.0
  0
LINE
  5
339
  8
0
 62
     7
 10
160.417
 20
260.17700000000002
 30
0.0
 11
160.417
 21
272.28399999999999
 31
0.0
  0
LINE
  5
33A
  8
0
 62
     7
 10
160.91800000000001
 20
260.17700000000002
 30
0.0
 11
160.91800000000001
 21
267.50299999999999
 31
0.0
  0
LINE
  5
33B
  8
0
 62
     7
 10
163.417
 20
258.52699999999987
 30
0.0
 11
163.417
 21
267.50299999999999
 31
0.0
  0
LINE
  5
33C
  8
0
 62
     7
 10
163.76699999999991
 20
252.827
 30
0.0
 11
172.68599999999989
 21
252.827
 31
0.0
  0
LINE
  5
33D
  8
0
 62
     7
 10
164.81999999999991
 20
262.07699999999988
 30
0.0
 11
178.51699999999991
 21
262.07699999999988
 31
0.0
  0
LINE
  5
33E
  8
0
 62
     7
 10
125.69199999999999
 20
259.82699999999988
 30
0.0
 11
130.9729999999999
 21
259.82699999999988
 31
0.0
  0
LINE
  5
33F
  8
0
 62
     7
 10
163.76699999999991
 20
257.82699999999988
 30
0.0
 11
173.029
 21
257.82699999999988
 31
0.0
  0
LINE
  5
340
  8
0
 62
     7
 10
161.23899999999989
 20
259.82699999999988
 30
0.0
 11
178.51699999999991
 21
259.82699999999988
 31
0.0
  0
LINE
  5
341
  8
0
 62
     7
 10
125.69199999999999
 20
249.57699999999991
 30
0.0
 11
143.66
 21
249.57699999999991
 31
0.0
  0
LINE
  5
342
  8
0
 62
     7
 10
160.76699999999991
 20
245.07699999999991
 30
0.0
 11
178.51699999999991
 21
245.07699999999991
 31
0.0
  0
LINE
  5
343
  8
0
 62
     7
 10
161.11699999999999
 20
215.517
 30
0.0
 11
171.995
 21
215.517
 31
0.0
  0
LINE
  5
344
  8
0
 62
     7
 10
161.11699999999999
 20
217.017
 30
0.0
 11
184.70099999999999
 21
217.017
 31
0.0
  0
LINE
  5
345
  8
0
 62
     7
 10
147.49199999999999
 20
217.017
 30
0.0
 11
160.417
 21
217.017
 31
0.0
  0
ARC
  5
346
  8
0
 62
     7
 10
147.49091200000001
 20
243.47543099999999
 30
0.0
 40
32.508163000000003
 50
261.06909100000001
 51
270.00256300000001
  0
LINE
  5
347
  8
0
 62
     7
 10
142.4439999999999
 20
211.3609999999999
 30
0.0
 11
142.4439999999999
 21
211.3609999999999
 31
0.0
  0
ARC
  5
348
  8
0
 62
     7
 10
144.66255000000001
 20
225.22912799999989
 30
0.0
 40
14.044892000000001
 50
231.510031
 51
260.91237799999999
  0
ARC
  5
349
  8
0
 62
     7
 10
143.43158299999999
 20
223.52748299999999
 30
0.0
 40
11.947241999999999
 50
222.1021319999999
 51
231.05171000000001
  0
LINE
  5
34A
  8
0
 62
     7
 10
134.56700000000001
 20
217.017
 30
0.0
 11
134.56700000000001
 21
215.517
 31
0.0
  0
ARC
  5
34B
  8
0
 62
     7
 10
134.82708199999999
 20
259.56735200000003
 30
0.0
 40
0.259955
 50
92.128064999999992
 51
177.83243200000001
  0
LINE
  5
34C
  8
0
 62
     7
 10
134.56700000000001
 20
245.07699999999991
 30
0.0
 11
134.56700000000001
 21
259.57699999999988
 31
0.0
  0
LINE
  5
34D
  8
0
  6
AIGENLINE001
 62
     7
 10
160.417
 20
246.577
 30
0.0
 11
134.56700000000001
 21
246.577
 31
0.0
  0
LINE
  5
34E
  8
0
 62
     7
 10
147.49199999999999
 20
245.07699999999991
 30
0.0
 11
134.56700000000001
 21
245.07699999999991
 31
0.0
  0
LINE
  5
34F
  8
0
  6
AIGENLINE001
 62
     7
 10
160.417
 20
215.517
 30
0.0
 11
134.56700000000001
 21
215.517
 31
0.0
  0
LINE
  5
350
  8
0
 62
     7
 10
166.0449999999999
 20
209.017
 30
0.0
 11
129.06999999999991
 21
209.017
 31
0.0
  0
LINE
  5
351
  8
0
 62
     7
 10
147.49199999999999
 20
217.017
 30
0.0
 11
134.56700000000001
 21
217.017
 31
0.0
  0
LINE
  5
352
  8
0
 62
     7
 10
147.49199999999999
 20
259.82699999999988
 30
0.0
 11
134.81700000000001
 21
259.82699999999988
 31
0.0
  0
ARC
  5
353
  8
0
 62
     7
 10
160.15763799999999
 20
259.56735200000003
 30
0.0
 40
0.259955
 50
2.1675490000000002
 51
87.871915000000001
  0
LINE
  5
354
  8
0
 62
     7
 10
160.417
 20
245.07699999999991
 30
0.0
 11
160.417
 21
259.57699999999988
 31
0.0
  0
LINE
  5
355
  8
0
 62
     7
 10
147.49199999999999
 20
245.07699999999991
 30
0.0
 11
160.417
 21
245.07699999999991
 31
0.0
  0
LINE
  5
356
  8
0
  6
AIGENLINE001
 62
     7
 10
130.46999999999991
 20
262.07699999999988
 30
0.0
 11
164.47
 21
262.07699999999988
 31
0.0
  0
LINE
  5
357
  8
0
 62
     7
 10
147.49199999999999
 20
259.82699999999988
 30
0.0
 11
160.167
 21
259.82699999999988
 31
0.0
  0
ARC
  5
358
  8
0
 62
     7
 10
80.423985999999999
 20
110.56580700000001
 30
0.0
 40
7.6053509999999989
 50
67.519408999999996
 51
77.095476000000005
  0
LINE
  5
359
  8
0
 62
     7
 10
85.545500000000004
 20
118.33
 30
0.0
 11
85.456299999999999
 21
119.1429999999999
 31
0.0
  0
LINE
  5
35A
  8
0
 62
     7
 10
89.373400000000004
 20
121.501
 30
0.0
 11
89.286900000000017
 21
120.788
 31
0.0
  0
ARC
  5
35B
  8
0
 62
     7
 10
82.219390000000004
 20
130.09284199999991
 30
0.0
 40
11.24819499999999
 50
333.05730499999987
 51
359.954139
  0
ARC
  5
35C
  8
0
 62
     7
 10
82.583386000000004
 20
130.058753
 30
0.0
 40
10.909090999999989
 50
314.12336699999992
 51
332.35068100000001
  0
ARC
  5
35D
  8
0
 62
     7
 10
80.872484999999983
 20
131.69825499999999
 30
0.0
 40
13.277418000000001
 50
302.15401500000002
 51
314.49761999999998
  0
ARC
  5
35E
  8
0
 62
     7
 10
78.623284999999996
 20
135.04328599999999
 30
0.0
 40
17.306851000000002
 50
293.10007899999999
 51
302.56454600000001
  0
ARC
  5
35F
  8
0
 62
     7
 10
76.291500999999997
 20
140.14330799999999
 30
0.0
 40
22.913258999999989
 50
286.591543
 51
293.45988699999998
  0
ARC
  5
360
  8
0
 62
     7
 10
74.105405000000005
 20
147.04497000000001
 30
0.0
 40
30.152058
 50
280.85745400000002
 51
286.82779900000003
  0
ARC
  5
361
  8
0
 62
     7
 10
72.086685000000003
 20
156.766186
 30
0.0
 40
40.079796999999992
 50
275.93282199999999
 51
281.07393699999989
  0
ARC
  5
362
  8
0
 62
     7
 10
70.535615000000007
 20
169.970348
 30
0.0
 40
53.373854000000001
 50
271.71319799999998
 51
276.12385
  0
ARC
  5
363
  8
0
 62
     7
 10
69.910013000000006
 20
184.074398
 30
0.0
 40
67.490610000000004
 50
269.96391499999987
 51
271.886098
  0
LINE
  5
364
  8
0
 62
     7
 10
65.967600000000004
 20
116.5839999999999
 30
0.0
 11
69.867500000000007
 21
116.5839999999999
 31
0.0
  0
ARC
  5
365
  8
0
 62
     7
 10
69.878752000000006
 20
116.272462
 30
0.0
 40
0.3115429999999999
 50
92.070718999999997
 51
177.86343199999999
  0
LINE
  5
366
  8
0
  6
AIGENLINE003
 62
     7
 10
68.267600000000002
 20
118.4839999999999
 30
0.0
 11
69.567400000000006
 21
119.584
 31
0.0
  0
ARC
  5
367
  8
0
 62
     7
 10
69.359650999999999
 20
115.290826
 30
0.0
 40
0.207877
 50
272.24137000000002
 51
358.20183700000001
  0
LINE
  5
368
  8
0
 62
     7
 10
69.567400000000006
 20
115.28399999999991
 30
0.0
 11
69.567400000000006
 21
116.28399999999991
 31
0.0
  0
LINE
  5
369
  8
0
 62
     7
 10
69.367800000000003
 20
115.083
 30
0.0
 11
65.953000000000003
 21
115.083
 31
0.0
  0
LINE
  5
36A
  8
0
  6
AIGENLINE001
 62
     7
 10
36.026600000000002
 20
114.083
 30
0.0
 11
98.617900000000006
 21
114.083
 31
0.0
  0
LINE
  5
36B
  8
0
  6
AIGENLINE001
 62
     7
 10
135.02699999999999
 20
127.0839999999999
 30
0.0
 11
169.0259999999999
 21
127.0839999999999
 31
0.0
  0
LINE
  5
36C
  8
0
  6
AIGENLINE001
 62
     7
 10
36.026600000000002
 20
127.0839999999999
 30
0.0
 11
98.617900000000006
 21
127.0839999999999
 31
0.0
  0
LINE
  5
36D
  8
0
  6
AIGENLINE001
 62
     7
 10
36.026600000000002
 20
130.08399999999989
 30
0.0
 11
98.617900000000006
 21
130.08399999999989
 31
0.0
  0
LINE
  5
36E
  8
0
 62
     7
 10
65.967600000000004
 20
132.084
 30
0.0
 11
92.767899999999997
 21
132.084
 31
0.0
  0
ARC
  5
36F
  8
0
 62
     7
 10
92.741290000000006
 20
131.3577939999999
 30
0.0
 40
0.726765
 50
2.0684239999999998
 51
87.903362999999985
  0
LINE
  5
370
  8
0
 62
     7
 10
93.467600000000004
 20
131.3839999999999
 30
0.0
 11
93.467600000000004
 21
130.08399999999989
 31
0.0
  0
LINE
  5
371
  8
0
 62
     7
 10
89.286900000000017
 20
120.788
 30
0.0
 11
88.783900000000017
 21
116.63799999999991
 31
0.0
  0
ARC
  5
372
  8
0
 62
     7
 10
88.374803999999997
 20
116.699693
 30
0.0
 40
0.4137310000000001
 50
271.69852900000001
 51
351.4573299999999
  0
LINE
  5
373
  8
0
 62
     7
 10
88.387100000000004
 20
116.286
 30
0.0
 11
85.485900000000001
 21
116.286
 31
0.0
  0
ARC
  5
374
  8
0
 62
     7
 10
85.488224999999986
 20
116.69215800000001
 30
0.0
 40
0.4060210000000001
 50
229.227712
 51
269.67668199999991
  0
ARC
  5
375
  8
0
 62
     7
 10
80.244519999999994
 20
110.678414
 30
0.0
 40
7.5728049999999998
 50
48.896210000000004
 51
65.938780000000008
  0
LINE
  5
376
  8
0
  6
AIGENLINE003
 62
     7
 10
65.967600000000004
 20
119.584
 30
0.0
 11
69.567400000000006
 21
119.584
 31
0.0
  0
ARC
  5
377
  8
0
  6
AIGENLINE003
 62
     7
 10
69.561796999999984
 20
141.02052
 30
0.0
 40
21.436022000000001
 50
270.01505400000002
 51
279.27391499999999
  0
ARC
  5
378
  8
0
  6
AIGENLINE003
 62
     7
 10
68.917277999999996
 20
145.55742099999989
 30
0.0
 40
26.017662999999992
 50
279.06460199999998
 51
304.68149499999998
  0
ARC
  5
379
  8
0
  6
AIGENLINE003
 62
     7
 10
67.108390999999997
 20
145.90240800000001
 30
0.0
 40
27.36112
 50
307.38633900000002
 51
324.68014699999998
  0
ARC
  5
37A
  8
0
  6
AIGENLINE003
 62
     7
 10
92.873075999999998
 20
128.29653300000001
 30
0.0
 40
3.8763619999999999
 50
102.2889739999999
 51
152.543285
  0
LINE
  5
37B
  8
0
  6
AIGENLINE003
 62
     7
 10
68.267600000000002
 20
118.4839999999999
 30
0.0
 11
68.267600000000002
 21
115.083
 31
0.0
  0
LINE
  5
37C
  8
0
  6
AIGENLINE003
 62
     7
 10
68.267600000000002
 20
118.4839999999999
 30
0.0
 11
65.967600000000004
 21
118.4839999999999
 31
0.0
  0
LINE
  5
37D
  8
0
 62
     7
 10
85.730900000000005
 20
116.642
 30
0.0
 11
85.545500000000004
 21
118.33
 31
0.0
  0
ARC
  5
37E
  8
0
 62
     7
 10
86.141221999999999
 20
116.70036499999991
 30
0.0
 40
0.414419
 50
188.04479599999991
 51
268.23367200000001
  0
ARC
  5
37F
  8
0
 62
     7
 10
51.501038000000001
 20
110.5991379999999
 30
0.0
 40
7.5705789999999986
 50
102.8854479999999
 51
112.50435299999999
  0
LINE
  5
380
  8
0
 62
     7
 10
46.389699999999991
 20
118.33
 30
0.0
 11
46.479100000000003
 21
119.1429999999999
 31
0.0
  0
LINE
  5
381
  8
0
 62
     7
 10
42.561999999999991
 20
121.501
 30
0.0
 11
42.648299999999992
 21
120.788
 31
0.0
  0
ARC
  5
382
  8
0
 62
     7
 10
49.715665999999999
 20
130.09283799999989
 30
0.0
 40
11.24817899999999
 50
180.045861
 51
206.94273499999991
  0
ARC
  5
383
  8
0
 62
     7
 10
49.350200000000001
 20
130.05759900000001
 30
0.0
 40
10.90724
 50
207.64758999999989
 51
225.877973
  0
ARC
  5
384
  8
0
 62
     7
 10
51.062754999999989
 20
131.69844499999991
 30
0.0
 40
13.277682
 50
225.502408
 51
237.84572900000001
  0
ARC
  5
385
  8
0
 62
     7
 10
53.310675000000003
 20
135.04114799999991
 30
0.0
 40
17.304465
 50
237.43469300000001
 51
246.900419
  0
ARC
  5
386
  8
0
 62
     7
 10
55.642733999999997
 20
140.1409779999999
 30
0.0
 40
22.910805
 50
246.53963599999989
 51
253.40866600000001
  0
ARC
  5
387
  8
0
 62
     7
 10
57.829895999999998
 20
147.04595800000001
 30
0.0
 40
30.153088
 50
253.17223100000001
 51
259.14232199999998
  0
ARC
  5
388
  8
0
 62
     7
 10
59.848438999999999
 20
156.76693499999999
 30
0.0
 40
40.080559999999991
 50
258.92608699999988
 51
264.06706600000001
  0
ARC
  5
389
  8
0
 62
     7
 10
61.399381999999989
 20
169.970766
 30
0.0
 40
53.374274
 50
263.876172
 51
268.28674799999999
  0
ARC
  5
38A
  8
0
 62
     7
 10
62.024903000000002
 20
184.074376
 30
0.0
 40
67.490587000000005
 50
268.11392199999989
 51
270.036092
  0
ARC
  5
38B
  8
0
  6
AIGENLINE002
 62
     7
 10
65.920427000000004
 20
128.1315139999999
 30
0.0
 40
1.2979689999999999
 50
272.08380199999988
 51
357.884614
  0
ARC
  5
38C
  8
0
  6
AIGENLINE002
 62
     7
 10
66.015078000000003
 20
128.131596
 30
0.0
 40
1.2980599999999991
 50
182.11888300000001
 51
267.90484399999991
  0
ARC
  5
38D
  8
0
  6
AIGENLINE002
 62
     7
 10
66.016379000000001
 20
128.035741
 30
0.0
 40
1.299355
 50
92.150440000000017
 51
177.889003
  0
ARC
  5
38E
  8
0
  6
AIGENLINE002
 62
     7
 10
65.919289000000006
 20
128.03598500000001
 30
0.0
 40
1.2990950000000001
 50
2.1006269999999998
 51
87.867785999999995
  0
LINE
  5
38F
  8
0
  6
AIGENLINE002
 62
     7
 10
67.717699999999994
 20
128.08399999999989
 30
0.0
 11
64.217699999999994
 21
128.08399999999989
 31
0.0
  0
LINE
  5
390
  8
0
 62
     7
 10
65.967600000000004
 20
116.5839999999999
 30
0.0
 11
62.067399999999992
 21
116.5839999999999
 31
0.0
  0
ARC
  5
391
  8
0
 62
     7
 10
62.056156999999992
 20
116.27229199999989
 30
0.0
 40
0.311712
 50
2.166583999999999
 51
87.932106999999988
  0
LINE
  5
392
  8
0
  6
AIGENLINE003
 62
     7
 10
63.6678
 20
118.4839999999999
 30
0.0
 11
62.367600000000003
 21
119.584
 31
0.0
  0
ARC
  5
393
  8
0
 62
     7
 10
124.501276
 20
127.8002129999999
 30
0.0
 40
3.9741979999999999
 50
180.086523
 51
187.01894499999989
  0
ARC
  5
394
  8
0
 62
     7
 10
126.57996199999999
 20
128.02537699999991
 30
0.0
 40
6.0648970000000002
 50
186.73049199999991
 51
194.70359999999999
  0
ARC
  5
395
  8
0
 62
     7
 10
129.732653
 20
128.7784659999999
 30
0.0
 40
9.3057679999999987
 50
194.261618
 51
202.47364999999991
  0
ARC
  5
396
  8
0
 62
     7
 10
133.170907
 20
130.10266699999991
 30
0.0
 40
12.989407999999999
 50
202.073723
 51
212.534817
  0
ARC
  5
397
  8
0
 62
     7
 10
134.94813300000001
 20
131.148551
 30
0.0
 40
15.05039599999999
 50
212.25285600000001
 51
241.860378
  0
ARC
  5
398
  8
0
 62
     7
 10
134.32101
 20
130.306578
 30
0.0
 40
14.013045999999999
 50
242.49784500000001
 51
266.38507099999993
  0
ARC
  5
399
  8
0
 62
     7
 10
134.5187489999999
 20
131.95885699999999
 30
0.0
 40
15.674782
 50
266.04451099999989
 51
270.028931
  0
ARC
  5
39A
  8
0
  6
AIGENLINE003
 62
     7
 10
122.0279019999999
 20
130.57565700000001
 30
0.0
 40
1.508416999999999
 50
77.486981999999983
 51
90.044038999999984
  0
LINE
  5
39B
  8
0
  6
AIGENLINE003
 62
     7
 10
122.355
 20
132.048
 30
0.0
 11
122.3459999999999
 21
132.05000000000001
 31
0.0
  0
ARC
  5
39C
  8
0
  6
AIGENLINE003
 62
     7
 10
122.2388889999999
 20
131.5591269999999
 30
0.0
 40
0.50215
 50
29.049271000000001
 51
77.631368999999992
  0
ARC
  5
39D
  8
0
  6
AIGENLINE003
 62
     7
 10
140.695359
 20
141.13317799999999
 30
0.0
 40
20.289974000000001
 50
207.37706799999989
 51
213.13161099999999
  0
ARC
  5
39E
  8
0
  6
AIGENLINE003
 62
     7
 10
147.68216599999991
 20
145.54119700000001
 30
0.0
 40
28.550395999999999
 50
212.87597299999999
 51
231.702314
  0
ARC
  5
39F
  8
0
  6
AIGENLINE003
 62
     7
 10
143.13741799999991
 20
140.02890500000001
 30
0.0
 40
21.408274999999989
 50
232.1050919999999
 51
240.58730899999989
  0
ARC
  5
3A0
  8
0
  6
AIGENLINE003
 62
     7
 10
140.39783399999999
 20
135.34178799999989
 30
0.0
 40
15.980126999999991
 50
240.890771
 51
252.59465399999999
  0
ARC
  5
3A1
  8
0
  6
AIGENLINE003
 62
     7
 10
139.09377499999991
 20
131.57539799999989
 30
0.0
 40
11.996684999999999
 50
253.15683300000001
 51
267.597532
  0
ARC
  5
3A2
  8
0
  6
AIGENLINE003
 62
     7
 10
138.927254
 20
129.97109499999991
 30
0.0
 40
10.387286
 50
268.14430800000002
 51
269.99731600000001
  0
LINE
  5
3A3
  8
0
  6
AIGENLINE003
 62
     7
 10
138.92699999999999
 20
119.584
 30
0.0
 11
147.26699999999991
 21
119.584
 31
0.0
  0
ARC
  5
3A4
  8
0
  6
AIGENLINE003
 62
     7
 10
147.22663600000001
 20
121.1326949999999
 30
0.0
 40
1.549420999999999
 50
271.50738699999988
 51
348.50989399999992
  0
LINE
  5
3A5
  8
0
  6
AIGENLINE003
 62
     7
 10
148.745
 20
120.8239999999999
 30
0.0
 11
150.5089999999999
 21
130.845
 31
0.0
  0
LINE
  5
3A6
  8
0
  6
AIGENLINE003
 62
     7
 10
150.5089999999999
 20
130.845
 30
0.0
 11
150.5089999999999
 21
130.84399999999999
 31
0.0
  0
ARC
  5
3A7
  8
0
  6
AIGENLINE003
 62
     7
 10
152.02435600000001
 20
130.53825499999999
 30
0.0
 40
1.5462899999999991
 50
91.415025000000014
 51
168.602217
  0
ARC
  5
3A8
  8
0
 62
     7
 10
164.46955800000001
 20
130.527242
 30
0.0
 40
1.557880999999999
 50
2.0904519999999991
 51
87.896377000000001
  0
ARC
  5
3A9
  8
0
 62
     7
 10
122.083917
 20
130.527253
 30
0.0
 40
1.5578700000000001
 50
92.103236999999993
 51
177.90989400000001
  0
LINE
  5
3AA
  8
0
  6
AIGENLINE002
 62
     7
 10
151.05399999999989
 20
127.898
 30
0.0
 11
148.99100000000001
 21
128.26699999999991
 31
0.0
  0
ARC
  5
3AB
  8
0
 62
     7
 10
135.337875
 20
129.7724979999999
 30
0.0
 40
0.3115429999999999
 50
92.070718999999997
 51
177.86343199999999
  0
LINE
  5
3AC
  8
0
  6
AIGENLINE003
 62
     7
 10
140.727
 20
115.084
 30
0.0
 11
140.727
 21
118.4839999999999
 31
0.0
  0
LINE
  5
3AD
  8
0
  6
AIGENLINE003
 62
     7
 10
140.727
 20
118.4839999999999
 30
0.0
 11
139.42699999999999
 21
119.584
 31
0.0
  0
LINE
  5
3AE
  8
0
  6
AIGENLINE003
 62
     7
 10
145.327
 20
115.084
 30
0.0
 11
145.327
 21
118.4839999999999
 31
0.0
  0
LINE
  5
3AF
  8
0
  6
AIGENLINE003
 62
     7
 10
145.327
 20
118.4839999999999
 30
0.0
 11
146.62700000000001
 21
119.584
 31
0.0
  0
ARC
  5
3B0
  8
0
 62
     7
 10
155.05742799999999
 20
125.61442199999991
 30
0.0
 40
0.8311149999999999
 50
182.10972899999999
 51
267.89030000000002
  0
ARC
  5
3B1
  8
0
 62
     7
 10
154.9962459999999
 20
125.614412
 30
0.0
 40
0.8311049999999999
 50
272.10907500000002
 51
357.8909339999999
  0
ARC
  5
3B2
  8
0
 62
     7
 10
154.99625599999999
 20
125.55325000000001
 30
0.0
 40
0.831095
 50
2.108404999999999
 51
87.891584999999992
  0
ARC
  5
3B3
  8
0
 62
     7
 10
155.05742799999999
 20
125.55323
 30
0.0
 40
0.8311149999999999
 50
92.109700000000004
 51
177.8902709999999
  0
LINE
  5
3B4
  8
0
  6
AIGENLINE002
 62
     7
 10
155.02699999999999
 20
124.28399999999991
 30
0.0
 11
155.02699999999999
 21
126.8839999999999
 31
0.0
  0
LINE
  5
3B5
  8
0
  6
AIGENLINE002
 62
     7
 10
156.32699999999991
 20
125.584
 30
0.0
 11
153.727
 21
125.584
 31
0.0
  0
ARC
  5
3B6
  8
0
 62
     7
 10
162.48818299999999
 20
117.6225759999999
 30
0.0
 40
1.039493
 50
272.13192599999991
 51
357.88781699999993
  0
ARC
  5
3B7
  8
0
 62
     7
 10
157.85725500000001
 20
126.114633
 30
0.0
 40
0.831095
 50
182.108408
 51
267.89162199999998
  0
ARC
  5
3B8
  8
0
 62
     7
 10
157.7960919999999
 20
126.1146429999999
 30
0.0
 40
0.8311049999999999
 50
272.10907500000002
 51
357.8909339999999
  0
ARC
  5
3B9
  8
0
 62
     7
 10
157.79608200000001
 20
126.053461
 30
0.0
 40
0.8311159999999999
 50
2.109726999999999
 51
87.890263000000004
  0
ARC
  5
3BA
  8
0
 62
     7
 10
157.85727399999999
 20
126.053461
 30
0.0
 40
0.8311149999999999
 50
92.109700000000004
 51
177.8902709999999
  0
ARC
  5
3BB
  8
0
 62
     7
 10
134.50733299999999
 20
116.803279
 30
0.0
 40
0.519562
 50
272.13204200000001
 51
357.90744100000001
  0
LINE
  5
3BC
  8
0
 62
     7
 10
120.527
 20
127.794
 30
0.0
 11
120.527
 21
130.584
 31
0.0
  0
ARC
  5
3BD
  8
0
 62
     7
 10
143.83274399999991
 20
160.12988799999991
 30
0.0
 40
42.119447999999998
 50
262.947677
 51
267.58090499999992
  0
ARC
  5
3BE
  8
0
 62
     7
 10
229.086837
 20
486.569929
 30
0.0
 40
379.33295499999991
 50
255.64309800000001
 51
255.86887100000001
  0
ARC
  5
3BF
  8
0
 62
     7
 10
140.708439
 20
136.27055699999991
 30
0.0
 40
18.05784899999999
 50
256.44380200000001
 51
263.49125800000002
  0
ARC
  5
3C0
  8
0
 62
     7
 10
138.61703299999999
 20
118.0220419999999
 30
0.0
 40
0.309875
 50
1.7379
 51
82.265819999999977
  0
ARC
  5
3C1
  8
0
 62
     7
 10
139.13461599999991
 20
115.29164899999989
 30
0.0
 40
0.208006
 50
182.21357900000001
 51
267.786451
  0
ARC
  5
3C2
  8
0
 62
     7
 10
145.91852900000001
 20
115.291999
 30
0.0
 40
0.208356
 50
272.20756599999999
 51
357.69374299999998
  0
ARC
  5
3C3
  8
0
 62
     7
 10
146.1224959999999
 20
122.60253299999999
 30
0.0
 40
7.0191729999999994
 50
272.53529900000001
 51
300.96631099999991
  0
LINE
  5
3C4
  8
0
 62
     7
 10
146.43299999999991
 20
115.59
 30
0.0
 11
146.42699999999999
 21
115.59
 31
0.0
  0
ARC
  5
3C5
  8
0
 62
     7
 10
146.43804299999999
 20
115.27889
 30
0.0
 40
0.3115429999999999
 50
92.070718999999997
 51
177.86343199999999
  0
LINE
  5
3C6
  8
0
 62
     7
 10
135.02699999999999
 20
116.78399999999991
 30
0.0
 11
135.02699999999999
 21
119.084
 31
0.0
  0
LINE
  5
3C7
  8
0
 62
     7
 10
146.12700000000001
 20
115.28399999999991
 30
0.0
 11
146.12700000000001
 21
115.291
 31
0.0
  0
LINE
  5
3C8
  8
0
 62
     7
 10
138.92699999999999
 20
115.28399999999991
 30
0.0
 11
138.92699999999999
 21
118.03100000000001
 31
0.0
  0
LINE
  5
3C9
  8
0
  6
AIGENLINE002
 62
     7
 10
157.827
 20
124.78399999999991
 30
0.0
 11
157.827
 21
127.384
 31
0.0
  0
LINE
  5
3CA
  8
0
  6
AIGENLINE002
 62
     7
 10
147.49299999999999
 20
207.64400000000001
 30
0.0
 11
147.49299999999999
 21
219.261
 31
0.0
  0
LINE
  5
3CB
  8
0
  6
AIGENLINE002
 62
     7
 10
147.49199999999999
 20
242.905
 30
0.0
 11
147.49199999999999
 21
264.17299999999989
 31
0.0
  0
LINE
  5
3CC
  8
0
  6
AIGENLINE002
 62
     7
 10
143.02699999999999
 20
113.0589999999999
 30
0.0
 11
143.02699999999999
 21
134.46000000000001
 31
0.0
  0
LINE
  5
3CD
  8
0
 62
     7
 10
163.52699999999999
 20
117.5839999999999
 30
0.0
 11
163.52699999999999
 21
130.08399999999989
 31
0.0
  0
LINE
  5
3CE
  8
0
  6
AIGENLINE002
 62
     7
 10
158.02699999999999
 20
129.42099999999991
 30
0.0
 11
158.02699999999999
 21
134.69499999999991
 31
0.0
  0
LINE
  5
3CF
  8
0
 62
     7
 10
166.0259999999999
 20
130.08399999999989
 30
0.0
 11
166.0259999999999
 21
130.584
 31
0.0
  0
LINE
  5
3D0
  8
0
 62
     7
 10
166.0259999999999
 20
130.08399999999989
 30
0.0
 11
163.52699999999999
 21
130.08399999999989
 31
0.0
  0
LINE
  5
3D1
  8
0
 62
     7
 10
162.52699999999999
 20
116.5839999999999
 30
0.0
 11
143.35599999999991
 21
116.5839999999999
 31
0.0
  0
LINE
  5
3D2
  8
0
  6
AIGENLINE003
 62
     7
 10
145.327
 20
118.4839999999999
 30
0.0
 11
140.727
 21
118.4839999999999
 31
0.0
  0
LINE
  5
3D3
  8
0
 62
     7
 10
145.92699999999999
 20
115.084
 30
0.0
 11
139.12700000000001
 21
115.084
 31
0.0
  0
LINE
  5
3D4
  8
0
 62
     7
 10
135.02699999999999
 20
119.084
 30
0.0
 11
135.02699999999999
 21
129.78399999999991
 31
0.0
  0
LINE
  5
3D5
  8
0
 62
     7
 10
163.52699999999999
 20
130.08399999999989
 30
0.0
 11
135.32699999999991
 21
130.08399999999989
 31
0.0
  0
LINE
  5
3D6
  8
0
  6
AIGENLINE002
 62
     7
 10
159.12700000000001
 20
126.0839999999999
 30
0.0
 11
156.52600000000001
 21
126.0839999999999
 31
0.0
  0
LINE
  5
3D7
  8
0
 62
     7
 10
164.52699999999999
 20
132.084
 30
0.0
 11
122.0269999999999
 21
132.084
 31
0.0
  0
ARC
  5
3D8
  8
0
 62
     7
 10
62.575757000000003
 20
115.2911739999999
 30
0.0
 40
0.208224
 50
181.89088100000001
 51
267.76473499999997
  0
LINE
  5
3D9
  8
0
 62
     7
 10
62.367600000000003
 20
115.28399999999991
 30
0.0
 11
62.367600000000003
 21
116.28399999999991
 31
0.0
  0
LINE
  5
3DA
  8
0
 62
     7
 10
62.567599999999992
 20
115.083
 30
0.0
 11
65.982399999999998
 21
115.083
 31
0.0
  0
LINE
  5
3DB
  8
0
 62
     7
 10
65.967600000000004
 20
132.084
 30
0.0
 11
39.167700000000004
 21
132.084
 31
0.0
  0
ARC
  5
3DC
  8
0
 62
     7
 10
39.194285000000001
 20
131.35727199999999
 30
0.0
 40
0.7272870000000001
 50
92.094009
 51
177.891865
  0
LINE
  5
3DD
  8
0
 62
     7
 10
38.467500000000001
 20
131.3839999999999
 30
0.0
 11
38.467500000000001
 21
130.08399999999989
 31
0.0
  0
LINE
  5
3DE
  8
0
 62
     7
 10
42.648299999999992
 20
120.788
 30
0.0
 11
43.151099999999992
 21
116.63799999999991
 31
0.0
  0
ARC
  5
3DF
  8
0
 62
     7
 10
43.560707000000001
 20
116.7001999999999
 30
0.0
 40
0.414241
 50
188.60305099999991
 51
268.29048699999993
  0
LINE
  5
3E0
  8
0
 62
     7
 10
43.54829999999999
 20
116.286
 30
0.0
 11
46.4495
 21
116.286
 31
0.0
  0
ARC
  5
3E1
  8
0
 62
     7
 10
46.447192999999999
 20
116.69169099999991
 30
0.0
 40
0.405554
 50
270.32353699999987
 51
310.7968029999999
  0
ARC
  5
3E2
  8
0
 62
     7
 10
51.695197
 20
110.670975
 30
0.0
 40
7.5813509999999988
 50
114.067954
 51
131.09227899999999
  0
LINE
  5
3E3
  8
0
  6
AIGENLINE003
 62
     7
 10
65.967600000000004
 20
119.584
 30
0.0
 11
62.367600000000003
 21
119.584
 31
0.0
  0
ARC
  5
3E4
  8
0
  6
AIGENLINE003
 62
     7
 10
62.373269999999998
 20
141.020724
 30
0.0
 40
21.436226000000001
 50
260.72614900000002
 51
269.98497900000001
  0
ARC
  5
3E5
  8
0
  6
AIGENLINE003
 62
     7
 10
63.017428000000002
 20
145.55530400000001
 30
0.0
 40
26.015518
 50
235.31715700000001
 51
260.93543099999999
  0
ARC
  5
3E6
  8
0
  6
AIGENLINE003
 62
     7
 10
64.827025000000006
 20
145.90240800000001
 30
0.0
 40
27.36112
 50
215.319873
 51
232.61368100000001
  0
ARC
  5
3E7
  8
0
  6
AIGENLINE003
 62
     7
 10
39.062422999999988
 20
128.29656900000001
 30
0.0
 40
3.8762720000000002
 50
27.456776999999999
 51
77.714568
  0
LINE
  5
3E8
  8
0
  6
AIGENLINE003
 62
     7
 10
63.6678
 20
118.4839999999999
 30
0.0
 11
63.6678
 21
115.083
 31
0.0
  0
LINE
  5
3E9
  8
0
  6
AIGENLINE003
 62
     7
 10
63.6678
 20
118.4839999999999
 30
0.0
 11
65.967600000000004
 21
118.4839999999999
 31
0.0
  0
LINE
  5
3EA
  8
0
  6
AIGENLINE002
 62
     7
 10
65.967600000000004
 20
112.40299999999991
 30
0.0
 11
65.967600000000004
 21
133.654
 31
0.0
  0
LINE
  5
3EB
  8
0
 62
     7
 10
46.204500000000003
 20
116.642
 30
0.0
 11
46.389699999999991
 21
118.33
 31
0.0
  0
ARC
  5
3EC
  8
0
 62
     7
 10
45.79403099999999
 20
116.7005539999999
 30
0.0
 40
0.414607
 50
271.76431500000001
 51
351.93258700000001
  0
LINE
  5
3ED
  8
0
  6
AIGENLINE001
 62
     7
 10
131.56700000000001
 20
257.82699999999988
 30
0.0
 11
134.06700000000001
 21
252.827
 31
0.0
  0
LINE
  5
3EE
  8
0
  6
AIGENLINE001
 62
     7
 10
134.06700000000001
 20
257.82699999999988
 30
0.0
 11
131.56700000000001
 21
252.827
 31
0.0
  0
LINE
  5
3EF
  8
0
  6
AIGENLINE001
 62
     7
 10
134.06700000000001
 20
252.827
 30
0.0
 11
131.56700000000001
 21
252.827
 31
0.0
  0
LINE
  5
3F0
  8
0
  6
AIGENLINE001
 62
     7
 10
131.56700000000001
 20
252.827
 30
0.0
 11
131.56700000000001
 21
257.82699999999988
 31
0.0
  0
LINE
  5
3F1
  8
0
  6
AIGENLINE001
 62
     7
 10
131.56700000000001
 20
257.82699999999988
 30
0.0
 11
134.06700000000001
 21
257.82699999999988
 31
0.0
  0
LINE
  5
3F2
  8
0
  6
AIGENLINE001
 62
     7
 10
134.06700000000001
 20
257.82699999999988
 30
0.0
 11
134.06700000000001
 21
252.827
 31
0.0
  0
LINE
  5
3F3
  8
0
  6
AIGENLINE001
 62
     7
 10
160.91800000000001
 20
257.82699999999988
 30
0.0
 11
163.417
 21
252.827
 31
0.0
  0
LINE
  5
3F4
  8
0
  6
AIGENLINE001
 62
     7
 10
163.417
 20
257.82699999999988
 30
0.0
 11
160.91800000000001
 21
252.827
 31
0.0
  0
LINE
  5
3F5
  8
0
  6
AIGENLINE001
 62
     7
 10
163.417
 20
252.827
 30
0.0
 11
160.91800000000001
 21
252.827
 31
0.0
  0
LINE
  5
3F6
  8
0
  6
AIGENLINE001
 62
     7
 10
160.91800000000001
 20
252.827
 30
0.0
 11
160.91800000000001
 21
257.82699999999988
 31
0.0
  0
LINE
  5
3F7
  8
0
  6
AIGENLINE001
 62
     7
 10
160.91800000000001
 20
257.82699999999988
 30
0.0
 11
163.417
 21
257.82699999999988
 31
0.0
  0
LINE
  5
3F8
  8
0
  6
AIGENLINE001
 62
     7
 10
163.417
 20
257.82699999999988
 30
0.0
 11
163.417
 21
252.827
 31
0.0
  0
LINE
  5
3F9
  8
0
 62
     7
 10
93.454700000000003
 20
169.22499999999999
 30
0.0
 11
93.454700000000003
 21
146.64099999999991
 31
0.0
  0
LINE
  5
3FA
  8
0
 62
     7
 10
89.937000000000026
 20
169.22499999999999
 30
0.0
 11
89.937000000000026
 21
152.92799999999991
 31
0.0
  0
LINE
  5
3FB
  8
0
 62
     7
 10
41.99819999999999
 20
169.22499999999999
 30
0.0
 11
41.99819999999999
 21
152.92799999999991
 31
0.0
  0
LINE
  5
3FC
  8
0
 62
     7
 10
38.480600000000003
 20
169.22499999999999
 30
0.0
 11
38.480600000000003
 21
146.64099999999991
 31
0.0
  0
LINE
  5
3FD
  8
0
 62
     7
 10
87.726500000000001
 20
153.05000000000001
 30
0.0
 11
89.937000000000026
 21
153.64199999999991
 31
0.0
  0
LINE
  5
3FE
  8
0
 62
     7
 10
89.937000000000026
 20
153.64199999999991
 30
0.0
 11
87.726500000000001
 21
154.23500000000001
 31
0.0
  0
LINE
  5
3FF
  8
0
 62
     7
 10
87.726500000000001
 20
154.23500000000001
 30
0.0
 11
87.726500000000001
 21
153.05000000000001
 31
0.0
  0
LINE
  5
400
  8
0
 62
     7
 10
44.208999999999989
 20
154.22
 30
0.0
 11
41.99819999999999
 21
153.6279999999999
 31
0.0
  0
LINE
  5
401
  8
0
 62
     7
 10
41.99819999999999
 20
153.6279999999999
 30
0.0
 11
44.208999999999989
 21
153.035
 31
0.0
  0
LINE
  5
402
  8
0
 62
     7
 10
44.208999999999989
 20
153.035
 30
0.0
 11
44.208999999999989
 21
154.22
 31
0.0
  0
LINE
  5
403
  8
0
 62
     7
 10
89.936300000000017
 20
153.63499999999991
 30
0.0
 11
41.999099999999999
 21
153.63499999999991
 31
0.0
  0
LINE
  5
404
  8
0
 62
     7
 10
91.244299999999996
 20
146.74899999999991
 30
0.0
 11
93.454700000000003
 21
147.34100000000001
 31
0.0
  0
LINE
  5
405
  8
0
 62
     7
 10
93.454700000000003
 20
147.34100000000001
 30
0.0
 11
91.244299999999996
 21
147.93299999999999
 31
0.0
  0
LINE
  5
406
  8
0
 62
     7
 10
91.244299999999996
 20
147.93299999999999
 30
0.0
 11
91.244299999999996
 21
146.74899999999991
 31
0.0
  0
LINE
  5
407
  8
0
 62
     7
 10
40.663600000000002
 20
147.9189999999999
 30
0.0
 11
38.453000000000003
 21
147.32599999999991
 31
0.0
  0
LINE
  5
408
  8
0
 62
     7
 10
38.453000000000003
 20
147.32599999999991
 30
0.0
 11
40.663600000000002
 21
146.73400000000001
 31
0.0
  0
LINE
  5
409
  8
0
 62
     7
 10
40.663600000000002
 20
146.73400000000001
 30
0.0
 11
40.663600000000002
 21
147.9189999999999
 31
0.0
  0
LINE
  5
40A
  8
0
 62
     7
 10
93.454099999999997
 20
147.33299999999991
 30
0.0
 11
38.453699999999991
 21
147.33299999999991
 31
0.0
  0
TEXT
  5
40B
  8
_________2
 62
     7
 10
29.525700000000001
 20
22.2272
 30
0.0
 40
4.6583899999999989
  1
実容量：4.8L、重量14.5kg、オーバーフロー付
 41
0.5
  0
LINE
  5
40C
  8
_________2
 62
     7
 10
105.2389999999999
 20
17.428499999999989
 30
0.0
 11
105.2389999999999
 21
0.4485540000000001
 31
0.0
  0
LINE
  5
40D
  8
_________2
 62
     7
 10
81.679900000000004
 20
51.324300000000001
 30
0.0
 11
79.493700000000004
 21
51.324300000000001
 31
0.0
  0
LINE
  5
40E
  8
_________2
 62
     7
 10
82.172600000000017
 20
51.324300000000001
 30
0.0
 11
81.920400000000001
 21
51.324300000000001
 31
0.0
  0
LINE
  5
40F
  8
_________2
 62
     7
 10
82.665199999999984
 20
51.324300000000001
 30
0.0
 11
85.590100000000007
 21
51.324300000000001
 31
0.0
  0
LINE
  5
410
  8
_________2
 62
     7
 10
82.172600000000017
 20
51.324300000000001
 30
0.0
 11
82.424800000000005
 21
51.324300000000001
 31
0.0
  0
LINE
  5
411
  8
_________2
 62
     7
 10
75.776399999999995
 20
51.324300000000001
 30
0.0
 11
73.589399999999998
 21
51.324300000000001
 31
0.0
  0
LINE
  5
412
  8
_________2
 62
     7
 10
76.2684
 20
51.324300000000001
 30
0.0
 11
76.016900000000007
 21
51.324300000000001
 31
0.0
  0
LINE
  5
413
  8
_________2
 62
     7
 10
76.2684
 20
51.817
 30
0.0
 11
76.2684
 21
54.003900000000002
 31
0.0
  0
LINE
  5
414
  8
_________2
 62
     7
 10
76.2684
 20
51.324300000000001
 30
0.0
 11
76.2684
 21
51.576900000000002
 31
0.0
  0
LINE
  5
415
  8
_________2
 62
     7
 10
76.76100000000001
 20
51.324300000000001
 30
0.0
 11
78.947999999999993
 21
51.324300000000001
 31
0.0
  0
LINE
  5
416
  8
_________2
 62
     7
 10
76.2684
 20
51.324300000000001
 30
0.0
 11
76.520499999999998
 21
51.324300000000001
 31
0.0
  0
LINE
  5
417
  8
_________2
 62
     7
 10
76.2684
 20
50.832399999999993
 30
0.0
 11
76.2684
 21
48.645699999999998
 31
0.0
  0
LINE
  5
418
  8
_________2
 62
     7
 10
76.2684
 20
51.324300000000001
 30
0.0
 11
76.2684
 21
51.072800000000001
 31
0.0
  0
LINE
  5
419
  8
_________2
 62
     7
 10
79.979399999999984
 20
50.104799999999997
 30
0.0
 11
85.157399999999996
 21
49.240000000000002
 31
0.0
  0
LINE
  5
41A
  8
_________2
 62
     7
 10
79.979399999999984
 20
52.544199999999989
 30
0.0
 11
85.157399999999996
 21
53.409700000000001
 31
0.0
  0
LINE
  5
41B
  8
_________2
 62
     7
 10
85.157399999999996
 20
49.240000000000002
 30
0.0
 11
85.157399999999996
 21
53.409700000000001
 31
0.0
  0
LINE
  5
41C
  8
_________2
 62
     7
 10
79.979399999999984
 20
50.104799999999997
 30
0.0
 11
79.979399999999984
 21
52.544199999999989
 31
0.0
  0
ARC
  5
41D
  8
_________2
 62
     7
 10
76.221766000000002
 20
51.277380999999998
 30
0.0
 40
1.267714
 50
2.1220840000000001
 51
87.894083999999992
  0
ARC
  5
41E
  8
_________2
 62
     7
 10
76.315297000000001
 20
51.277734999999993
 30
0.0
 40
1.267374999999999
 50
92.122849999999985
 51
177.893304
  0
ARC
  5
41F
  8
_________2
 62
     7
 10
76.315273000000005
 20
51.371245999999992
 30
0.0
 40
1.267363
 50
182.12181499999991
 51
267.87821400000001
  0
ARC
  5
420
  8
_________2
 62
     7
 10
76.221461000000005
 20
51.371928999999987
 30
0.0
 40
1.2680439999999991
 50
272.11916400000001
 51
357.84848499999993
  0
ARC
  5
421
  8
_________2
 62
     7
 10
76.187981999999991
 20
51.244312999999998
 30
0.0
 40
2.1668310000000002
 50
2.1161439999999989
 51
87.874379000000005
  0
ARC
  5
422
  8
_________2
 62
     7
 10
76.348411999999996
 20
51.245334999999997
 30
0.0
 40
2.1657980000000001
 50
92.118487999999999
 51
177.90988599999989
  0
ARC
  5
423
  8
_________2
 62
     7
 10
76.348354
 20
51.404327000000002
 30
0.0
 40
2.1657779999999991
 50
182.11700400000001
 51
267.88302499999992
  0
ARC
  5
424
  8
_________2
 62
     7
 10
76.188378999999983
 20
51.405009999999997
 30
0.0
 40
2.1664590000000001
 50
272.11546800000002
 51
357.86560400000002
  0
TEXT
  5
425
  8
_________2
 62
     7
 10
109.5439999999999
 20
23.199100000000001
 30
0.0
 40
3.660169999999999
  1
図番
 41
0.5
  0
LINE
  5
426
  8
_________2
 62
     7
 10
108.4889999999999
 20
27.4283
 30
0.0
 11
188.49000000000001
 21
27.4283
 31
0.0
  0
TEXT
  5
427
  8
_________2
 62
     7
 10
109.5439999999999
 20
33.198900000000002
 30
0.0
 40
3.660169999999999
  1
品番
 41
0.5
  0
TEXT
  5
428
  8
_________2
 62
     7
 10
109.5439999999999
 20
53.338000000000001
 30
0.0
 40
3.660169999999999
  1
名称
 41
0.5
  0
TEXT
  5
429
  8
_________2
 62
     7
 10
96.504445833333335
 20
48.341900000000003
 30
0.0
 40
4.3256500000000004
  1
mm
 41
0.5
 72
     1
 11
98.306799999999996
 21
48.341900000000003
 31
0.0
  0
TEXT
  5
42A
  8
_________2
 62
     7
 10
90.582099999999997
 20
53.338000000000001
 30
0.0
 40
3.660169999999999
  1
単位
 41
0.5
  0
TEXT
  5
42B
  8
_________2
 62
     7
 10
90.582099999999997
 20
40.930399999999999
 30
0.0
 40
3.660169999999999
  1
尺度
 41
0.5
  0
TEXT
  5
42C
  8
_________2
 62
     7
 10
94.320620416666657
 20
34.7378
 30
0.0
 40
4.3256500000000004
  1
1 ： 10
 41
0.5
 72
     1
 11
98.898600000000002
 21
34.7378
 31
0.0
  0
TEXT
  5
42D
  8
_________2
 62
     7
 10
136.26072625
 20
30.627800000000001
 30
0.0
 40
4.6583899999999989
  1
DV037555-00
 41
0.5
 72
     1
 11
148.489
 21
30.627800000000001
 31
0.0
  0
TEXT
  5
42E
  8
_________2
 62
     7
 10
139.36631958333331
 20
20.626999999999988
 30
0.0
 40
4.6583899999999989
  1
DV037555
 41
0.5
 72
     1
 11
148.489
 21
20.626999999999988
 31
0.0
  0
TEXT
  5
42F
  8
_________2
 62
     7
 10
114.11799999999999
 20
45.745600000000003
 30
0.0
 40
4.6583899999999989
  1
デュラスタイル 洗面器
 41
0.5
  0
TEXT
  5
430
  8
_________2
 62
     7
 10
44.01748083333333
 20
35.122999999999998
 30
0.0
 40
4.3256500000000004
  1
早川
 41
0.5
 72
     1
 11
46.252400000000002
 21
35.122999999999998
 31
0.0
  0
TEXT
  5
431
  8
_________2
 62
     7
 10
25.443480833333329
 20
35.122999999999998
 30
0.0
 40
4.3256500000000004
  1
井田
 41
0.5
 72
     1
 11
27.6784
 21
35.122999999999998
 31
0.0
  0
TEXT
  5
432
  8
_________2
 62
     7
 10
72.724699999999999
 20
34.7378
 30
0.0
 40
4.3256500000000004
  1
15.01.24
 41
0.5
  0
TEXT
  5
433
  8
_________2
 62
     7
 10
71.531999999999996
 20
40.930399999999999
 30
0.0
 40
3.660169999999999
  1
日付
 41
0.5
  0
TEXT
  5
434
  8
_________2
 62
     7
 10
34.578299999999992
 20
40.930399999999999
 30
0.0
 40
3.660169999999999
  1
検図
 41
0.5
  0
TEXT
  5
435
  8
_________2
 62
     7
 10
22.96019999999999
 20
26.730999999999991
 30
0.0
 40
3.660169999999999
  1
備考
 41
0.5
  0
TEXT
  5
436
  8
_________2
 62
     7
 10
22.96019999999999
 20
40.930399999999999
 30
0.0
 40
3.660169999999999
  1
製図
 41
0.5
  0
TEXT
  5
437
  8
_________2
 62
     7
 10
25.533730666666681
 20
49.456400000000002
 30
0.0
 40
5.3238799999999991
  1
セラトレーディング株式会社
 41
0.5
 72
     1
 11
46.119399999999992
 21
49.456400000000002
 31
0.0
  0
LINE
  5
438
  8
_________2
 62
     7
 10
188.49000000000001
 20
17.428499999999989
 30
0.0
 11
21.988499999999991
 21
17.428499999999989
 31
0.0
  0
LINE
  5
439
  8
_________2
 62
     7
 10
21.988499999999991
 20
17.428499999999989
 30
0.0
 11
21.988499999999991
 21
280.42999999999989
 31
0.0
  0
LINE
  5
43A
  8
_________2
 62
     7
 10
21.988499999999991
 20
280.42999999999989
 30
0.0
 11
188.49000000000001
 21
280.42999999999989
 31
0.0
  0
LINE
  5
43B
  8
_________2
 62
     7
 10
188.49000000000001
 20
280.42999999999989
 30
0.0
 11
188.49000000000001
 21
17.428499999999989
 31
0.0
  0
LINE
  5
43C
  8
_________2
 62
     7
 10
70.488799999999998
 20
30.928899999999999
 30
0.0
 11
70.488799999999998
 21
57.428699999999992
 31
0.0
  0
LINE
  5
43D
  8
_________2
 62
     7
 10
89.488600000000005
 20
30.928899999999999
 30
0.0
 11
89.488600000000005
 21
57.428699999999992
 31
0.0
  0
LINE
  5
43E
  8
_________2
 62
     7
 10
108.4889999999999
 20
17.428499999999989
 30
0.0
 11
108.4889999999999
 21
57.428699999999992
 31
0.0
  0
LINE
  5
43F
  8
_________2
 62
     7
 10
33.488300000000002
 20
30.928899999999999
 30
0.0
 11
33.488300000000002
 21
44.928800000000003
 31
0.0
  0
LINE
  5
440
  8
_________2
 62
     7
 10
21.988499999999991
 20
30.928899999999999
 30
0.0
 11
108.4889999999999
 21
30.928899999999999
 31
0.0
  0
LINE
  5
441
  8
_________2
 62
     7
 10
21.988499999999991
 20
44.928800000000003
 30
0.0
 11
108.4889999999999
 21
44.928800000000003
 31
0.0
  0
LINE
  5
442
  8
_________2
 62
     7
 10
108.4889999999999
 20
37.428100000000001
 30
0.0
 11
188.49000000000001
 21
37.428100000000001
 31
0.0
  0
LINE
  5
443
  8
_________2
 62
     7
 10
21.988499999999991
 20
57.428699999999992
 30
0.0
 11
188.49000000000001
 21
57.428699999999992
 31
0.0
  0
LINE
  5
444
  8
_________2
 62
     7
 10
210.24000000000001
 20
148.93100000000001
 30
0.0
 11
188.489
 21
148.93100000000001
 31
0.0
  0
LINE
  5
445
  8
_________2
 62
     7
 10
105.2389999999999
 20
297.45099999999991
 30
0.0
 11
105.2389999999999
 21
280.42999999999989
 31
0.0
  0
LINE
  5
446
  8
_________2
 62
     7
 10
21.988499999999991
 20
148.93100000000001
 30
0.0
 11
0.238402
 21
148.93100000000001
 31
0.0
  0
ENDSEC
  0
EOF
