  0
SECTION
  2
HEADER
  9
$ACADVER
  1
AC1009
  9
$INSBASE
 10
0.0
 20
0.0
 30
0.0
  9
$EXTMIN
 10
0.238402
 20
0.4485540000000001
 30
0.0
  9
$EXTMAX
 10
210.24000000000001
 20
297.45100000000002
 30
0.0
  9
$LIMMIN
 10
0.0
 20
0.0
  9
$LIMMAX
 10
12.0
 20
9.0
  9
$ORTHOMODE
 70
     0
  9
$REGENMODE
 70
     1
  9
$FILLMODE
 70
     1
  9
$QTEXTMODE
 70
     0
  9
$MIRRTEXT
 70
     1
  9
$DRAGMODE
 70
     2
  9
$LTSCALE
 40
1.0
  9
$OSMODE
 70
    37
  9
$ATTMODE
 70
     1
  9
$TEXTSIZE
 40
0.0
  9
$TRACEWID
 40
0.05
  9
$TEXTSTYLE
  7
STANDARD
  9
$CLAYER
  8
0
  9
$CELTYPE
  6
CONTINUOUS
  9
$CECOLOR
 62
   256
  9
$DIMSCALE
 40
1.0
  9
$DIMASZ
 40
0.18
  9
$DIMEXO
 40
0.0625
  9
$DIMDLI
 40
0.38
  9
$DIMRND
 40
0.0
  9
$DIMDLE
 40
0.0
  9
$DIMEXE
 40
0.18
  9
$DIMTP
 40
0.0
  9
$DIMTM
 40
0.0
  9
$DIMTXT
 40
0.18
  9
$DIMCEN
 40
0.09
  9
$DIMTSZ
 40
0.0
  9
$DIMTOL
 70
     0
  9
$DIMLIM
 70
     0
  9
$DIMTIH
 70
     1
  9
$DIMTOH
 70
     1
  9
$DIMSE1
 70
     0
  9
$DIMSE2
 70
     0
  9
$DIMTAD
 70
     0
  9
$DIMZIN
 70
     0
  9
$DIMBLK
  1

  9
$DIMASO
 70
     1
  9
$DIMSHO
 70
     1
  9
$DIMPOST
  1

  9
$DIMAPOST
  1

  9
$DIMALT
 70
     0
  9
$DIMALTD
 70
     2
  9
$DIMALTF
 40
25.399999999999999
  9
$DIMLFAC
 40
1.0
  9
$DIMTOFL
 70
     0
  9
$DIMTVP
 40
0.0
  9
$DIMTIX
 70
     0
  9
$DIMSOXD
 70
     0
  9
$DIMSAH
 70
     0
  9
$DIMBLK1
  1

  9
$DIMBLK2
  1

  9
$DIMSTYLE
  2
STANDARD
  9
$DIMCLRD
 70
     0
  9
$DIMCLRE
 70
     0
  9
$DIMCLRT
 70
     0
  9
$DIMTFAC
 40
1.0
  9
$DIMGAP
 40
0.09
  9
$LUNITS
 70
     2
  9
$LUPREC
 70
     4
  9
$SKETCHINC
 40
0.1
  9
$FILLETRAD
 40
0.0
  9
$AUNITS
 70
     0
  9
$AUPREC
 70
     0
  9
$MENU
  1
.
  9
$ELEVATION
 40
0.0
  9
$PELEVATION
 40
0.0
  9
$THICKNESS
 40
0.0
  9
$LIMCHECK
 70
     0
  9
$BLIPMODE
 70
     0
  9
$CHAMFERA
 40
0.0
  9
$CHAMFERB
 40
0.0
  9
$SKPOLY
 70
     0
  9
$TDCREATE
 40
2444972.375
  9
$TDUPDATE
 40
2457436.2512558098
  9
$TDINDWG
 40
0.0000256481
  9
$TDUSRTIMER
 40
0.0000256481
  9
$USRTIMER
 70
     1
  9
$ANGBASE
 50
0.0
  9
$ANGDIR
 70
     0
  9
$PDMODE
 70
     0
  9
$PDSIZE
 40
0.0
  9
$PLINEWID
 40
0.0
  9
$COORDS
 70
     1
  9
$SPLFRAME
 70
     0
  9
$SPLINETYPE
 70
     6
  9
$SPLINESEGS
 70
     8
  9
$ATTDIA
 70
     1
  9
$ATTREQ
 70
     1
  9
$HANDLING
 70
     1
  9
$HANDSEED
  5
242
  9
$SURFTAB1
 70
     6
  9
$SURFTAB2
 70
     6
  9
$SURFTYPE
 70
     6
  9
$SURFU
 70
     6
  9
$SURFV
 70
     6
  9
$UCSNAME
  2

  9
$UCSORG
 10
0.0
 20
0.0
 30
0.0
  9
$UCSXDIR
 10
1.0
 20
0.0
 30
0.0
  9
$UCSYDIR
 10
0.0
 20
1.0
 30
0.0
  9
$PUCSNAME
  2

  9
$PUCSORG
 10
0.0
 20
0.0
 30
0.0
  9
$PUCSXDIR
 10
1.0
 20
0.0
 30
0.0
  9
$PUCSYDIR
 10
0.0
 20
1.0
 30
0.0
  9
$USERI1
 70
     0
  9
$USERI2
 70
     0
  9
$USERI3
 70
     0
  9
$USERI4
 70
     0
  9
$USERI5
 70
     0
  9
$USERR1
 40
0.0
  9
$USERR2
 40
0.0
  9
$USERR3
 40
0.0
  9
$USERR4
 40
0.0
  9
$USERR5
 40
0.0
  9
$WORLDVIEW
 70
     1
  9
$SHADEDGE
 70
     3
  9
$SHADEDIF
 70
    70
  9
$TILEMODE
 70
     1
  9
$MAXACTVP
 70
    48
  9
$PLIMCHECK
 70
     0
  9
$PEXTMIN
 10
1.0000000000000000E+020
 20
1.0000000000000000E+020
 30
1.0000000000000000E+020
  9
$PEXTMAX
 10
-1.0000000000000000E+020
 20
-1.0000000000000000E+020
 30
-1.0000000000000000E+020
  9
$PLIMMIN
 10
0.0
 20
0.0
  9
$PLIMMAX
 10
12.0
 20
9.0
  9
$UNITMODE
 70
     0
  9
$VISRETAIN
 70
     1
  9
$PLINEGEN
 70
     0
  9
$PSLTSCALE
 70
     1
  0
ENDSEC
  0
SECTION
  2
TABLES
  0
TABLE
  2
VPORT
 70
     1
  0
VPORT
  2
*ACTIVE
 70
     0
 10
0.0
 20
0.0
 11
1.0
 21
1.0
 12
170.64664076348581
 22
148.72550000000001
 13
0.0
 23
0.0
 14
1.0
 24
1.0
 15
0.0
 25
0.0
 16
0.0
 26
0.0
 36
1.0
 17
0.0
 27
0.0
 37
0.0
 40
283.95706667814062
 41
2.1001926782273599
 42
50.0
 43
0.0
 44
0.0
 50
0.0
 51
0.0
 71
     0
 72
   100
 73
     1
 74
     1
 75
     0
 76
     0
 77
     0
 78
     0
  0
ENDTAB
  0
TABLE
  2
LTYPE
 70
     3
  0
LTYPE
  2
CONTINUOUS
 70
     0
  3
Solid line
 72
    65
 73
     0
 40
0.0
  0
LTYPE
  2
AIGENLINE001
 70
     0
  3
generate AI->DXF Converter
 72
    65
 73
     2
 40
1.5522299999999991
 49
0.776115
 49
-0.776115
  0
LTYPE
  2
AIGENLINE002
 70
     0
  3
generate AI->DXF Converter
 72
    65
 73
     4
 40
5.8561449999999988
 49
3.5278
 49
-0.776115
 49
0.776115
 49
-0.776115
  0
ENDTAB
  0
TABLE
  2
LAYER
 70
     2
  0
LAYER
  2
0
 70
     0
 62
     7
  6
CONTINUOUS
  0
LAYER
  2
_________2
 70
     0
 62
     7
  6
CONTINUOUS
  0
ENDTAB
  0
TABLE
  2
STYLE
 70
     1
  0
STYLE
  2
STANDARD
 70
     0
 40
0.0
 41
0.0
 50
0.0
 71
     0
 42
0.0
  3
TXT
  4
EXTFONT.SHX
  0
ENDTAB
  0
TABLE
  2
VIEW
 70
     0
  0
ENDTAB
  0
TABLE
  2
UCS
 70
     0
  0
ENDTAB
  0
TABLE
  2
APPID
 70
     3
  0
APPID
  2
ACAD
 70
     0
  0
APPID
  2
ACAD_NAV_VCDISPLAY
 70
     0
  0
APPID
  2
ACAD_MLEADERVER
 70
     0
  0
ENDTAB
  0
TABLE
  2
DIMSTYLE
 70
     1
  0
DIMSTYLE
  2
STANDARD
 70
     0
  3

  4

  5

  6

  7

 40
1.0
 41
0.18
 42
0.0625
 43
0.38
 44
0.18
 45
0.0
 46
0.0
 47
0.0
 48
0.0
140
0.18
141
0.09
142
0.0
143
25.399999999999999
144
1.0
145
0.0
146
1.0
147
0.09
 71
     0
 72
     0
 73
     1
 74
     1
 75
     0
 76
     0
 77
     0
 78
     0
170
     0
171
     2
172
     0
173
     0
174
     0
175
     0
176
     0
177
     0
178
     0
  0
ENDTAB
  0
ENDSEC
  0
SECTION
  2
BLOCKS
  0
BLOCK
  8
0
  2
$MODEL_SPACE
 70
     0
 10
0.0
 20
0.0
 30
0.0
  3
$MODEL_SPACE
  1

  0
ENDBLK
  5
1A
  8
0
  0
BLOCK
 67
     1
  8
0
  2
$PAPER_SPACE
 70
     0
 10
0.0
 20
0.0
 30
0.0
  3
$PAPER_SPACE
  1

  0
ENDBLK
  5
17
 67
     1
  8
0
  0
ENDSEC
  0
SECTION
  2
ENTITIES
  0
TEXT
  5
23
  8
0
 62
     7
 10
31.0703
 20
208.1472875
 30
0.0
 40
3.0923400000000001
  1
360
 50
90.0
 41
0.5
 72
     1
 11
31.0703
 21
210.08000000000001
 31
0.0
  0
TEXT
  5
24
  8
0
 62
     7
 10
38.2577
 20
208.1472875
 30
0.0
 40
3.0923400000000001
  1
320
 50
90.0
 41
0.5
 72
     1
 11
38.2577
 21
210.08000000000001
 31
0.0
  0
TEXT
  5
25
  8
0
 62
     7
 10
108.033
 20
133.48174499999999
 30
0.0
 40
3.0923400000000001
  1
40
 50
90.0
 41
0.5
 72
     2
 11
108.033
 21
135.80099999999999
 31
0.0
  0
TEXT
  5
26
  8
0
 62
     7
 10
115.033
 20
121.825135
 30
0.0
 40
3.0923400000000001
  1
135
 50
90.0
 41
0.5
 72
     1
 11
115.033
 21
123.629
 31
0.0
  0
TEXT
  5
27
  8
0
 62
     7
 10
144.59
 20
122.1826775
 30
0.0
 40
3.0923400000000001
  1
110
 50
90.0
 41
0.5
 72
     1
 11
144.59
 21
123.59999999999999
 31
0.0
  0
TEXT
  5
28
  8
0
 62
     7
 10
154.3829825
 20
110.998
 30
0.0
 40
3.0923400000000001
  1
180
 41
0.5
 72
     1
 11
156.05799999999999
 21
110.998
 31
0.0
  0
TEXT
  5
29
  8
0
 62
     7
 10
145.13228749999999
 20
184.03999999999999
 30
0.0
 40
3.0923400000000001
  1
460
 41
0.5
 72
     1
 11
147.065
 21
184.03999999999999
 31
0.0
  0
TEXT
  5
2A
  8
0
 62
     7
 10
72.563082499999993
 20
184.03999999999999
 30
0.0
 40
3.0923400000000001
  1
510
 41
0.5
 72
     1
 11
74.238100000000003
 21
184.03999999999999
 31
0.0
  0
TEXT
  5
2B
  8
0
 62
     7
 10
72.305387499999995
 20
177.03999999999999
 30
0.0
 40
3.0923400000000001
  1
550
 41
0.5
 72
     1
 11
74.238100000000003
 21
177.03999999999999
 31
0.0
  0
TEXT
  5
2C
  8
0
 62
     7
 10
131.93157500000001
 20
220.709
 30
0.0
 40
3.0923400000000001
  1
R60
 41
0.5
 72
     2
 11
135.797
 21
220.709
 31
0.0
  0
TEXT
  5
2D
  8
0
 62
     7
 10
158.909178
 20
217.739
 30
0.0
 40
3.0923400000000001
  1
排水口
 41
0.5
 72
     2
 11
163.96000000000001
 21
217.739
 31
0.0
  0
TEXT
  5
2E
  8
0
 62
     7
 10
131.93157500000001
 20
200.85300000000001
 30
0.0
 40
3.0923400000000001
  1
R60
 41
0.5
 72
     2
 11
135.797
 21
200.85300000000001
 31
0.0
  0
TEXT
  5
2F
  8
0
 62
     7
 10
80.429879999999983
 20
206.26900000000001
 30
0.0
 40
3.0923400000000001
  1
%%c46
 41
0.5
 72
     2
 11
84.552999999999983
 21
206.26900000000001
 31
0.0
  0
TEXT
  5
30
  8
0
 62
     7
 10
139.53175999999999
 20
173.114
 30
0.0
 40
3.0923400000000001
  1
カウンター切込寸法
 41
0.5
 72
     1
 11
147.77799999999999
 21
173.114
 31
0.0
  0
LINE
  5
31
  8
0
 62
     7
 10
126.967
 20
222.34100000000001
 30
0.0
 11
125.82299999999999
 21
224.32300000000001
 31
0.0
  0
LINE
  5
32
  8
0
 62
     7
 10
125.82299999999999
 20
224.32300000000001
 30
0.0
 11
127.80500000000001
 21
223.179
 31
0.0
  0
LINE
  5
33
  8
0
 62
     7
 10
127.80500000000001
 20
223.179
 30
0.0
 11
126.967
 21
222.34100000000001
 31
0.0
  0
LINE
  5
34
  8
0
 62
     7
 10
125.82299999999999
 20
224.32300000000001
 30
0.0
 11
130.13800000000001
 21
220.00800000000001
 31
0.0
  0
LINE
  5
35
  8
0
 62
     7
 10
150.85300000000001
 20
214.70599999999999
 30
0.0
 11
149.709
 21
212.72399999999999
 31
0.0
  0
LINE
  5
36
  8
0
 62
     7
 10
149.709
 20
212.72399999999999
 30
0.0
 11
151.691
 21
213.86799999999999
 31
0.0
  0
LINE
  5
37
  8
0
 62
     7
 10
151.691
 20
213.86799999999999
 30
0.0
 11
150.85300000000001
 21
214.70599999999999
 31
0.0
  0
LINE
  5
38
  8
0
 62
     7
 10
149.709
 20
212.72399999999999
 30
0.0
 11
154.024
 21
217.03899999999999
 31
0.0
  0
LINE
  5
39
  8
0
 62
     7
 10
154.024
 20
217.03899999999999
 30
0.0
 11
163.96000000000001
 21
217.03899999999999
 31
0.0
  0
LINE
  5
3A
  8
0
 62
     7
 10
126.967
 20
197.81999999999999
 30
0.0
 11
125.82299999999999
 21
195.83799999999999
 31
0.0
  0
LINE
  5
3B
  8
0
 62
     7
 10
125.82299999999999
 20
195.83799999999999
 30
0.0
 11
127.80500000000001
 21
196.982
 31
0.0
  0
LINE
  5
3C
  8
0
 62
     7
 10
127.80500000000001
 20
196.982
 30
0.0
 11
126.967
 21
197.81999999999999
 31
0.0
  0
LINE
  5
3D
  8
0
 62
     7
 10
125.82299999999999
 20
195.83799999999999
 30
0.0
 11
130.13800000000001
 21
200.15299999999999
 31
0.0
  0
TEXT
  5
3E
  8
0
 62
     7
 10
178.36000000000001
 20
208.1472875
 30
0.0
 40
3.0923400000000001
  1
320
 50
90.0
 41
0.5
 72
     1
 11
178.36000000000001
 21
210.08000000000001
 31
0.0
  0
LINE
  5
3F
  8
0
 62
     7
 10
31.1905
 20
194.292
 30
0.0
 11
31.783100000000001
 21
192.08000000000001
 31
0.0
  0
LINE
  5
40
  8
0
 62
     7
 10
31.783100000000001
 20
192.08000000000001
 30
0.0
 11
32.375700000000002
 21
194.292
 31
0.0
  0
LINE
  5
41
  8
0
 62
     7
 10
32.375700000000002
 20
194.292
 30
0.0
 11
31.1905
 21
194.292
 31
0.0
  0
LINE
  5
42
  8
0
 62
     7
 10
32.361199999999997
 20
225.869
 30
0.0
 11
31.768599999999999
 21
228.08099999999999
 31
0.0
  0
LINE
  5
43
  8
0
 62
     7
 10
31.768599999999999
 20
228.08099999999999
 30
0.0
 11
31.176100000000002
 21
225.869
 31
0.0
  0
LINE
  5
44
  8
0
 62
     7
 10
31.176100000000002
 20
225.869
 30
0.0
 11
32.361199999999997
 21
225.869
 31
0.0
  0
LINE
  5
45
  8
0
 62
     7
 10
31.7759
 20
192.08099999999999
 30
0.0
 11
31.7759
 21
228.08000000000001
 31
0.0
  0
LINE
  5
46
  8
0
 62
     7
 10
49.563499999999998
 20
192.08000000000001
 30
0.0
 11
31.083100000000002
 21
192.08000000000001
 31
0.0
  0
LINE
  5
47
  8
0
 62
     7
 10
49.549100000000003
 20
228.08099999999999
 30
0.0
 11
31.0686
 21
228.08099999999999
 31
0.0
  0
LINE
  5
48
  8
0
  6
AIGENLINE001
 62
     7
 10
71.921800000000005
 20
117.879
 30
0.0
 11
70.471800000000002
 21
119.379
 31
0.0
  0
LINE
  5
49
  8
0
  6
AIGENLINE001
 62
     7
 10
76.521900000000002
 20
117.879
 30
0.0
 11
77.971800000000002
 21
119.379
 31
0.0
  0
LINE
  5
4A
  8
0
  6
AIGENLINE001
 62
     7
 10
71.921800000000005
 20
116.879
 30
0.0
 11
71.921800000000005
 21
117.879
 31
0.0
  0
LINE
  5
4B
  8
0
  6
AIGENLINE001
 62
     7
 10
70.471800000000002
 20
119.379
 30
0.0
 11
77.971800000000002
 21
119.379
 31
0.0
  0
LINE
  5
4C
  8
0
  6
AIGENLINE001
 62
     7
 10
71.921800000000005
 20
117.879
 30
0.0
 11
76.521900000000002
 21
117.879
 31
0.0
  0
LINE
  5
4D
  8
0
  6
AIGENLINE001
 62
     7
 10
76.521900000000002
 20
117.879
 30
0.0
 11
76.521900000000002
 21
116.879
 31
0.0
  0
ARC
  5
4E
  8
0
 62
     7
 10
78.341756000000004
 20
117.478996
 30
0.0
 40
0.6201360000000001
 50
100.560098
 51
178.454228
  0
ARC
  5
4F
  8
0
 62
     7
 10
70.103732999999991
 20
117.480707
 30
0.0
 40
0.618161
 50
1.3920179999999991
 51
78.709980999999999
  0
LINE
  5
50
  8
0
 62
     7
 10
70.721699999999984
 20
116.879
 30
0.0
 11
70.721699999999984
 21
117.496
 31
0.0
  0
LINE
  5
51
  8
0
 62
     7
 10
77.721800000000002
 20
116.879
 30
0.0
 11
77.721800000000002
 21
117.496
 31
0.0
  0
LINE
  5
52
  8
0
 62
     7
 10
70.721699999999984
 20
116.879
 30
0.0
 11
77.721800000000002
 21
116.879
 31
0.0
  0
LINE
  5
53
  8
0
 62
     7
 10
46.737999999999992
 20
126.379
 30
0.0
 11
46.737999999999992
 21
129.57900000000001
 31
0.0
  0
ARC
  5
54
  8
0
 62
     7
 10
47.56856299999999
 20
129.54853299999999
 30
0.0
 40
0.8311149999999999
 50
92.109700000000004
 51
177.89027100000001
  0
LINE
  5
55
  8
0
 62
     7
 10
47.537999999999997
 20
130.37899999999999
 30
0.0
 11
100.938
 21
130.37899999999999
 31
0.0
  0
ARC
  5
56
  8
0
 62
     7
 10
100.90772200000001
 20
129.54853199999999
 30
0.0
 40
0.8311159999999999
 50
2.109726999999999
 51
87.890263000000004
  0
LINE
  5
57
  8
0
 62
     7
 10
101.738
 20
129.57900000000001
 30
0.0
 11
101.738
 21
126.379
 31
0.0
  0
LINE
  5
58
  8
0
 62
     7
 10
101.738
 20
126.379
 30
0.0
 11
46.737999999999992
 21
126.379
 31
0.0
  0
LINE
  5
59
  8
0
  6
AIGENLINE001
 62
     7
 10
144.749
 20
117.879
 30
0.0
 11
143.29900000000001
 21
119.379
 31
0.0
  0
LINE
  5
5A
  8
0
  6
AIGENLINE001
 62
     7
 10
149.34899999999999
 20
117.879
 30
0.0
 11
150.79900000000001
 21
119.379
 31
0.0
  0
LINE
  5
5B
  8
0
  6
AIGENLINE001
 62
     7
 10
144.749
 20
116.879
 30
0.0
 11
144.749
 21
117.879
 31
0.0
  0
LINE
  5
5C
  8
0
  6
AIGENLINE001
 62
     7
 10
143.29900000000001
 20
119.379
 30
0.0
 11
150.79900000000001
 21
119.379
 31
0.0
  0
LINE
  5
5D
  8
0
  6
AIGENLINE001
 62
     7
 10
144.749
 20
117.879
 30
0.0
 11
149.34899999999999
 21
117.879
 31
0.0
  0
LINE
  5
5E
  8
0
  6
AIGENLINE001
 62
     7
 10
149.34899999999999
 20
117.879
 30
0.0
 11
149.34899999999999
 21
116.879
 31
0.0
  0
ARC
  5
5F
  8
0
 62
     7
 10
151.16926900000001
 20
117.478544
 30
0.0
 40
0.6206380000000001
 50
100.58130300000001
 51
178.41377199999999
  0
ARC
  5
60
  8
0
 62
     7
 10
142.93065100000001
 20
117.48058399999999
 30
0.0
 40
0.618269
 50
1.403176
 51
78.718384
  0
LINE
  5
61
  8
0
 62
     7
 10
143.54900000000001
 20
116.879
 30
0.0
 11
143.54900000000001
 21
117.496
 31
0.0
  0
LINE
  5
62
  8
0
 62
     7
 10
150.54900000000001
 20
116.879
 30
0.0
 11
150.54900000000001
 21
117.496
 31
0.0
  0
LINE
  5
63
  8
0
 62
     7
 10
143.54900000000001
 20
116.879
 30
0.0
 11
150.54900000000001
 21
116.879
 31
0.0
  0
LINE
  5
64
  8
0
 62
     7
 10
129.065
 20
126.379
 30
0.0
 11
129.065
 21
129.57900000000001
 31
0.0
  0
ARC
  5
65
  8
0
 62
     7
 10
129.895669
 20
129.54853299999999
 30
0.0
 40
0.8311149999999999
 50
92.109700000000004
 51
177.89027100000001
  0
LINE
  5
66
  8
0
 62
     7
 10
129.86500000000001
 20
130.37899999999999
 30
0.0
 11
164.26499999999999
 21
130.37899999999999
 31
0.0
  0
ARC
  5
67
  8
0
 62
     7
 10
164.23466199999999
 20
129.54853199999999
 30
0.0
 40
0.8311159999999999
 50
2.109726999999999
 51
87.890263000000004
  0
LINE
  5
68
  8
0
 62
     7
 10
165.065
 20
129.57900000000001
 30
0.0
 11
165.065
 21
126.379
 31
0.0
  0
LINE
  5
69
  8
0
 62
     7
 10
165.065
 20
126.379
 30
0.0
 11
129.065
 21
126.379
 31
0.0
  0
LINE
  5
6A
  8
0
  6
AIGENLINE002
 62
     7
 10
147.04900000000001
 20
131.79400000000001
 30
0.0
 11
147.04900000000001
 21
115.224
 31
0.0
  0
LINE
  5
6B
  8
0
  6
AIGENLINE002
 62
     7
 10
74.221800000000002
 20
132.494
 30
0.0
 11
74.221800000000002
 21
114.17400000000001
 31
0.0
  0
ARC
  5
6C
  8
0
  6
AIGENLINE001
 62
     7
 10
150.79641699999999
 20
121.422861
 30
0.0
 40
2.044036999999999
 50
270.05265900000001
 51
282.97310599999997
  0
ARC
  5
6D
  8
0
  6
AIGENLINE001
 62
     7
 10
150.54356100000001
 20
122.72434699999999
 30
0.0
 40
3.3693779999999989
 50
282.194704
 51
289.52780000000001
  0
ARC
  5
6E
  8
0
  6
AIGENLINE001
 62
     7
 10
149.78101699999999
 20
124.950109
 30
0.0
 40
5.722059999999999
 50
289.27437099999997
 51
295.10363799999999
  0
ARC
  5
6F
  8
0
  6
AIGENLINE001
 62
     7
 10
147.37487400000001
 20
130.25374299999999
 30
0.0
 40
11.545764999999999
 50
294.75010800000001
 51
296.66991999999999
  0
ARC
  5
70
  8
0
  6
AIGENLINE001
 62
     7
 10
122.50278900000001
 20
179.489057
 30
0.0
 40
66.706748000000005
 50
296.77867099999997
 51
297.23718600000001
  0
ARC
  5
71
  8
0
  6
AIGENLINE001
 62
     7
 10
146.70902899999999
 20
132.59973099999999
 30
0.0
 40
13.938079
 50
296.98161699999991
 51
300.191777
  0
ARC
  5
72
  8
0
  6
AIGENLINE001
 62
     7
 10
142.63743500000001
 20
139.834137
 30
0.0
 40
22.239021000000001
 50
299.885492
 51
302.70581199999998
  0
ARC
  5
73
  8
0
  6
AIGENLINE001
 62
     7
 10
150.50843900000001
 20
127.62309399999999
 30
0.0
 40
7.7111020000000003
 50
302.51882599999999
 51
305.92452200000002
  0
ARC
  5
74
  8
0
  6
AIGENLINE001
 62
     7
 10
141.79909900000001
 20
138.97158899999999
 30
0.0
 40
22.014475000000001
 50
306.9509700000001
 51
313.78670799999998
  0
ARC
  5
75
  8
0
  6
AIGENLINE001
 62
     7
 10
144.575568
 20
136.19980000000001
 30
0.0
 40
18.092419
 50
313.51315499999998
 51
317.96205200000003
  0
ARC
  5
76
  8
0
  6
AIGENLINE001
 62
     7
 10
221.81671399999999
 20
66.384848000000005
 30
0.0
 40
86.024465000000006
 50
137.19753900000001
 51
137.87595400000001
  0
ARC
  5
77
  8
0
  6
AIGENLINE001
 62
     7
 10
169.998392
 20
114.2304
 30
0.0
 40
15.49593
 50
135.04521199999999
 51
136.810012
  0
ARC
  5
78
  8
0
  6
AIGENLINE001
 62
     7
 10
149.74676099999999
 20
134.46231900000001
 30
0.0
 40
13.130267999999999
 50
315.007454
 51
316.41911199999998
  0
ARC
  5
79
  8
0
  6
AIGENLINE001
 62
     7
 10
137.23733899999999
 20
146.41385700000001
 30
0.0
 40
30.431262
 50
316.35510599999998
 51
317.50305800000001
  0
ARC
  5
7A
  8
0
  6
AIGENLINE001
 62
     7
 10
113.508154
 20
168.20508100000001
 30
0.0
 40
62.648198999999991
 50
317.46950500000003
 51
318.280325
  0
ARC
  5
7B
  8
0
  6
AIGENLINE001
 62
     7
 10
90.908294999999995
 20
188.425186
 30
0.0
 40
92.973179000000016
 50
318.24792600000001
 51
318.95898799999998
  0
LINE
  5
7C
  8
0
  6
AIGENLINE001
 62
     7
 10
161.03200000000001
 20
127.379
 30
0.0
 11
163.03200000000001
 21
129.57900000000001
 31
0.0
  0
ARC
  5
7D
  8
0
  6
AIGENLINE001
 62
     7
 10
124.36052599999999
 20
171.23933600000001
 30
0.0
 40
56.842547000000003
 50
312.86948899999999
 51
313.76392800000002
  0
ARC
  5
7E
  8
0
 62
     7
 10
149.134613
 20
127.024782
 30
0.0
 40
9.1403210000000001
 50
282.346745
 51
294.87940600000002
  0
ARC
  5
7F
  8
0
 62
     7
 10
147.84413699999999
 20
130.056488
 30
0.0
 40
12.434027
 50
294.39669300000003
 51
302.76525600000002
  0
ARC
  5
80
  8
0
 62
     7
 10
145.4043659999999
 20
134.01997800000001
 30
0.0
 40
17.08756099999999
 50
302.45193499999999
 51
308.64711799999998
  0
ARC
  5
81
  8
0
 62
     7
 10
141.489664
 20
139.081874
 30
0.0
 40
23.485984999999999
 50
308.393756
 51
312.34510899999998
  0
ARC
  5
82
  8
0
 62
     7
 10
134.53609399999999
 20
146.816373
 30
0.0
 40
33.886521999999999
 50
312.225864
 51
315.85669799999999
  0
ARC
  5
83
  8
0
 62
     7
 10
119.11512999999999
 20
162.07423199999999
 30
0.0
 40
55.579418999999987
 50
315.64121499999999
 51
316.53566499999999
  0
ARC
  5
84
  8
0
 62
     7
 10
91.480420999999993
 20
188.21687900000001
 30
0.0
 40
93.620375999999993
 50
316.55745000000007
 51
317.254614
  0
ARC
  5
85
  8
0
 62
     7
 10
203.20103
 20
86.007924000000017
 30
0.0
 40
57.803282999999993
 50
135.69951499999999
 51
138.01737499999999
  0
ARC
  5
86
  8
0
  6
AIGENLINE001
 62
     7
 10
143.30084199999999
 20
121.422861
 30
0.0
 40
2.044036999999999
 50
257.02691399999998
 51
269.947361
  0
ARC
  5
87
  8
0
  6
AIGENLINE001
 62
     7
 10
143.553697
 20
122.72434699999999
 30
0.0
 40
3.3693779999999989
 50
250.47221999999999
 51
257.805316
  0
ARC
  5
88
  8
0
  6
AIGENLINE001
 62
     7
 10
144.31624199999999
 20
124.950109
 30
0.0
 40
5.722059999999999
 50
244.89638199999999
 51
250.72564800000001
  0
ARC
  5
89
  8
0
  6
AIGENLINE001
 62
     7
 10
146.72238400000001
 20
130.25374299999999
 30
0.0
 40
11.545764999999999
 50
243.33009999999999
 51
245.249911
  0
ARC
  5
8A
  8
0
  6
AIGENLINE001
 62
     7
 10
171.59447
 20
179.489057
 30
0.0
 40
66.706748000000005
 50
242.762833
 51
243.221349
  0
ARC
  5
8B
  8
0
  6
AIGENLINE001
 62
     7
 10
147.38822999999999
 20
132.59973099999999
 30
0.0
 40
13.938079
 50
239.808243
 51
243.01840200000001
  0
ARC
  5
8C
  8
0
  6
AIGENLINE001
 62
     7
 10
151.459823
 20
139.834137
 30
0.0
 40
22.239021000000001
 50
237.294208
 51
240.11452800000001
  0
ARC
  5
8D
  8
0
  6
AIGENLINE001
 62
     7
 10
143.588819
 20
127.62309399999999
 30
0.0
 40
7.7111020000000003
 50
234.07549700000001
 51
237.48119399999999
  0
ARC
  5
8E
  8
0
  6
AIGENLINE001
 62
     7
 10
152.29816
 20
138.97158899999999
 30
0.0
 40
22.014475000000001
 50
226.213312
 51
233.049049
  0
ARC
  5
8F
  8
0
  6
AIGENLINE001
 62
     7
 10
149.52168999999989
 20
136.19980000000001
 30
0.0
 40
18.092419
 50
222.03796800000001
 51
226.48686499999999
  0
ARC
  5
90
  8
0
  6
AIGENLINE001
 62
     7
 10
72.280544999999975
 20
66.384848000000005
 30
0.0
 40
86.024465000000006
 50
42.124025999999994
 51
42.802440999999988
  0
ARC
  5
91
  8
0
  6
AIGENLINE001
 62
     7
 10
124.098866
 20
114.2304
 30
0.0
 40
15.49593
 50
43.189967999999993
 51
44.954768999999992
  0
ARC
  5
92
  8
0
  6
AIGENLINE001
 62
     7
 10
144.35049699999999
 20
134.46231900000001
 30
0.0
 40
13.130267999999999
 50
223.58090799999999
 51
224.99256600000001
  0
ARC
  5
93
  8
0
  6
AIGENLINE001
 62
     7
 10
156.85991899999999
 20
146.41385700000001
 30
0.0
 40
30.431262
 50
222.496962
 51
223.644914
  0
ARC
  5
94
  8
0
  6
AIGENLINE001
 62
     7
 10
180.58910499999999
 20
168.20508100000001
 30
0.0
 40
62.648198999999991
 50
221.719695
 51
222.53051400000001
  0
ARC
  5
95
  8
0
  6
AIGENLINE001
 62
     7
 10
203.188963
 20
188.425186
 30
0.0
 40
92.973179000000016
 50
221.041032
 51
221.752094
  0
LINE
  5
96
  8
0
  6
AIGENLINE001
 62
     7
 10
133.065
 20
127.379
 30
0.0
 11
131.065
 21
129.57900000000001
 31
0.0
  0
ARC
  5
97
  8
0
  6
AIGENLINE001
 62
     7
 10
174.542813
 20
176.33644699999999
 30
0.0
 40
63.84799499999999
 50
226.2851620000001
 51
227.08146099999999
  0
ARC
  5
98
  8
0
 62
     7
 10
144.96264600000001
 20
127.024782
 30
0.0
 40
9.1403210000000001
 50
245.12061399999999
 51
257.65327500000001
  0
ARC
  5
99
  8
0
 62
     7
 10
146.25312099999999
 20
130.056488
 30
0.0
 40
12.434027
 50
237.23476400000001
 51
245.60332700000001
  0
ARC
  5
9A
  8
0
 62
     7
 10
148.692893
 20
134.01997800000001
 30
0.0
 40
17.08756099999999
 50
231.352902
 51
237.54808499999999
  0
ARC
  5
9B
  8
0
 62
     7
 10
152.607595
 20
139.081874
 30
0.0
 40
23.485984999999999
 50
227.654911
 51
231.6062640000001
  0
ARC
  5
9C
  8
0
 62
     7
 10
159.56116399999999
 20
146.816373
 30
0.0
 40
33.886521999999999
 50
224.14332200000001
 51
227.774156
  0
ARC
  5
9D
  8
0
 62
     7
 10
174.98212899999999
 20
162.07423199999999
 30
0.0
 40
55.579418999999987
 50
223.46435500000001
 51
224.35880499999999
  0
ARC
  5
9E
  8
0
 62
     7
 10
202.616838
 20
188.21687900000001
 30
0.0
 40
93.620375999999993
 50
222.745406
 51
223.44256999999999
  0
ARC
  5
9F
  8
0
 62
     7
 10
90.896227999999994
 20
86.007924000000017
 30
0.0
 40
57.803282999999993
 50
41.982604999999992
 51
44.300465000000003
  0
LINE
  5
A0
  8
0
 62
     7
 10
108.738
 20
126.379
 30
0.0
 11
108.738
 21
130.37899999999999
 31
0.0
  0
LINE
  5
A1
  8
0
 62
     7
 10
109.324
 20
124.16800000000001
 30
0.0
 11
108.73099999999999
 21
126.379
 31
0.0
  0
LINE
  5
A2
  8
0
 62
     7
 10
108.73099999999999
 20
126.379
 30
0.0
 11
108.13800000000001
 21
124.16800000000001
 31
0.0
  0
LINE
  5
A3
  8
0
 62
     7
 10
108.13800000000001
 20
124.16800000000001
 30
0.0
 11
109.324
 21
124.16800000000001
 31
0.0
  0
LINE
  5
A4
  8
0
 62
     7
 10
108.738
 20
122.792
 30
0.0
 11
108.738
 21
126.378
 31
0.0
  0
LINE
  5
A5
  8
0
 62
     7
 10
108.15300000000001
 20
132.59100000000001
 30
0.0
 11
108.745
 21
130.37899999999999
 31
0.0
  0
LINE
  5
A6
  8
0
 62
     7
 10
108.745
 20
130.37899999999999
 30
0.0
 11
109.33799999999999
 21
132.59100000000001
 31
0.0
  0
LINE
  5
A7
  8
0
 62
     7
 10
109.33799999999999
 20
132.59100000000001
 30
0.0
 11
108.15300000000001
 21
132.59100000000001
 31
0.0
  0
LINE
  5
A8
  8
0
 62
     7
 10
108.738
 20
130.38
 30
0.0
 11
108.738
 21
135.80099999999999
 31
0.0
  0
LINE
  5
A9
  8
0
 62
     7
 10
144.709
 20
121.59
 30
0.0
 11
145.30199999999999
 21
119.378
 31
0.0
  0
LINE
  5
AA
  8
0
 62
     7
 10
145.30199999999999
 20
119.378
 30
0.0
 11
145.89500000000001
 21
121.59
 31
0.0
  0
LINE
  5
AB
  8
0
 62
     7
 10
145.89500000000001
 20
121.59
 30
0.0
 11
144.709
 21
121.59
 31
0.0
  0
LINE
  5
AC
  8
0
 62
     7
 10
145.88
 20
128.16800000000001
 30
0.0
 11
145.28700000000001
 21
130.38
 31
0.0
  0
LINE
  5
AD
  8
0
 62
     7
 10
145.28700000000001
 20
130.38
 30
0.0
 11
144.69499999999999
 21
128.16800000000001
 31
0.0
  0
LINE
  5
AE
  8
0
 62
     7
 10
144.69499999999999
 20
128.16800000000001
 30
0.0
 11
145.88
 21
128.16800000000001
 31
0.0
  0
LINE
  5
AF
  8
0
 62
     7
 10
145.29499999999999
 20
119.379
 30
0.0
 11
145.29499999999999
 21
130.37899999999999
 31
0.0
  0
ARC
  5
B0
  8
0
  6
AIGENLINE001
 62
     7
 10
77.968693999999999
 20
124.924716
 30
0.0
 40
5.5458910000000001
 50
270.03198200000003
 51
278.16836899999998
  0
ARC
  5
B1
  8
0
  6
AIGENLINE001
 62
     7
 10
77.626621
 20
127.645715
 30
0.0
 40
8.2880269999999996
 50
277.83651900000001
 51
284.93658499999998
  0
ARC
  5
B2
  8
0
  6
AIGENLINE001
 62
     7
 10
76.454906000000008
 20
132.34171599999999
 30
0.0
 40
13.127601
 50
284.59497999999991
 51
290.03004800000002
  0
ARC
  5
B3
  8
0
  6
AIGENLINE001
 62
     7
 10
73.7971
 20
139.966689
 30
0.0
 40
21.202005
 50
289.72033399999998
 51
292.60376600000001
  0
ARC
  5
B4
  8
0
  6
AIGENLINE001
 62
     7
 10
68.826545999999993
 20
152.035878
 30
0.0
 40
34.254598999999999
 50
292.51992899999999
 51
294.87104799999997
  0
ARC
  5
B5
  8
0
  6
AIGENLINE001
 62
     7
 10
57.333199
 20
177.16531499999999
 30
0.0
 40
61.887450999999999
 50
294.74008800000001
 51
295.54794399999997
  0
ARC
  5
B6
  8
0
  6
AIGENLINE001
 62
     7
 10
9.4858370000000001
 20
276.88970599999999
 30
0.0
 40
172.49628799999999
 50
295.60153000000003
 51
296.26912700000003
  0
ARC
  5
B7
  8
0
  6
AIGENLINE001
 62
     7
 10
68.195510999999996
 20
158.21999099999999
 30
0.0
 40
40.098174999999991
 50
296.09101600000002
 51
297.97122999999999
  0
ARC
  5
B8
  8
0
  6
AIGENLINE001
 62
     7
 10
49.156193999999999
 20
194.460511
 30
0.0
 40
81.035376000000014
 50
297.84211299999998
 51
299.31831399999999
  0
ARC
  5
B9
  8
0
  6
AIGENLINE001
 62
     7
 10
9.9405999999999999
 20
264.79632500000002
 30
0.0
 40
161.564617
 50
299.23032000000001
 51
300.297934
  0
ARC
  5
BA
  8
0
  6
AIGENLINE001
 62
     7
 10
-65.996707000000001
 20
395.568848
 30
0.0
 40
312.78578299999998
 50
300.22302400000001
 51
300.58573000000001
  0
ARC
  5
BB
  8
0
  6
AIGENLINE001
 62
     7
 10
1452.3399999999999
 20
-2166.7910000000002
 30
0.0
 40
2665.643
 50
120.557124
 51
120.656446
  0
ARC
  5
BC
  8
0
  6
AIGENLINE001
 62
     7
 10
108.48144600000001
 20
109.00161199999999
 30
0.0
 40
22.693080999999999
 50
119.00703300000001
 51
120.001955
  0
ARC
  5
BD
  8
0
  6
AIGENLINE001
 62
     7
 10
126.270387
 20
76.660964000000007
 30
0.0
 40
59.603214999999999
 50
118.24023
 51
118.886835
  0
ARC
  5
BE
  8
0
  6
AIGENLINE001
 62
     7
 10
105.75448299999999
 20
114.87811000000001
 30
0.0
 40
16.227504
 50
115.060914
 51
118.272964
  0
ARC
  5
BF
  8
0
  6
AIGENLINE001
 62
     7
 10
101.25247400000001
 20
124.41004700000001
 30
0.0
 40
5.6860999999999988
 50
108.933483
 51
114.65154099999999
  0
ARC
  5
C0
  8
0
  6
AIGENLINE001
 62
     7
 10
100.41252
 20
126.792816
 30
0.0
 40
3.1597810000000002
 50
89.808114999999987
 51
108.545964
  0
ARC
  5
C1
  8
0
 62
     7
 10
70.355338000000003
 20
152.32969700000001
 30
0.0
 40
35.133606999999998
 50
282.912238
 51
292.38346200000001
  0
ARC
  5
C2
  8
0
 62
     7
 10
67.457556999999994
 20
159.88899000000001
 30
0.0
 40
43.227297
 50
292.11949199999998
 51
296.90614399999998
  0
ARC
  5
C3
  8
0
 62
     7
 10
61.765777
 20
171.37690900000001
 30
0.0
 40
56.047474999999999
 50
296.78041400000001
 51
300.45263599999998
  0
ARC
  5
C4
  8
0
 62
     7
 10
48.674153000000011
 20
194.08726899999999
 30
0.0
 40
82.260385999999997
 50
300.29621100000003
 51
301.78848500000009
  0
ARC
  5
C5
  8
0
 62
     7
 10
26.48489
 20
230.102462
 30
0.0
 40
124.562269
 50
301.737236
 51
302.308898
  0
ARC
  5
C6
  8
0
 62
     7
 10
-106.84396700000001
 20
440.345978
 30
0.0
 40
373.51786200000009
 50
302.35722399999997
 51
302.79989899999998
  0
ARC
  5
C7
  8
0
  6
AIGENLINE001
 62
     7
 10
70.474773999999996
 20
124.906074
 30
0.0
 40
5.5272489999999994
 50
261.81786799999998
 51
269.96885400000002
  0
ARC
  5
C8
  8
0
  6
AIGENLINE001
 62
     7
 10
70.809217000000004
 20
127.55751100000001
 30
0.0
 40
8.1994259999999972
 50
254.99322000000001
 51
262.14151299999997
  0
ARC
  5
C9
  8
0
  6
AIGENLINE001
 62
     7
 10
71.966154000000003
 20
132.170365
 30
0.0
 40
12.954756
 50
249.854568
 51
255.33352099999999
  0
ARC
  5
CA
  8
0
  6
AIGENLINE001
 62
     7
 10
74.627531999999974
 20
139.757678
 30
0.0
 40
20.994790999999999
 50
247.27080699999999
 51
250.16717
  0
ARC
  5
CB
  8
0
  6
AIGENLINE001
 62
     7
 10
79.705664999999996
 20
152.01107300000001
 30
0.0
 40
34.258710999999998
 50
245.01573900000011
 51
247.355515
  0
ARC
  5
CC
  8
0
  6
AIGENLINE001
 62
     7
 10
92.260122999999979
 20
179.302143
 30
0.0
 40
64.298772999999997
 50
244.30697599999999
 51
245.1469569999999
  0
ARC
  5
CD
  8
0
  6
AIGENLINE001
 62
     7
 10
156.53278399999999
 20
312.527873
 30
0.0
 40
212.217882
 50
243.74237400000001
 51
244.264306
  0
ARC
  5
CE
  8
0
  6
AIGENLINE001
 62
     7
 10
80.293453999999997
 20
158.24314699999999
 30
0.0
 40
40.124472999999988
 50
242.028582
 51
243.90750800000001
  0
ARC
  5
CF
  8
0
  6
AIGENLINE001
 62
     7
 10
99.787191000000007
 20
195.33664400000001
 30
0.0
 40
82.028137999999984
 50
240.61163199999999
 51
242.15535700000001
  0
ARC
  5
D0
  8
0
  6
AIGENLINE001
 62
     7
 10
140.88914299999999
 20
268.92277100000001
 30
0.0
 40
166.31482
 50
239.67585199999999
 51
240.714303
  0
ARC
  5
D1
  8
0
  6
AIGENLINE001
 62
     7
 10
223.09540000000001
 20
410.27154100000001
 30
0.0
 40
329.83014100000003
 50
239.382938
 51
239.74651800000001
  0
ARC
  5
D2
  8
0
  6
AIGENLINE001
 62
     7
 10
-887.56599600000004
 20
-1461.857
 30
0.0
 40
1846.9649999999999
 50
59.309916999999999
 51
59.442172999999997
  0
ARC
  5
D3
  8
0
  6
AIGENLINE001
 62
     7
 10
37.734715000000001
 20
104.995176
 30
0.0
 40
27.292945
 50
59.845540999999997
 51
60.92193799999999
  0
ARC
  5
D4
  8
0
  6
AIGENLINE001
 62
     7
 10
22.144107999999999
 20
76.548880000000011
 30
0.0
 40
59.731203000000001
 50
61.113186999999989
 51
61.758392999999998
  0
ARC
  5
D5
  8
0
  6
AIGENLINE001
 62
     7
 10
42.722278999999993
 20
114.880296
 30
0.0
 40
16.225360999999999
 50
61.724792000000008
 51
64.93702900000001
  0
ARC
  5
D6
  8
0
  6
AIGENLINE001
 62
     7
 10
47.224850000000004
 20
124.412886
 30
0.0
 40
5.6831250000000004
 50
65.345174000000014
 51
71.065724000000003
  0
ARC
  5
D7
  8
0
  6
AIGENLINE001
 62
     7
 10
48.063959999999987
 20
126.793125
 30
0.0
 40
3.1594729999999989
 50
71.453067000000004
 51
90.195397000000014
  0
ARC
  5
D8
  8
0
 62
     7
 10
85.613057999999995
 20
170.09572600000001
 30
0.0
 40
54.241393000000002
 50
243.51208600000001
 51
253.47081800000001
  0
ARC
  5
D9
  8
0
 62
     7
 10
90.973138000000006
 20
181.369394
 30
0.0
 40
66.72269
 50
239.61018899999999
 51
243.71022300000001
  0
ARC
  5
DA
  8
0
 62
     7
 10
106.11778
 20
207.69640699999999
 30
0.0
 40
97.094177999999999
 50
237.70066600000001
 51
239.76037299999999
  0
ARC
  5
DB
  8
0
 62
     7
 10
150.65468999999999
 20
278.88812899999999
 30
0.0
 40
181.06866199999999
 50
237.38089600000001
 51
237.825706
  0
ARC
  5
DC
  8
0
 62
     7
 10
164.06509600000001
 20
200.08052599999999
 30
0.0
 40
6.0000169999999988
 50
270.00002000000001
 51
359.99999000000003
  0
LINE
  5
DD
  8
0
 62
     7
 10
164.065
 20
194.08099999999999
 30
0.0
 11
130.065
 21
194.08099999999999
 31
0.0
  0
ARC
  5
DE
  8
0
 62
     7
 10
130.065234
 20
200.080524
 30
0.0
 40
6.0000150000000003
 50
179.99996999999999
 51
270.00002000000001
  0
LINE
  5
DF
  8
0
 62
     7
 10
124.065
 20
200.08099999999999
 30
0.0
 11
124.065
 21
220.08099999999999
 31
0.0
  0
ARC
  5
E0
  8
0
 62
     7
 10
130.065236
 20
220.080636
 30
0.0
 40
6.0000169999999988
 50
90.0
 51
179.99996999999999
  0
LINE
  5
E1
  8
0
 62
     7
 10
130.065
 20
226.08099999999999
 30
0.0
 11
164.065
 21
226.08099999999999
 31
0.0
  0
ARC
  5
E2
  8
0
 62
     7
 10
164.06509600000001
 20
220.080636
 30
0.0
 40
6.0000169999999988
 50
0.00001
 51
89.999980000000008
  0
LINE
  5
E3
  8
0
 62
     7
 10
170.065
 20
220.08099999999999
 30
0.0
 11
170.065
 21
200.08099999999999
 31
0.0
  0
LINE
  5
E4
  8
0
 62
     7
 10
178.47999999999999
 20
196.291
 30
0.0
 11
179.072
 21
194.08000000000001
 31
0.0
  0
LINE
  5
E5
  8
0
 62
     7
 10
179.072
 20
194.08000000000001
 30
0.0
 11
179.66499999999999
 21
196.291
 31
0.0
  0
LINE
  5
E6
  8
0
 62
     7
 10
179.66499999999999
 20
196.291
 30
0.0
 11
178.47999999999999
 21
196.291
 31
0.0
  0
LINE
  5
E7
  8
0
 62
     7
 10
179.65000000000001
 20
223.87
 30
0.0
 11
179.05799999999999
 21
226.08099999999999
 31
0.0
  0
LINE
  5
E8
  8
0
 62
     7
 10
179.05799999999999
 20
226.08099999999999
 30
0.0
 11
178.465
 21
223.87
 31
0.0
  0
LINE
  5
E9
  8
0
 62
     7
 10
178.465
 20
223.87
 30
0.0
 11
179.65000000000001
 21
223.87
 31
0.0
  0
LINE
  5
EA
  8
0
 62
     7
 10
179.065
 20
194.08099999999999
 30
0.0
 11
179.065
 21
226.08000000000001
 31
0.0
  0
LINE
  5
EB
  8
0
 62
     7
 10
180.13099999999989
 20
194.08000000000001
 30
0.0
 11
166.43600000000001
 21
194.08000000000001
 31
0.0
  0
LINE
  5
EC
  8
0
 62
     7
 10
180.13099999999989
 20
226.08000000000001
 30
0.0
 11
166.43600000000001
 21
226.08000000000001
 31
0.0
  0
LINE
  5
ED
  8
0
 62
     7
 10
126.276
 20
183.916
 30
0.0
 11
124.065
 21
183.32300000000001
 31
0.0
  0
LINE
  5
EE
  8
0
 62
     7
 10
124.065
 20
183.32300000000001
 30
0.0
 11
126.276
 21
182.72999999999999
 31
0.0
  0
LINE
  5
EF
  8
0
 62
     7
 10
126.276
 20
182.72999999999999
 30
0.0
 11
126.276
 21
183.916
 31
0.0
  0
LINE
  5
F0
  8
0
 62
     7
 10
167.85400000000001
 20
182.745
 30
0.0
 11
170.066
 21
183.33699999999999
 31
0.0
  0
LINE
  5
F1
  8
0
 62
     7
 10
170.066
 20
183.33699999999999
 30
0.0
 11
167.85400000000001
 21
183.93000000000001
 31
0.0
  0
LINE
  5
F2
  8
0
 62
     7
 10
167.85400000000001
 20
183.93000000000001
 30
0.0
 11
167.85400000000001
 21
182.745
 31
0.0
  0
LINE
  5
F3
  8
0
 62
     7
 10
124.065
 20
183.33000000000001
 30
0.0
 11
170.065
 21
183.33000000000001
 31
0.0
  0
LINE
  5
F4
  8
0
 62
     7
 10
124.065
 20
197.64500000000001
 30
0.0
 11
124.065
 21
182.27199999999999
 31
0.0
  0
LINE
  5
F5
  8
0
 62
     7
 10
170.065
 20
197.64500000000001
 30
0.0
 11
170.065
 21
182.27199999999999
 31
0.0
  0
LINE
  5
F6
  8
0
  6
AIGENLINE002
 62
     7
 10
119.577
 20
210.08000000000001
 30
0.0
 11
173.607
 21
210.08000000000001
 31
0.0
  0
LINE
  5
F7
  8
0
  6
AIGENLINE002
 62
     7
 10
147.04900000000001
 20
229.136
 30
0.0
 11
147.04900000000001
 21
191.68799999999999
 31
0.0
  0
ARC
  5
F8
  8
0
 62
     7
 10
93.73819499999999
 20
200.08052599999999
 30
0.0
 40
6.0000169999999988
 50
270.00002000000001
 51
359.99999000000003
  0
LINE
  5
F9
  8
0
 62
     7
 10
93.738200000000006
 20
194.08099999999999
 30
0.0
 11
54.73790000000001
 21
194.08099999999999
 31
0.0
  0
ARC
  5
FA
  8
0
 62
     7
 10
54.737917000000003
 20
200.080524
 30
0.0
 40
6.0000150000000003
 50
179.99996999999999
 51
270.00002000000001
  0
LINE
  5
FB
  8
0
 62
     7
 10
48.737900000000003
 20
200.08099999999999
 30
0.0
 11
48.737900000000003
 21
220.08099999999999
 31
0.0
  0
ARC
  5
FC
  8
0
 62
     7
 10
54.737918999999991
 20
220.080636
 30
0.0
 40
6.0000169999999988
 50
90.0
 51
179.99996999999999
  0
LINE
  5
FD
  8
0
 62
     7
 10
54.73790000000001
 20
226.08099999999999
 30
0.0
 11
93.738200000000006
 21
226.08099999999999
 31
0.0
  0
ARC
  5
FE
  8
0
 62
     7
 10
93.73819499999999
 20
220.080636
 30
0.0
 40
6.0000169999999988
 50
0.00001
 51
89.999980000000008
  0
LINE
  5
FF
  8
0
 62
     7
 10
99.738200000000006
 20
220.08099999999999
 30
0.0
 11
99.738200000000006
 21
200.08099999999999
 31
0.0
  0
LINE
  5
100
  8
0
 62
     7
 10
149.25999999999999
 20
110.878
 30
0.0
 11
147.04900000000001
 21
110.285
 31
0.0
  0
LINE
  5
101
  8
0
 62
     7
 10
147.04900000000001
 20
110.285
 30
0.0
 11
149.25999999999999
 21
109.693
 31
0.0
  0
LINE
  5
102
  8
0
 62
     7
 10
149.25999999999999
 20
109.693
 30
0.0
 11
149.25999999999999
 21
110.878
 31
0.0
  0
LINE
  5
103
  8
0
 62
     7
 10
162.85499999999999
 20
109.70699999999999
 30
0.0
 11
165.06700000000001
 21
110.3
 31
0.0
  0
LINE
  5
104
  8
0
 62
     7
 10
165.06700000000001
 20
110.3
 30
0.0
 11
162.85499999999999
 21
110.892
 31
0.0
  0
LINE
  5
105
  8
0
 62
     7
 10
162.85499999999999
 20
110.892
 30
0.0
 11
162.85499999999999
 21
109.70699999999999
 31
0.0
  0
LINE
  5
106
  8
0
 62
     7
 10
147.05000000000001
 20
110.29300000000001
 30
0.0
 11
165.066
 21
110.29300000000001
 31
0.0
  0
LINE
  5
107
  8
0
 62
     7
 10
147.04900000000001
 20
109.58499999999999
 30
0.0
 11
147.04900000000001
 21
114.524
 31
0.0
  0
LINE
  5
108
  8
0
 62
     7
 10
165.065
 20
109.58499999999999
 30
0.0
 11
165.065
 21
125.679
 31
0.0
  0
LINE
  5
109
  8
0
 62
     7
 10
115.15300000000001
 20
119.09
 30
0.0
 11
115.746
 21
116.878
 31
0.0
  0
LINE
  5
10A
  8
0
 62
     7
 10
115.746
 20
116.878
 30
0.0
 11
116.33799999999999
 21
119.09
 31
0.0
  0
LINE
  5
10B
  8
0
 62
     7
 10
116.33799999999999
 20
119.09
 30
0.0
 11
115.15300000000001
 21
119.09
 31
0.0
  0
LINE
  5
10C
  8
0
 62
     7
 10
116.324
 20
128.16800000000001
 30
0.0
 11
115.73099999999999
 21
130.38
 31
0.0
  0
LINE
  5
10D
  8
0
 62
     7
 10
115.73099999999999
 20
130.38
 30
0.0
 11
115.139
 21
128.16800000000001
 31
0.0
  0
LINE
  5
10E
  8
0
 62
     7
 10
115.139
 20
128.16800000000001
 30
0.0
 11
116.324
 21
128.16800000000001
 31
0.0
  0
LINE
  5
10F
  8
0
 62
     7
 10
115.738
 20
116.879
 30
0.0
 11
115.738
 21
130.37899999999999
 31
0.0
  0
LINE
  5
110
  8
0
 62
     7
 10
116.804
 20
116.879
 30
0.0
 11
78.427400000000006
 21
116.879
 31
0.0
  0
LINE
  5
111
  8
0
 62
     7
 10
109.797
 20
126.379
 30
0.0
 11
102.461
 21
126.379
 31
0.0
  0
LINE
  5
112
  8
0
 62
     7
 10
116.804
 20
130.37899999999999
 30
0.0
 11
102.461
 21
130.37899999999999
 31
0.0
  0
LINE
  5
113
  8
0
 62
     7
 10
38.377899999999997
 20
196.291
 30
0.0
 11
38.970500000000001
 21
194.08000000000001
 31
0.0
  0
LINE
  5
114
  8
0
 62
     7
 10
38.970500000000001
 20
194.08000000000001
 30
0.0
 11
39.563000000000002
 21
196.291
 31
0.0
  0
LINE
  5
115
  8
0
 62
     7
 10
39.563000000000002
 20
196.291
 30
0.0
 11
38.377899999999997
 21
196.291
 31
0.0
  0
LINE
  5
116
  8
0
 62
     7
 10
39.5486
 20
223.87
 30
0.0
 11
38.956000000000003
 21
226.08099999999999
 31
0.0
  0
LINE
  5
117
  8
0
 62
     7
 10
38.956000000000003
 20
226.08099999999999
 30
0.0
 11
38.363399999999999
 21
223.87
 31
0.0
  0
LINE
  5
118
  8
0
 62
     7
 10
38.363399999999999
 20
223.87
 30
0.0
 11
39.5486
 21
223.87
 31
0.0
  0
LINE
  5
119
  8
0
 62
     7
 10
38.963200000000001
 20
194.08099999999999
 30
0.0
 11
38.963200000000001
 21
226.08000000000001
 31
0.0
  0
LINE
  5
11A
  8
0
 62
     7
 10
51.964799999999997
 20
194.08000000000001
 30
0.0
 11
38.270400000000002
 21
194.08000000000001
 31
0.0
  0
LINE
  5
11B
  8
0
 62
     7
 10
51.950299999999999
 20
226.08000000000001
 30
0.0
 11
38.256
 21
226.08000000000001
 31
0.0
  0
LINE
  5
11C
  8
0
 62
     7
 10
50.948799999999991
 20
183.916
 30
0.0
 11
48.737200000000001
 21
183.32300000000001
 31
0.0
  0
LINE
  5
11D
  8
0
 62
     7
 10
48.737200000000001
 20
183.32300000000001
 30
0.0
 11
50.948799999999991
 21
182.72999999999999
 31
0.0
  0
LINE
  5
11E
  8
0
 62
     7
 10
50.948799999999991
 20
182.72999999999999
 30
0.0
 11
50.948799999999991
 21
183.916
 31
0.0
  0
LINE
  5
11F
  8
0
 62
     7
 10
97.527500000000003
 20
182.745
 30
0.0
 11
99.739099999999993
 21
183.33699999999999
 31
0.0
  0
LINE
  5
120
  8
0
 62
     7
 10
99.739099999999993
 20
183.33699999999999
 30
0.0
 11
97.527500000000003
 21
183.93000000000001
 31
0.0
  0
LINE
  5
121
  8
0
 62
     7
 10
97.527500000000003
 20
183.93000000000001
 30
0.0
 11
97.527500000000003
 21
182.745
 31
0.0
  0
LINE
  5
122
  8
0
 62
     7
 10
48.738100000000003
 20
183.33000000000001
 30
0.0
 11
99.738200000000006
 21
183.33000000000001
 31
0.0
  0
LINE
  5
123
  8
0
 62
     7
 10
48.948700000000002
 20
176.916
 30
0.0
 11
46.737099999999991
 21
176.32300000000001
 31
0.0
  0
LINE
  5
124
  8
0
 62
     7
 10
46.737099999999991
 20
176.32300000000001
 30
0.0
 11
48.948700000000002
 21
175.72999999999999
 31
0.0
  0
LINE
  5
125
  8
0
 62
     7
 10
48.948700000000002
 20
175.72999999999999
 30
0.0
 11
48.948700000000002
 21
176.916
 31
0.0
  0
LINE
  5
126
  8
0
 62
     7
 10
48.737900000000003
 20
197.64500000000001
 30
0.0
 11
48.737900000000003
 21
182.27199999999999
 31
0.0
  0
LINE
  5
127
  8
0
 62
     7
 10
99.738200000000006
 20
197.64500000000001
 30
0.0
 11
99.738200000000006
 21
182.27199999999999
 31
0.0
  0
LINE
  5
128
  8
0
 62
     7
 10
99.527500000000003
 20
175.745
 30
0.0
 11
101.739
 21
176.33699999999999
 31
0.0
  0
LINE
  5
129
  8
0
 62
     7
 10
101.739
 20
176.33699999999999
 30
0.0
 11
99.527500000000003
 21
176.93000000000001
 31
0.0
  0
LINE
  5
12A
  8
0
 62
     7
 10
99.527500000000003
 20
176.93000000000001
 30
0.0
 11
99.527500000000003
 21
175.745
 31
0.0
  0
LINE
  5
12B
  8
0
 62
     7
 10
46.737999999999992
 20
176.33000000000001
 30
0.0
 11
101.738
 21
176.33000000000001
 31
0.0
  0
LINE
  5
12C
  8
0
 62
     7
 10
101.738
 20
194.55199999999999
 30
0.0
 11
101.738
 21
175.27199999999999
 31
0.0
  0
LINE
  5
12D
  8
0
 62
     7
 10
46.737999999999992
 20
194.55199999999999
 30
0.0
 11
46.737999999999992
 21
175.27199999999999
 31
0.0
  0
ARC
  5
12E
  8
0
  6
AIGENLINE001
 62
     7
 10
147.04862900000001
 20
210.08049500000001
 30
0.0
 40
3.7500110000000002
 50
270.00002000000001
 51
359.99999000000003
  0
ARC
  5
12F
  8
0
  6
AIGENLINE001
 62
     7
 10
147.04862900000001
 20
210.08049399999999
 30
0.0
 40
3.750008999999999
 50
179.99996999999999
 51
270.00002000000001
  0
ARC
  5
130
  8
0
  6
AIGENLINE001
 62
     7
 10
147.04863
 20
210.08049399999999
 30
0.0
 40
3.7500110000000002
 50
90.0
 51
179.99996999999999
  0
ARC
  5
131
  8
0
  6
AIGENLINE001
 62
     7
 10
147.04862900000001
 20
210.08049399999999
 30
0.0
 40
3.7500110000000002
 50
0.00001
 51
89.999980000000008
  0
ARC
  5
132
  8
0
  6
AIGENLINE001
 62
     7
 10
146.96087700000001
 20
210.16824700000001
 30
0.0
 40
2.3893239999999998
 50
272.10476699999998
 51
357.89524299999999
  0
ARC
  5
133
  8
0
  6
AIGENLINE001
 62
     7
 10
147.13716500000001
 20
210.16902999999999
 30
0.0
 40
2.390136
 50
182.12286399999991
 51
267.87716499999999
  0
ARC
  5
134
  8
0
  6
AIGENLINE001
 62
     7
 10
147.13638
 20
209.99274299999999
 30
0.0
 40
2.3893230000000001
 50
92.104730000000004
 51
177.89524
  0
ARC
  5
135
  8
0
  6
AIGENLINE001
 62
     7
 10
146.96007299999999
 20
209.991939
 30
0.0
 40
2.390158
 50
2.1233140000000001
 51
87.876676000000003
  0
ARC
  5
136
  8
0
 62
     7
 10
74.238142000000011
 20
210.08049500000001
 30
0.0
 40
3.7500110000000002
 50
270.00002000000001
 51
359.99999000000003
  0
ARC
  5
137
  8
0
 62
     7
 10
74.238142000000011
 20
210.08049399999999
 30
0.0
 40
3.750008999999999
 50
179.99996999999999
 51
270.00002000000001
  0
ARC
  5
138
  8
0
 62
     7
 10
74.238143999999991
 20
210.08049399999999
 30
0.0
 40
3.7500110000000002
 50
90.0
 51
179.99996999999999
  0
ARC
  5
139
  8
0
 62
     7
 10
74.238142000000011
 20
210.08049399999999
 30
0.0
 40
3.7500110000000002
 50
0.00001
 51
89.999980000000008
  0
LINE
  5
13A
  8
0
 62
     7
 10
70.610600000000005
 20
212.834
 30
0.0
 11
72.593599999999995
 21
211.68899999999999
 31
0.0
  0
LINE
  5
13B
  8
0
 62
     7
 10
72.593599999999995
 20
211.68899999999999
 30
0.0
 11
71.448800000000006
 21
213.672
 31
0.0
  0
LINE
  5
13C
  8
0
 62
     7
 10
71.448800000000006
 20
213.672
 30
0.0
 11
70.610600000000005
 21
212.834
 31
0.0
  0
LINE
  5
13D
  8
0
 62
     7
 10
130.13800000000001
 20
220.00800000000001
 30
0.0
 11
135.797
 21
220.00800000000001
 31
0.0
  0
LINE
  5
13E
  8
0
 62
     7
 10
130.13800000000001
 20
200.15299999999999
 30
0.0
 11
135.797
 21
200.15299999999999
 31
0.0
  0
LINE
  5
13F
  8
0
 62
     7
 10
77.828800000000001
 20
207.292
 30
0.0
 11
75.846199999999996
 21
208.43700000000001
 31
0.0
  0
LINE
  5
140
  8
0
 62
     7
 10
75.846199999999996
 20
208.43700000000001
 30
0.0
 11
76.991
 21
206.45400000000001
 31
0.0
  0
LINE
  5
141
  8
0
 62
     7
 10
76.991
 20
206.45400000000001
 30
0.0
 11
77.828800000000001
 21
207.292
 31
0.0
  0
LINE
  5
142
  8
0
 62
     7
 10
69.719700000000003
 20
214.56299999999999
 30
0.0
 11
78.719700000000003
 21
205.56299999999999
 31
0.0
  0
LINE
  5
143
  8
0
 62
     7
 10
78.719700000000003
 20
205.56299999999999
 30
0.0
 11
84.729399999999984
 21
205.56299999999999
 31
0.0
  0
ARC
  5
144
  8
0
 62
     7
 10
74.238142999999994
 20
210.08066700000001
 30
0.0
 40
2.3001330000000002
 50
269.99572899999998
 51
359.995699
  0
ARC
  5
145
  8
0
 62
     7
 10
74.23796999999999
 20
210.08049399999999
 30
0.0
 40
2.29996
 50
179.99996999999999
 51
270.00002000000001
  0
ARC
  5
146
  8
0
 62
     7
 10
74.237971000000002
 20
210.08049399999999
 30
0.0
 40
2.2999610000000001
 50
90.0
 51
179.99996999999999
  0
ARC
  5
147
  8
0
 62
     7
 10
74.238142999999994
 20
210.080322
 30
0.0
 40
2.3001330000000002
 50
0.004301
 51
90.004271000000017
  0
LINE
  5
148
  8
0
  6
AIGENLINE002
 62
     7
 10
44.250100000000003
 20
210.08000000000001
 30
0.0
 11
103.28
 21
210.08000000000001
 31
0.0
  0
LINE
  5
149
  8
0
  6
AIGENLINE002
 62
     7
 10
74.221800000000002
 20
230.191
 30
0.0
 11
74.221800000000002
 21
190.09299999999999
 31
0.0
  0
ARC
  5
14A
  8
0
 62
     7
 10
95.738256999999976
 20
198.08029099999999
 30
0.0
 40
6.0000169999999988
 50
270.00002000000001
 51
359.99999000000003
  0
LINE
  5
14B
  8
0
 62
     7
 10
95.738299999999995
 20
192.08000000000001
 30
0.0
 11
52.738
 21
192.08000000000001
 31
0.0
  0
ARC
  5
14C
  8
0
 62
     7
 10
52.738025999999991
 20
198.08028899999999
 30
0.0
 40
6.0000150000000003
 50
179.99996999999999
 51
270.00002000000001
  0
LINE
  5
14D
  8
0
 62
     7
 10
46.737999999999992
 20
198.08000000000001
 30
0.0
 11
46.737999999999992
 21
222.08099999999999
 31
0.0
  0
ARC
  5
14E
  8
0
 62
     7
 10
52.738028
 20
222.08052599999999
 30
0.0
 40
6.0000169999999988
 50
90.0
 51
179.99996999999999
  0
LINE
  5
14F
  8
0
 62
     7
 10
52.738
 20
228.08099999999999
 30
0.0
 11
95.738299999999995
 21
228.08099999999999
 31
0.0
  0
ARC
  5
150
  8
0
 62
     7
 10
95.738256999999976
 20
222.08052599999999
 30
0.0
 40
6.0000169999999988
 50
0.00001
 51
89.999980000000008
  0
LINE
  5
151
  8
0
 62
     7
 10
101.738
 20
222.08099999999999
 30
0.0
 11
101.738
 21
198.08000000000001
 31
0.0
  0
TEXT
  5
152
  8
_________2
 62
     7
 10
28.83196533333334
 20
49.456400000000002
 30
0.0
 40
4.4979399999999989
  1
セラトレーディング株式会社
 41
0.5
 72
     1
 11
46.22399999999999
 21
49.456400000000002
 31
0.0
  0
TEXT
  5
153
  8
_________2
 62
     7
 10
29.525700000000001
 20
22.2272
 30
0.0
 40
3.9357000000000002
  1
重量：7.5kg、オーバーフローなし
 41
0.5
  0
TEXT
  5
154
  8
_________2
 62
     7
 10
113.886
 20
45.745600000000003
 30
0.0
 40
3.9357000000000002
  1
P3コンフォート 洗面器
 41
0.5
  0
LINE
  5
155
  8
_________2
 62
     7
 10
105.239
 20
17.4285
 30
0.0
 11
105.239
 21
0.4485540000000001
 31
0.0
  0
LINE
  5
156
  8
_________2
 62
     7
 10
81.679900000000004
 20
51.324300000000001
 30
0.0
 11
79.493700000000004
 21
51.324300000000001
 31
0.0
  0
LINE
  5
157
  8
_________2
 62
     7
 10
82.172600000000017
 20
51.324300000000001
 30
0.0
 11
81.920400000000001
 21
51.324300000000001
 31
0.0
  0
LINE
  5
158
  8
_________2
 62
     7
 10
82.665199999999984
 20
51.324300000000001
 30
0.0
 11
85.590100000000007
 21
51.324300000000001
 31
0.0
  0
LINE
  5
159
  8
_________2
 62
     7
 10
82.172600000000017
 20
51.324300000000001
 30
0.0
 11
82.424800000000005
 21
51.324300000000001
 31
0.0
  0
LINE
  5
15A
  8
_________2
 62
     7
 10
75.776399999999995
 20
51.324300000000001
 30
0.0
 11
73.589399999999998
 21
51.324300000000001
 31
0.0
  0
LINE
  5
15B
  8
_________2
 62
     7
 10
76.2684
 20
51.324300000000001
 30
0.0
 11
76.016900000000007
 21
51.324300000000001
 31
0.0
  0
LINE
  5
15C
  8
_________2
 62
     7
 10
76.2684
 20
51.817
 30
0.0
 11
76.2684
 21
54.003900000000002
 31
0.0
  0
LINE
  5
15D
  8
_________2
 62
     7
 10
76.2684
 20
51.324300000000001
 30
0.0
 11
76.2684
 21
51.576900000000002
 31
0.0
  0
LINE
  5
15E
  8
_________2
 62
     7
 10
76.76100000000001
 20
51.324300000000001
 30
0.0
 11
78.947999999999993
 21
51.324300000000001
 31
0.0
  0
LINE
  5
15F
  8
_________2
 62
     7
 10
76.2684
 20
51.324300000000001
 30
0.0
 11
76.520499999999998
 21
51.324300000000001
 31
0.0
  0
LINE
  5
160
  8
_________2
 62
     7
 10
76.2684
 20
50.832399999999993
 30
0.0
 11
76.2684
 21
48.645699999999998
 31
0.0
  0
LINE
  5
161
  8
_________2
 62
     7
 10
76.2684
 20
51.324300000000001
 30
0.0
 11
76.2684
 21
51.072800000000001
 31
0.0
  0
LINE
  5
162
  8
_________2
 62
     7
 10
79.979399999999984
 20
50.104799999999997
 30
0.0
 11
85.157399999999996
 21
49.240000000000002
 31
0.0
  0
LINE
  5
163
  8
_________2
 62
     7
 10
79.979399999999984
 20
52.544199999999989
 30
0.0
 11
85.157399999999996
 21
53.409700000000001
 31
0.0
  0
LINE
  5
164
  8
_________2
 62
     7
 10
85.157399999999996
 20
49.240000000000002
 30
0.0
 11
85.157399999999996
 21
53.409700000000001
 31
0.0
  0
LINE
  5
165
  8
_________2
 62
     7
 10
79.979399999999984
 20
50.104799999999997
 30
0.0
 11
79.979399999999984
 21
52.544199999999989
 31
0.0
  0
ARC
  5
166
  8
_________2
 62
     7
 10
76.221766000000002
 20
51.277380999999998
 30
0.0
 40
1.267714
 50
2.1220840000000001
 51
87.894083999999992
  0
ARC
  5
167
  8
_________2
 62
     7
 10
76.315297000000001
 20
51.277734999999993
 30
0.0
 40
1.267374999999999
 50
92.122849999999985
 51
177.893304
  0
ARC
  5
168
  8
_________2
 62
     7
 10
76.315273000000005
 20
51.371245999999992
 30
0.0
 40
1.267363
 50
182.121815
 51
267.87821400000001
  0
ARC
  5
169
  8
_________2
 62
     7
 10
76.221461000000005
 20
51.371928999999987
 30
0.0
 40
1.2680439999999991
 50
272.11916400000001
 51
357.84848499999998
  0
ARC
  5
16A
  8
_________2
 62
     7
 10
76.187981999999991
 20
51.244312999999998
 30
0.0
 40
2.1668310000000002
 50
2.1161439999999989
 51
87.874379000000005
  0
ARC
  5
16B
  8
_________2
 62
     7
 10
76.348411999999996
 20
51.245334999999997
 30
0.0
 40
2.1657980000000001
 50
92.118487999999999
 51
177.909886
  0
ARC
  5
16C
  8
_________2
 62
     7
 10
76.348354
 20
51.404327000000002
 30
0.0
 40
2.1657779999999991
 50
182.11700400000001
 51
267.88302499999998
  0
ARC
  5
16D
  8
_________2
 62
     7
 10
76.188378999999983
 20
51.405009999999997
 30
0.0
 40
2.1664590000000001
 50
272.11546800000002
 51
357.86560400000002
  0
TEXT
  5
16E
  8
_________2
 62
     7
 10
109.544
 20
23.199100000000001
 30
0.0
 40
3.0923400000000001
  1
図番
 41
0.5
  0
LINE
  5
16F
  8
_________2
 62
     7
 10
108.489
 20
27.4283
 30
0.0
 11
188.49000000000001
 21
27.4283
 31
0.0
  0
TEXT
  5
170
  8
_________2
 62
     7
 10
109.544
 20
33.198900000000002
 30
0.0
 40
3.0923400000000001
  1
品番
 41
0.5
  0
TEXT
  5
171
  8
_________2
 62
     7
 10
109.544
 20
53.338000000000001
 30
0.0
 40
3.0923400000000001
  1
名称
 41
0.5
  0
TEXT
  5
172
  8
_________2
 62
     7
 10
94.569199999999995
 20
48.341900000000003
 30
0.0
 40
3.6545800000000002
  1
mm
 41
0.5
  0
TEXT
  5
173
  8
_________2
 62
     7
 10
90.582099999999997
 20
53.338000000000001
 30
0.0
 40
3.0923400000000001
  1
単位
 41
0.5
  0
TEXT
  5
174
  8
_________2
 62
     7
 10
90.582099999999997
 20
40.930399999999999
 30
0.0
 40
3.0923400000000001
  1
尺度
 41
0.5
  0
TEXT
  5
175
  8
_________2
 62
     7
 10
98.050299999999993
 20
34.7378
 30
0.0
 40
3.6545800000000002
  1
 10
 41
0.5
  0
TEXT
  5
176
  8
_________2
 62
     7
 10
95.330699999999993
 20
34.7378
 30
0.0
 40
3.6545800000000002
  1
 ：
 41
0.5
  0
TEXT
  5
177
  8
_________2
 62
     7
 10
92.441500000000005
 20
34.7378
 30
0.0
 40
3.6545800000000002
  1
1
 41
0.5
  0
TEXT
  5
178
  8
_________2
 62
     7
 10
137.327
 20
30.627800000000001
 30
0.0
 40
3.9357000000000002
  1
DV037755-00
 41
0.5
  0
TEXT
  5
179
  8
_________2
 62
     7
 10
137.327
 20
20.626999999999999
 30
0.0
 40
3.9357000000000002
  1
DV037755
 41
0.5
  0
TEXT
  5
17A
  8
_________2
 62
     7
 10
41.6663
 20
35.123000000000012
 30
0.0
 40
3.6545800000000002
  1
早川
 41
0.5
  0
TEXT
  5
17B
  8
_________2
 62
     7
 10
23.092300000000002
 20
35.123000000000012
 30
0.0
 40
3.6545800000000002
  1
石原
 41
0.5
  0
TEXT
  5
17C
  8
_________2
 62
     7
 10
72.724699999999999
 20
34.7378
 30
0.0
 40
3.6545800000000002
  1
16.01.21
 41
0.5
  0
TEXT
  5
17D
  8
_________2
 62
     7
 10
74.768500000000003
 20
40.930399999999999
 30
0.0
 40
3.0923400000000001
  1
付
 41
0.5
  0
TEXT
  5
17E
  8
_________2
 62
     7
 10
71.209900000000005
 20
40.930399999999999
 30
0.0
 40
3.0923400000000001
  1
日
 41
0.5
  0
TEXT
  5
17F
  8
_________2
 62
     7
 10
34.578299999999999
 20
40.930399999999999
 30
0.0
 40
3.0923400000000001
  1
検図
 41
0.5
  0
TEXT
  5
180
  8
_________2
 62
     7
 10
22.9602
 20
26.731000000000002
 30
0.0
 40
3.0923400000000001
  1
備考
 41
0.5
  0
TEXT
  5
181
  8
_________2
 62
     7
 10
22.9602
 20
40.930399999999999
 30
0.0
 40
3.0923400000000001
  1
製図
 41
0.5
  0
LINE
  5
182
  8
_________2
 62
     7
 10
188.49000000000001
 20
17.4285
 30
0.0
 11
21.988499999999998
 21
17.4285
 31
0.0
  0
LINE
  5
183
  8
_________2
 62
     7
 10
21.988499999999998
 20
17.4285
 30
0.0
 11
21.988499999999998
 21
280.43000000000001
 31
0.0
  0
LINE
  5
184
  8
_________2
 62
     7
 10
21.988499999999998
 20
280.43000000000001
 30
0.0
 11
188.49000000000001
 21
280.43000000000001
 31
0.0
  0
LINE
  5
185
  8
_________2
 62
     7
 10
188.49000000000001
 20
280.43000000000001
 30
0.0
 11
188.49000000000001
 21
17.4285
 31
0.0
  0
LINE
  5
186
  8
_________2
 62
     7
 10
70.488799999999998
 20
30.928899999999999
 30
0.0
 11
70.488799999999998
 21
57.428699999999992
 31
0.0
  0
LINE
  5
187
  8
_________2
 62
     7
 10
89.488600000000005
 20
30.928899999999999
 30
0.0
 11
89.488600000000005
 21
57.428699999999992
 31
0.0
  0
LINE
  5
188
  8
_________2
 62
     7
 10
108.489
 20
17.4285
 30
0.0
 11
108.489
 21
57.428699999999992
 31
0.0
  0
LINE
  5
189
  8
_________2
 62
     7
 10
33.488300000000002
 20
30.928899999999999
 30
0.0
 11
33.488300000000002
 21
44.928800000000003
 31
0.0
  0
LINE
  5
18A
  8
_________2
 62
     7
 10
21.988499999999998
 20
30.928899999999999
 30
0.0
 11
108.489
 21
30.928899999999999
 31
0.0
  0
LINE
  5
18B
  8
_________2
 62
     7
 10
21.988499999999998
 20
44.928800000000003
 30
0.0
 11
108.489
 21
44.928800000000003
 31
0.0
  0
LINE
  5
18C
  8
_________2
 62
     7
 10
108.489
 20
37.428100000000001
 30
0.0
 11
188.49000000000001
 21
37.428100000000001
 31
0.0
  0
LINE
  5
18D
  8
_________2
 62
     7
 10
21.988499999999998
 20
57.428699999999992
 30
0.0
 11
188.49000000000001
 21
57.428699999999992
 31
0.0
  0
LINE
  5
18E
  8
_________2
 62
     7
 10
210.24000000000001
 20
148.93100000000001
 30
0.0
 11
188.489
 21
148.93100000000001
 31
0.0
  0
LINE
  5
18F
  8
_________2
 62
     7
 10
105.239
 20
297.45100000000002
 30
0.0
 11
105.239
 21
280.43000000000001
 31
0.0
  0
LINE
  5
190
  8
_________2
 62
     7
 10
21.988499999999998
 20
148.93100000000001
 30
0.0
 11
0.238402
 21
148.93100000000001
 31
0.0
  0
ENDSEC
  0
EOF
