  0
SECTION
  2
HEADER
  9
$ACADVER
  1
AC1009
  9
$INSBASE
 10
0.0
 20
0.0
 30
0.0
  9
$EXTMIN
 10
-4.70052
 20
-21.071400000000001
 30
0.0
  9
$EXTMAX
 10
205.30099999999999
 20
275.93099999999993
 30
0.0
  9
$LIMMIN
 10
0.0
 20
0.0
  9
$LIMMAX
 10
12.0
 20
9.0
  9
$ORTHOMODE
 70
     0
  9
$REGENMODE
 70
     1
  9
$FILLMODE
 70
     1
  9
$QTEXTMODE
 70
     0
  9
$MIRRTEXT
 70
     1
  9
$DRAGMODE
 70
     2
  9
$LTSCALE
 40
1.0
  9
$OSMODE
 70
    37
  9
$ATTMODE
 70
     1
  9
$TEXTSIZE
 40
0.0
  9
$TRACEWID
 40
0.05
  9
$TEXTSTYLE
  7
STANDARD
  9
$CLAYER
  8
0
  9
$CELTYPE
  6
CONTINUOUS
  9
$CECOLOR
 62
   256
  9
$DIMSCALE
 40
1.0
  9
$DIMASZ
 40
0.18
  9
$DIMEXO
 40
0.0625
  9
$DIMDLI
 40
0.38
  9
$DIMRND
 40
0.0
  9
$DIMDLE
 40
0.0
  9
$DIMEXE
 40
0.18
  9
$DIMTP
 40
0.0
  9
$DIMTM
 40
0.0
  9
$DIMTXT
 40
0.18
  9
$DIMCEN
 40
0.09
  9
$DIMTSZ
 40
0.0
  9
$DIMTOL
 70
     0
  9
$DIMLIM
 70
     0
  9
$DIMTIH
 70
     1
  9
$DIMTOH
 70
     1
  9
$DIMSE1
 70
     0
  9
$DIMSE2
 70
     0
  9
$DIMTAD
 70
     0
  9
$DIMZIN
 70
     0
  9
$DIMBLK
  1

  9
$DIMASO
 70
     1
  9
$DIMSHO
 70
     1
  9
$DIMPOST
  1

  9
$DIMAPOST
  1

  9
$DIMALT
 70
     0
  9
$DIMALTD
 70
     2
  9
$DIMALTF
 40
25.399999999999999
  9
$DIMLFAC
 40
1.0
  9
$DIMTOFL
 70
     0
  9
$DIMTVP
 40
0.0
  9
$DIMTIX
 70
     0
  9
$DIMSOXD
 70
     0
  9
$DIMSAH
 70
     0
  9
$DIMBLK1
  1

  9
$DIMBLK2
  1

  9
$DIMSTYLE
  2
STANDARD
  9
$DIMCLRD
 70
     0
  9
$DIMCLRE
 70
     0
  9
$DIMCLRT
 70
     0
  9
$DIMTFAC
 40
1.0
  9
$DIMGAP
 40
0.09
  9
$LUNITS
 70
     2
  9
$LUPREC
 70
     4
  9
$SKETCHINC
 40
0.1
  9
$FILLETRAD
 40
0.0
  9
$AUNITS
 70
     0
  9
$AUPREC
 70
     0
  9
$MENU
  1
.
  9
$ELEVATION
 40
0.0
  9
$PELEVATION
 40
0.0
  9
$THICKNESS
 40
0.0
  9
$LIMCHECK
 70
     0
  9
$BLIPMODE
 70
     0
  9
$CHAMFERA
 40
0.0
  9
$CHAMFERB
 40
0.0
  9
$SKPOLY
 70
     0
  9
$TDCREATE
 40
2444972.375
  9
$TDUPDATE
 40
2455608.2342645018
  9
$TDINDWG
 40
0.0000087037
  9
$TDUSRTIMER
 40
0.0000087037
  9
$USRTIMER
 70
     1
  9
$ANGBASE
 50
0.0
  9
$ANGDIR
 70
     0
  9
$PDMODE
 70
     0
  9
$PDSIZE
 40
0.0
  9
$PLINEWID
 40
0.0
  9
$COORDS
 70
     1
  9
$SPLFRAME
 70
     0
  9
$SPLINETYPE
 70
     6
  9
$SPLINESEGS
 70
     8
  9
$ATTDIA
 70
     0
  9
$ATTREQ
 70
     1
  9
$HANDLING
 70
     1
  9
$HANDSEED
  5
1EB
  9
$SURFTAB1
 70
     6
  9
$SURFTAB2
 70
     6
  9
$SURFTYPE
 70
     6
  9
$SURFU
 70
     6
  9
$SURFV
 70
     6
  9
$UCSNAME
  2

  9
$UCSORG
 10
0.0
 20
0.0
 30
0.0
  9
$UCSXDIR
 10
1.0
 20
0.0
 30
0.0
  9
$UCSYDIR
 10
0.0
 20
1.0
 30
0.0
  9
$PUCSNAME
  2

  9
$PUCSORG
 10
0.0
 20
0.0
 30
0.0
  9
$PUCSXDIR
 10
1.0
 20
0.0
 30
0.0
  9
$PUCSYDIR
 10
0.0
 20
1.0
 30
0.0
  9
$USERI1
 70
     0
  9
$USERI2
 70
     0
  9
$USERI3
 70
     0
  9
$USERI4
 70
     0
  9
$USERI5
 70
     0
  9
$USERR1
 40
0.0
  9
$USERR2
 40
0.0
  9
$USERR3
 40
0.0
  9
$USERR4
 40
0.0
  9
$USERR5
 40
0.0
  9
$WORLDVIEW
 70
     1
  9
$SHADEDGE
 70
     3
  9
$SHADEDIF
 70
    70
  9
$TILEMODE
 70
     1
  9
$MAXACTVP
 70
    48
  9
$PLIMCHECK
 70
     0
  9
$PEXTMIN
 10
1.0000000000000000E+020
 20
1.0000000000000000E+020
 30
1.0000000000000000E+020
  9
$PEXTMAX
 10
-1.0000000000000000E+020
 20
-1.0000000000000000E+020
 30
-1.0000000000000000E+020
  9
$PLIMMIN
 10
0.0
 20
0.0
  9
$PLIMMAX
 10
12.0
 20
9.0
  9
$UNITMODE
 70
     0
  9
$VISRETAIN
 70
     1
  9
$PLINEGEN
 70
     0
  9
$PSLTSCALE
 70
     1
  0
ENDSEC
  0
SECTION
  2
TABLES
  0
TABLE
  2
VPORT
 70
     2
  0
VPORT
  2
*ACTIVE
 70
     0
 10
0.0
 20
0.0
 11
1.0
 21
1.0
 12
205.3106854945909
 22
127.4297999999999
 13
0.0
 23
0.0
 14
1.0
 24
1.0
 15
0.0
 25
0.0
 16
0.0
 26
0.0
 36
1.0
 17
0.0
 27
0.0
 37
0.0
 40
299.2467506297229
 41
2.2894736842105261
 42
50.0
 43
0.0
 44
0.0
 50
0.0
 51
0.0
 71
     0
 72
   100
 73
     1
 74
     1
 75
     0
 76
     0
 77
     0
 78
     0
  0
ENDTAB
  0
TABLE
  2
LTYPE
 70
     4
  0
LTYPE
  2
CONTINUOUS
 70
     0
  3
Solid line
 72
    65
 73
     0
 40
0.0
  0
LTYPE
  2
AIGENLINE001
 70
     0
  3
generate AI->DXF Converter
 72
    65
 73
     4
 40
5.8561449999999988
 49
3.5278
 49
-0.776115
 49
0.776115
 49
-0.776115
  0
LTYPE
  2
AIGENLINE002
 70
     0
  3
generate AI->DXF Converter
 72
    65
 73
     2
 40
1.5522299999999991
 49
0.776115
 49
-0.776115
  0
LTYPE
  2
AIGENLINE003
 70
     0
  3
generate AI->DXF Converter
 72
    65
 73
     6
 40
7.4083750000000004
 49
3.5278
 49
-0.776115
 49
0.776115
 49
-0.776115
 49
0.776115
 49
-0.776115
  0
ENDTAB
  0
TABLE
  2
LAYER
 70
     2
  0
LAYER
  2
0
 70
     0
 62
     7
  6
CONTINUOUS
  0
LAYER
  2
_________2
 70
     0
 62
     7
  6
CONTINUOUS
  0
ENDTAB
  0
TABLE
  2
STYLE
 70
     1
  0
STYLE
  2
STANDARD
 70
     0
 40
0.0
 41
0.0
 50
0.0
 71
     0
 42
0.0
  3
TXT
  4
EXTFONT.SHX
  0
ENDTAB
  0
TABLE
  2
VIEW
 70
     0
  0
ENDTAB
  0
TABLE
  2
UCS
 70
     0
  0
ENDTAB
  0
TABLE
  2
APPID
 70
     1
  0
APPID
  2
ACAD
 70
     0
  0
ENDTAB
  0
TABLE
  2
DIMSTYLE
 70
     1
  0
DIMSTYLE
  2
STANDARD
 70
     0
  3

  4

  5

  6

  7

 40
1.0
 41
0.18
 42
0.0625
 43
0.38
 44
0.18
 45
0.0
 46
0.0
 47
0.0
 48
0.0
140
0.18
141
0.09
142
0.0
143
25.399999999999999
144
1.0
145
0.0
146
1.0
147
0.09
 71
     0
 72
     0
 73
     1
 74
     1
 75
     0
 76
     0
 77
     0
 78
     0
170
     0
171
     2
172
     0
173
     0
174
     0
175
     0
176
     0
177
     0
178
     0
  0
ENDTAB
  0
ENDSEC
  0
SECTION
  2
BLOCKS
  0
BLOCK
  8
0
  2
$MODEL_SPACE
 70
     0
 10
0.0
 20
0.0
 30
0.0
  3
$MODEL_SPACE
  1

  0
ENDBLK
  5
1A
  8
0
  0
BLOCK
 67
     1
  8
0
  2
$PAPER_SPACE
 70
     0
 10
0.0
 20
0.0
 30
0.0
  3
$PAPER_SPACE
  1

  0
ENDBLK
  5
17
 67
     1
  8
0
  0
ENDSEC
  0
SECTION
  2
ENTITIES
  0
TEXT
  5
24
  8
0
 62
     7
 10
154.83222799999999
 20
172.70099999999991
 30
0.0
 40
3.0923400000000001
  1
（2ケ所）
 41
0.5
 72
     2
 11
162.46000000000001
 21
172.70099999999991
 31
0.0
  0
TEXT
  5
25
  8
0
 62
     7
 10
150.99796499999999
 20
200.71599999999989
 30
0.0
 40
3.0923400000000001
  1
R10
 41
0.5
 72
     2
 11
154.3479999999999
 21
200.71599999999989
 31
0.0
  0
TEXT
  5
26
  8
0
 62
     7
 10
157.15148300000001
 20
178.25999999999991
 30
0.0
 40
3.0923400000000001
  1
%%c10穴
 41
0.5
 72
     2
 11
162.46000000000001
 21
178.25999999999991
 31
0.0
  0
TEXT
  5
27
  8
0
 62
     7
 10
141.140525
 20
174.709
 30
0.0
 40
3.0923400000000001
  1
89
 41
0.5
 72
     1
 11
142.429
 21
174.709
 31
0.0
  0
TEXT
  5
28
  8
0
 62
     7
 10
132.24052499999991
 20
174.709
 30
0.0
 40
3.0923400000000001
  1
89
 41
0.5
 72
     1
 11
133.529
 21
174.709
 31
0.0
  0
TEXT
  5
29
  8
0
 62
     7
 10
136.3039824999999
 20
203.27999999999989
 30
0.0
 40
3.0923400000000001
  1
140
 41
0.5
 72
     1
 11
137.9789999999999
 21
203.27999999999989
 31
0.0
  0
TEXT
  5
2A
  8
0
 62
     7
 10
152.2229999999999
 20
184.7022199999999
 30
0.0
 40
3.0923400000000001
  1
51
 50
90.0
 41
0.5
 72
     1
 11
152.2229999999999
 21
185.733
 31
0.0
  0
TEXT
  5
2B
  8
0
 62
     7
 10
122.765
 20
186.60798249999991
 30
0.0
 40
3.0923400000000001
  1
160
 50
90.0
 41
0.5
 72
     1
 11
122.765
 21
188.28299999999999
 31
0.0
  0
TEXT
  5
2C
  8
0
 62
     7
 10
130.73076
 20
162.054
 30
0.0
 40
3.0923400000000001
  1
カウンター切込寸法
 41
0.5
 72
     1
 11
138.977
 21
162.054
 31
0.0
  0
TEXT
  5
2D
  8
0
 62
     7
 10
48.323799999999999
 20
196.93000000000001
 30
0.0
 40
3.0923400000000001
  1
%%c46
 41
0.5
  0
TEXT
  5
2E
  8
0
 62
     7
 10
84.980204999999998
 20
208.18700000000001
 30
0.0
 40
3.0923400000000001
  1
%%c530
 41
0.5
 72
     2
 11
90.391799999999989
 21
208.18700000000001
 31
0.0
  0
TEXT
  5
2F
  8
0
 62
     7
 10
61.125502499999989
 20
71.395200000000003
 30
0.0
 40
3.0923400000000001
  1
%%c260
 41
0.5
 72
     1
 11
63.831299999999999
 21
71.395200000000003
 31
0.0
  0
TEXT
  5
30
  8
0
 62
     7
 10
168.17500000000001
 20
91.095782499999999
 30
0.0
 40
3.0923400000000001
  1
170
 50
90.0
 41
0.5
 72
     1
 11
168.17500000000001
 21
92.770799999999994
 31
0.0
  0
TEXT
  5
31
  8
0
 62
     7
 10
38.771500000000003
 20
72.328500000000005
 30
0.0
 40
3.0923400000000001
  1
max.30
 50
90.0
 41
0.5
  0
TEXT
  5
32
  8
0
 62
     7
 10
126.90900000000001
 20
92.825935000000001
 30
0.0
 40
3.0923400000000001
  1
125
 50
90.0
 41
0.5
 72
     1
 11
126.90900000000001
 21
94.629799999999989
 31
0.0
  0
TEXT
  5
33
  8
0
 62
     7
 10
161.33600000000001
 20
92.117582499999997
 30
0.0
 40
3.0923400000000001
  1
140
 50
90.0
 41
0.5
 72
     1
 11
161.33600000000001
 21
93.792599999999993
 31
0.0
  0
LINE
  5
34
  8
0
  6
AIGENLINE001
 62
     7
 10
125.5659999999999
 20
80.985699999999994
 30
0.0
 11
125.5659999999999
 21
89.726699999999994
 31
0.0
  0
LINE
  5
35
  8
0
 62
     7
 10
125.98999999999999
 20
83.774199999999979
 30
0.0
 11
125.98999999999999
 21
83.296700000000001
 31
0.0
  0
LINE
  5
36
  8
0
 62
     7
 10
125.1779999999999
 20
83.774199999999979
 30
0.0
 11
125.1779999999999
 21
83.296700000000001
 31
0.0
  0
LINE
  5
37
  8
0
 62
     7
 10
124.937
 20
83.293999999999997
 30
0.0
 11
126.20699999999999
 21
83.293999999999997
 31
0.0
  0
LINE
  5
38
  8
0
 62
     7
 10
126.20699999999999
 20
83.293999999999997
 30
0.0
 11
126.20699999999999
 21
83.8142
 31
0.0
  0
LINE
  5
39
  8
0
 62
     7
 10
126.20699999999999
 20
83.8142
 30
0.0
 11
124.937
 21
83.8142
 31
0.0
  0
LINE
  5
3A
  8
0
 62
     7
 10
124.937
 20
83.8142
 30
0.0
 11
124.937
 21
83.293999999999997
 31
0.0
  0
LINE
  5
3B
  8
0
 62
     7
 10
126.48699999999999
 20
83.816900000000004
 30
0.0
 11
124.65899999999991
 21
83.816900000000004
 31
0.0
  0
LINE
  5
3C
  8
0
 62
     7
 10
124.65899999999991
 20
83.816900000000004
 30
0.0
 11
124.65899999999991
 21
84.106300000000005
 31
0.0
  0
LINE
  5
3D
  8
0
 62
     7
 10
124.65899999999991
 20
84.106300000000005
 30
0.0
 11
126.48699999999999
 21
84.106300000000005
 31
0.0
  0
LINE
  5
3E
  8
0
 62
     7
 10
126.48699999999999
 20
84.106300000000005
 30
0.0
 11
126.48699999999999
 21
83.816900000000004
 31
0.0
  0
LINE
  5
3F
  8
0
 62
     7
 10
125.78399999999991
 20
82.343100000000007
 30
0.0
 11
125.78399999999991
 21
87.164199999999994
 31
0.0
  0
LINE
  5
40
  8
0
 62
     7
 10
125.36199999999999
 20
82.343100000000007
 30
0.0
 11
125.36199999999999
 21
87.164199999999994
 31
0.0
  0
LINE
  5
41
  8
0
 62
     7
 10
125.276
 20
82.436800000000005
 30
0.0
 11
125.87
 21
82.436800000000005
 31
0.0
  0
LINE
  5
42
  8
0
 62
     7
 10
125.361
 20
82.337599999999995
 30
0.0
 11
125.774
 21
82.337599999999995
 31
0.0
  0
LINE
  5
43
  8
0
 62
     7
 10
125.774
 20
82.337599999999995
 30
0.0
 11
125.867
 21
82.434100000000001
 31
0.0
  0
LINE
  5
44
  8
0
 62
     7
 10
125.867
 20
82.434100000000001
 30
0.0
 11
125.867
 21
87.146299999999997
 31
0.0
  0
LINE
  5
45
  8
0
 62
     7
 10
125.867
 20
87.146299999999997
 30
0.0
 11
125.26600000000001
 21
87.146299999999997
 31
0.0
  0
LINE
  5
46
  8
0
 62
     7
 10
125.26600000000001
 20
87.146299999999997
 30
0.0
 11
125.26600000000001
 21
82.434100000000001
 31
0.0
  0
LINE
  5
47
  8
0
 62
     7
 10
125.26600000000001
 20
82.434100000000001
 30
0.0
 11
125.361
 21
82.337599999999995
 31
0.0
  0
LINE
  5
48
  8
0
  6
AIGENLINE001
 62
     7
 10
55.305300000000003
 20
79.199100000000001
 30
0.0
 11
55.305300000000003
 21
91.137100000000004
 31
0.0
  0
LINE
  5
49
  8
0
 62
     7
 10
55.729399999999998
 20
83.774199999999979
 30
0.0
 11
55.729399999999998
 21
83.296700000000001
 31
0.0
  0
LINE
  5
4A
  8
0
 62
     7
 10
54.918399999999991
 20
83.774199999999979
 30
0.0
 11
54.918399999999991
 21
83.296700000000001
 31
0.0
  0
LINE
  5
4B
  8
0
 62
     7
 10
54.676600000000001
 20
83.293999999999997
 30
0.0
 11
55.946100000000001
 21
83.293999999999997
 31
0.0
  0
LINE
  5
4C
  8
0
 62
     7
 10
55.946100000000001
 20
83.293999999999997
 30
0.0
 11
55.946100000000001
 21
83.8142
 31
0.0
  0
LINE
  5
4D
  8
0
 62
     7
 10
55.946100000000001
 20
83.8142
 30
0.0
 11
54.676600000000001
 21
83.8142
 31
0.0
  0
LINE
  5
4E
  8
0
 62
     7
 10
54.676600000000001
 20
83.8142
 30
0.0
 11
54.676600000000001
 21
83.293999999999997
 31
0.0
  0
LINE
  5
4F
  8
0
 62
     7
 10
56.228299999999997
 20
83.816900000000004
 30
0.0
 11
54.397500000000001
 21
83.816900000000004
 31
0.0
  0
LINE
  5
50
  8
0
 62
     7
 10
54.397500000000001
 20
83.816900000000004
 30
0.0
 11
54.397500000000001
 21
84.106300000000005
 31
0.0
  0
LINE
  5
51
  8
0
 62
     7
 10
54.397500000000001
 20
84.106300000000005
 30
0.0
 11
56.228299999999997
 21
84.106300000000005
 31
0.0
  0
LINE
  5
52
  8
0
 62
     7
 10
56.228299999999997
 20
84.106300000000005
 30
0.0
 11
56.228299999999997
 21
83.816900000000004
 31
0.0
  0
LINE
  5
53
  8
0
 62
     7
 10
55.524799999999999
 20
82.343100000000007
 30
0.0
 11
55.524799999999999
 21
87.164199999999994
 31
0.0
  0
LINE
  5
54
  8
0
 62
     7
 10
55.101000000000013
 20
82.343100000000007
 30
0.0
 11
55.101000000000013
 21
87.164199999999994
 31
0.0
  0
LINE
  5
55
  8
0
 62
     7
 10
55.015599999999999
 20
82.436800000000005
 30
0.0
 11
55.610900000000001
 21
82.436800000000005
 31
0.0
  0
LINE
  5
56
  8
0
 62
     7
 10
55.09859999999999
 20
82.337599999999995
 30
0.0
 11
55.515099999999997
 21
82.337599999999995
 31
0.0
  0
LINE
  5
57
  8
0
 62
     7
 10
55.515099999999997
 20
82.337599999999995
 30
0.0
 11
55.607500000000002
 21
82.434100000000001
 31
0.0
  0
LINE
  5
58
  8
0
 62
     7
 10
55.607500000000002
 20
82.434100000000001
 30
0.0
 11
55.607500000000002
 21
87.146299999999997
 31
0.0
  0
LINE
  5
59
  8
0
 62
     7
 10
55.607500000000002
 20
87.146299999999997
 30
0.0
 11
55.005299999999998
 21
87.146299999999997
 31
0.0
  0
LINE
  5
5A
  8
0
 62
     7
 10
55.005299999999998
 20
87.146299999999997
 30
0.0
 11
55.005299999999998
 21
82.434100000000001
 31
0.0
  0
LINE
  5
5B
  8
0
 62
     7
 10
55.005299999999998
 20
82.434100000000001
 30
0.0
 11
55.09859999999999
 21
82.337599999999995
 31
0.0
  0
LINE
  5
5C
  8
0
  6
AIGENLINE002
 62
     7
 10
128.32900000000001
 20
87.183499999999995
 30
0.0
 11
128.32900000000001
 21
84.146299999999997
 31
0.0
  0
LINE
  5
5D
  8
0
  6
AIGENLINE002
 62
     7
 10
156.70799999999991
 20
101.146
 30
0.0
 11
155.7829999999999
 21
101.014
 31
0.0
  0
LINE
  5
5E
  8
0
  6
AIGENLINE002
 62
     7
 10
127.2799999999999
 20
88.646299999999997
 30
0.0
 11
134.05299999999991
 21
88.646299999999997
 31
0.0
  0
LINE
  5
5F
  8
0
  6
AIGENLINE001
 62
     7
 10
151.76099999999991
 20
96.210800000000006
 30
0.0
 11
147.77600000000001
 21
100.3959999999999
 31
0.0
  0
LINE
  5
60
  8
0
  6
AIGENLINE002
 62
     7
 10
132.923
 20
87.183499999999995
 30
0.0
 11
132.92400000000001
 21
84.146299999999997
 31
0.0
  0
ARC
  5
61
  8
0
  6
AIGENLINE002
 62
     7
 10
155.78510199999999
 20
99.21133300000001
 30
0.0
 40
1.8022619999999989
 50
90.054732999999999
 51
98.433264000000023
  0
ARC
  5
62
  8
0
  6
AIGENLINE002
 62
     7
 10
155.9895009999999
 20
97.727463000000014
 30
0.0
 40
3.3001
 50
98.165354000000008
 51
105.79737799999999
  0
ARC
  5
63
  8
0
  6
AIGENLINE002
 62
     7
 10
156.86593500000001
 20
94.668761000000003
 30
0.0
 40
6.481882999999999
 50
105.891437
 51
120.83672199999999
  0
ARC
  5
64
  8
0
  6
AIGENLINE002
 62
     7
 10
169.336028
 20
72.747093999999976
 30
0.0
 40
31.701028999999991
 50
119.879327
 51
124.16133600000001
  0
ARC
  5
65
  8
0
  6
AIGENLINE002
 62
     7
 10
153.51259699999989
 20
96.052373000000003
 30
0.0
 40
3.5316010000000002
 50
124.051911
 51
132.01060499999991
  0
ARC
  5
66
  8
0
  6
AIGENLINE002
 62
     7
 10
56.443913999999992
 20
199.11080699999991
 30
0.0
 40
138.04390499999991
 50
311.72922299999988
 51
313.318287
  0
ARC
  5
67
  8
0
  6
AIGENLINE002
 62
     7
 10
131.06187299999991
 20
116.422111
 30
0.0
 40
26.674782
 50
302.31669900000003
 51
310.33552300000002
  0
ARC
  5
68
  8
0
  6
AIGENLINE002
 62
     7
 10
123.535265
 20
127.891221
 30
0.0
 40
40.391761999999993
 50
299.83566400000001
 51
302.64212300000003
  0
ARC
  5
69
  8
0
  6
AIGENLINE002
 62
     7
 10
158.73012700000001
 20
66.669268000000002
 30
0.0
 40
30.225605999999999
 50
119.970651
 51
121.9758379999999
  0
ARC
  5
6A
  8
0
  6
AIGENLINE002
 62
     7
 10
136.14077900000001
 20
103.02499400000001
 30
0.0
 40
12.576698
 50
294.20891
 51
301.56262500000003
  0
ARC
  5
6B
  8
0
  6
AIGENLINE002
 62
     7
 10
-23.817799999999998
 20
465.56239900000003
 30
0.0
 40
408.8340389999999
 50
293.31514399999992
 51
293.82034800000002
  0
ARC
  5
6C
  8
0
  6
AIGENLINE002
 62
     7
 10
120.3259399999999
 20
131.88757100000001
 30
0.0
 40
45.357149
 50
291.337626
 51
292.92519599999991
  0
ARC
  5
6D
  8
0
  6
AIGENLINE002
 62
     7
 10
133.1313439999999
 20
99.180683000000016
 30
0.0
 40
10.232860000000001
 50
287.69759199999987
 51
291.187545
  0
ARC
  5
6E
  8
0
  6
AIGENLINE002
 62
     7
 10
107.82745799999999
 20
174.08968300000001
 30
0.0
 40
89.298913999999996
 50
287.46952099999999
 51
288.553901
  0
ARC
  5
6F
  8
0
  6
AIGENLINE002
 62
     7
 10
135.91765499999991
 20
84.794584
 30
0.0
 40
4.310257
 50
107.31468099999999
 51
115.61861399999989
  0
ARC
  5
70
  8
0
  6
AIGENLINE002
 62
     7
 10
134.3968459999999
 20
88.117828000000003
 30
0.0
 40
0.659419
 50
121.3277979999999
 51
135.27398600000001
  0
ARC
  5
71
  8
0
  6
AIGENLINE002
 62
     7
 10
134.938635
 20
87.601939000000002
 30
0.0
 40
1.407467
 50
135.873929
 51
147.40660099999999
  0
ARC
  5
72
  8
0
  6
AIGENLINE002
 62
     7
 10
142.10245499999999
 20
82.369407999999993
 30
0.0
 40
10.276419000000001
 50
144.34128999999999
 51
145.436061
  0
ARC
  5
73
  8
0
  6
AIGENLINE002
 62
     7
 10
209.98173199999999
 20
30.578505
 30
0.0
 40
95.646506000000002
 50
142.95536299999989
 51
143.42552800000001
  0
ARC
  5
74
  8
0
  6
AIGENLINE002
 62
     7
 10
136.667137
 20
85.038631000000024
 30
0.0
 40
4.3180909999999999
 50
144.09259900000001
 51
149.161574
  0
ARC
  5
75
  8
0
  6
AIGENLINE002
 62
     7
 10
133.15620699999991
 20
87.180961999999994
 30
0.0
 40
0.209148
 50
160.09613899999991
 51
179.30045599999991
  0
LINE
  5
76
  8
0
  6
AIGENLINE002
 62
     7
 10
104.569
 20
101.146
 30
0.0
 11
105.4939999999999
 21
101.014
 31
0.0
  0
ARC
  5
77
  8
0
  6
AIGENLINE002
 62
     7
 10
105.468132
 20
99.21133300000001
 30
0.0
 40
1.8022619999999989
 50
81.566716000000014
 51
89.945246999999995
  0
ARC
  5
78
  8
0
  6
AIGENLINE002
 62
     7
 10
105.263732
 20
97.727463000000014
 30
0.0
 40
3.3001
 50
74.202601999999999
 51
81.834626
  0
ARC
  5
79
  8
0
  6
AIGENLINE002
 62
     7
 10
104.3872979999999
 20
94.668761000000003
 30
0.0
 40
6.481882999999999
 50
59.163257999999999
 51
74.108543000000012
  0
ARC
  5
7A
  8
0
  6
AIGENLINE002
 62
     7
 10
91.892081999999988
 20
72.703406000000001
 30
0.0
 40
31.751424
 50
55.845030000000008
 51
60.120618000000007
  0
ARC
  5
7B
  8
0
  6
AIGENLINE002
 62
     7
 10
107.741719
 20
96.052683000000002
 30
0.0
 40
3.5308769999999989
 50
47.994914000000001
 51
55.956483999999989
  0
ARC
  5
7C
  8
0
  6
AIGENLINE002
 62
     7
 10
205.222453
 20
199.5486249999999
 30
0.0
 40
138.645635
 50
226.681749
 51
228.26381099999989
  0
ARC
  5
7D
  8
0
  6
AIGENLINE002
 62
     7
 10
130.197903
 20
116.429828
 30
0.0
 40
26.68489799999999
 50
229.664513
 51
237.67997399999999
  0
ARC
  5
7E
  8
0
  6
AIGENLINE002
 62
     7
 10
137.68387200000001
 20
127.83215199999999
 30
0.0
 40
40.323729999999991
 50
237.35320100000001
 51
240.16419899999991
  0
ARC
  5
7F
  8
0
  6
AIGENLINE002
 62
     7
 10
102.92375
 20
67.347791999999998
 30
0.0
 40
29.437497999999991
 50
58.025354
 51
60.045693
  0
ARC
  5
80
  8
0
  6
AIGENLINE002
 62
     7
 10
125.133736
 20
103.071442
 30
0.0
 40
12.627646999999991
 50
238.37427199999999
 51
245.790887
  0
ARC
  5
81
  8
0
  6
AIGENLINE002
 62
     7
 10
279.888643
 20
453.5081439999999
 30
0.0
 40
395.71347899999989
 50
246.16126899999989
 51
246.67658399999991
  0
ARC
  5
82
  8
0
  6
AIGENLINE002
 62
     7
 10
141.13784499999991
 20
132.4118389999999
 30
0.0
 40
45.922217999999987
 50
247.03084199999989
 51
248.65530899999999
  0
ARC
  5
83
  8
0
  6
AIGENLINE002
 62
     7
 10
128.14553399999991
 20
99.253035999999994
 30
0.0
 40
10.30899299999999
 50
248.833496
 51
252.29919100000001
  0
ARC
  5
84
  8
0
  6
AIGENLINE002
 62
     7
 10
153.969303
 20
175.74627899999999
 30
0.0
 40
91.042373999999995
 50
251.453542
 51
252.51698099999999
  0
ARC
  5
85
  8
0
  6
AIGENLINE002
 62
     7
 10
125.492761
 20
85.192602000000008
 30
0.0
 40
3.8835229999999998
 50
63.933393000000002
 51
73.156407999999999
  0
ARC
  5
86
  8
0
  6
AIGENLINE002
 62
     7
 10
126.8504139999999
 20
88.110151000000002
 30
0.0
 40
0.669084
 50
43.992745999999997
 51
58.577027000000001
  0
ARC
  5
87
  8
0
  6
AIGENLINE002
 62
     7
 10
126.2058169999999
 20
87.512315999999998
 30
0.0
 40
1.548162
 50
32.291235
 51
43.340759000000013
  0
ARC
  5
88
  8
0
  6
AIGENLINE002
 62
     7
 10
113.037873
 20
78.046693000000005
 30
0.0
 40
17.762696999999999
 50
34.860413999999992
 51
35.412224000000002
  0
ARC
  5
89
  8
0
  6
AIGENLINE002
 62
     7
 10
77.399929
 20
50.132109999999997
 30
0.0
 40
63.011723000000003
 50
36.452697000000001
 51
37.166371999999988
  0
ARC
  5
8A
  8
0
  6
AIGENLINE002
 62
     7
 10
124.677103
 20
85.091356999999988
 30
0.0
 40
4.2131910000000001
 50
30.855001999999999
 51
36.055191999999991
  0
ARC
  5
8B
  8
0
  6
AIGENLINE002
 62
     7
 10
128.09726599999991
 20
87.180851000000004
 30
0.0
 40
0.209253
 50
0.729703
 51
19.925845999999989
  0
ARC
  5
8C
  8
0
 62
     7
 10
133.75411099999999
 20
88.967511000000016
 30
0.0
 40
3.867801
 50
318.93506500000001
 51
331.90969599999988
  0
ARC
  5
8D
  8
0
 62
     7
 10
132.62875399999999
 20
89.870679999999993
 30
0.0
 40
5.3099059999999989
 50
300.29417999999993
 51
319.56420400000002
  0
ARC
  5
8E
  8
0
 62
     7
 10
134.024427
 20
87.499769999999984
 30
0.0
 40
2.558733999999999
 50
286.85753099999999
 51
300.09022700000003
  0
ARC
  5
8F
  8
0
 62
     7
 10
127.5787039999999
 20
88.967511000000016
 30
0.0
 40
3.867801
 50
208.09032400000001
 51
221.06495499999991
  0
ARC
  5
90
  8
0
 62
     7
 10
128.704061
 20
89.870679999999993
 30
0.0
 40
5.3099059999999989
 50
220.43581599999999
 51
239.70583999999999
  0
ARC
  5
91
  8
0
 62
     7
 10
127.30838799999989
 20
87.499769999999984
 30
0.0
 40
2.558733999999999
 50
239.90979299999989
 51
253.1424879999999
  0
LINE
  5
92
  8
0
 62
     7
 10
143.65799999999999
 20
87.436400000000006
 30
0.0
 11
143.65799999999999
 21
87.146299999999997
 31
0.0
  0
LINE
  5
93
  8
0
 62
     7
 10
143.65799999999999
 20
87.146299999999997
 30
0.0
 11
117.6579999999999
 21
87.146299999999997
 31
0.0
  0
LINE
  5
94
  8
0
 62
     7
 10
117.6579999999999
 20
87.146299999999997
 30
0.0
 11
117.6579999999999
 21
87.436400000000006
 31
0.0
  0
ARC
  5
95
  8
0
 62
     7
 10
144.59070500000001
 20
87.256663000000003
 30
0.0
 40
0.9495790000000001
 50
142.88841899999991
 51
169.08996099999999
  0
ARC
  5
96
  8
0
 62
     7
 10
145.8897639999999
 20
86.163184000000001
 30
0.0
 40
2.6467700000000001
 50
132.66074499999999
 51
140.97883999999991
  0
LINE
  5
97
  8
0
 62
     7
 10
144.096
 20
88.109599999999986
 30
0.0
 11
156.86199999999991
 21
99.890500000000003
 31
0.0
  0
ARC
  5
98
  8
0
 62
     7
 10
156.34575899999999
 20
100.4323269999999
 30
0.0
 40
0.748665
 50
313.63566299999991
 51
18.494568999999991
  0
ARC
  5
99
  8
0
 62
     7
 10
156.18936599999989
 20
100.419634
 30
0.0
 40
0.901791
 50
16.106649999999998
 51
46.740566999999999
  0
ARC
  5
9A
  8
0
 62
     7
 10
156.6249389999999
 20
100.8775509999999
 30
0.0
 40
0.269831
 50
47.462287999999987
 51
84.707937999999999
  0
LINE
  5
9B
  8
0
 62
     7
 10
156.65000000000001
 20
101.146
 30
0.0
 11
104.6669999999999
 21
101.146
 31
0.0
  0
ARC
  5
9C
  8
0
 62
     7
 10
104.66871500000001
 20
100.9649849999999
 30
0.0
 40
0.181253
 50
90.497420000000005
 51
117.07226299999989
  0
ARC
  5
9D
  8
0
 62
     7
 10
104.775874
 20
100.746157
 30
0.0
 40
0.424895
 50
116.5094379999999
 51
137.957469
  0
ARC
  5
9E
  8
0
 62
     7
 10
105.130853
 20
100.43074
 30
0.0
 40
0.899756
 50
138.179047
 51
199.58659299999991
  0
ARC
  5
9F
  8
0
 62
     7
 10
104.934572
 20
100.4175519999999
 30
0.0
 40
0.712413
 50
203.88326399999991
 51
227.7170999999999
  0
LINE
  5
A0
  8
0
 62
     7
 10
104.455
 20
99.890500000000003
 30
0.0
 11
117.2199999999999
 21
88.109599999999986
 31
0.0
  0
ARC
  5
A1
  8
0
 62
     7
 10
113.093706
 20
84.079785999999984
 30
0.0
 40
5.7676989999999986
 50
39.896834999999989
 51
44.32120900000001
  0
ARC
  5
A2
  8
0
 62
     7
 10
116.7667009999999
 20
87.273968000000011
 30
0.0
 40
0.9059659999999999
 50
10.327688999999991
 51
33.897283000000002
  0
LINE
  5
A3
  8
0
 62
     7
 10
130.66599999999991
 20
84.146299999999997
 30
0.0
 11
134.69499999999991
 21
84.146299999999997
 31
0.0
  0
LINE
  5
A4
  8
0
 62
     7
 10
134.76599999999991
 20
85.051000000000002
 30
0.0
 11
134.76599999999991
 21
84.245500000000007
 31
0.0
  0
ARC
  5
A5
  8
0
 62
     7
 10
134.663466
 20
84.249275999999995
 30
0.0
 40
0.103044
 50
272.08895000000001
 51
357.91106000000002
  0
LINE
  5
A6
  8
0
 62
     7
 10
130.66599999999991
 20
84.146299999999997
 30
0.0
 11
126.6369999999999
 21
84.146299999999997
 31
0.0
  0
LINE
  5
A7
  8
0
 62
     7
 10
126.566
 20
85.051000000000002
 30
0.0
 11
126.566
 21
84.245500000000007
 31
0.0
  0
ARC
  5
A8
  8
0
 62
     7
 10
126.6693489999999
 20
84.249275999999995
 30
0.0
 40
0.103044
 50
182.088943
 51
267.91108700000001
  0
LINE
  5
A9
  8
0
 62
     7
 10
124.05800000000001
 20
194.07199999999989
 30
0.0
 11
123.465
 21
196.2829999999999
 31
0.0
  0
LINE
  5
AA
  8
0
 62
     7
 10
123.465
 20
196.2829999999999
 30
0.0
 11
122.87299999999991
 21
194.07199999999989
 31
0.0
  0
LINE
  5
AB
  8
0
 62
     7
 10
122.87299999999991
 20
194.07199999999989
 30
0.0
 11
124.05800000000001
 21
194.07199999999989
 31
0.0
  0
LINE
  5
AC
  8
0
 62
     7
 10
122.887
 20
182.495
 30
0.0
 11
123.48
 21
180.2829999999999
 31
0.0
  0
LINE
  5
AD
  8
0
 62
     7
 10
123.48
 20
180.2829999999999
 30
0.0
 11
124.072
 21
182.495
 31
0.0
  0
LINE
  5
AE
  8
0
 62
     7
 10
124.072
 20
182.495
 30
0.0
 11
122.887
 21
182.495
 31
0.0
  0
LINE
  5
AF
  8
0
 62
     7
 10
123.465
 20
196.2829999999999
 30
0.0
 11
123.465
 21
180.2829999999999
 31
0.0
  0
LINE
  5
B0
  8
0
 62
     7
 10
133.19
 20
203.173
 30
0.0
 11
130.9789999999999
 21
202.58000000000001
 31
0.0
  0
LINE
  5
B1
  8
0
 62
     7
 10
130.9789999999999
 20
202.58000000000001
 30
0.0
 11
133.19
 21
201.988
 31
0.0
  0
LINE
  5
B2
  8
0
 62
     7
 10
133.19
 20
201.988
 30
0.0
 11
133.19
 21
203.173
 31
0.0
  0
LINE
  5
B3
  8
0
 62
     7
 10
142.76699999999991
 20
202.00200000000001
 30
0.0
 11
144.9789999999999
 21
202.59499999999991
 31
0.0
  0
LINE
  5
B4
  8
0
 62
     7
 10
144.9789999999999
 20
202.59499999999991
 30
0.0
 11
142.76699999999991
 21
203.18700000000001
 31
0.0
  0
LINE
  5
B5
  8
0
 62
     7
 10
142.76699999999991
 20
203.18700000000001
 30
0.0
 11
142.76699999999991
 21
202.00200000000001
 31
0.0
  0
LINE
  5
B6
  8
0
 62
     7
 10
130.9789999999999
 20
202.58000000000001
 30
0.0
 11
144.9789999999999
 21
202.58000000000001
 31
0.0
  0
LINE
  5
B7
  8
0
 62
     7
 10
152.4859999999999
 20
185.39500000000001
 30
0.0
 11
153.078
 21
183.184
 31
0.0
  0
LINE
  5
B8
  8
0
 62
     7
 10
153.078
 20
183.184
 30
0.0
 11
153.6699999999999
 21
185.39500000000001
 31
0.0
  0
LINE
  5
B9
  8
0
 62
     7
 10
153.6699999999999
 20
185.39500000000001
 30
0.0
 11
152.4859999999999
 21
185.39500000000001
 31
0.0
  0
LINE
  5
BA
  8
0
 62
     7
 10
153.65600000000001
 20
186.072
 30
0.0
 11
153.06399999999999
 21
188.28200000000001
 31
0.0
  0
LINE
  5
BB
  8
0
 62
     7
 10
153.06399999999999
 20
188.28200000000001
 30
0.0
 11
152.47200000000001
 21
186.072
 31
0.0
  0
LINE
  5
BC
  8
0
 62
     7
 10
152.47200000000001
 20
186.072
 30
0.0
 11
153.65600000000001
 21
186.072
 31
0.0
  0
LINE
  5
BD
  8
0
 62
     7
 10
153.06399999999999
 20
183.18299999999999
 30
0.0
 11
153.06399999999999
 21
188.28299999999999
 31
0.0
  0
LINE
  5
BE
  8
0
 62
     7
 10
153.76400000000001
 20
188.28299999999999
 30
0.0
 11
147.422
 21
188.28299999999999
 31
0.0
  0
LINE
  5
BF
  8
0
 62
     7
 10
154.3479999999999
 20
200.01599999999999
 30
0.0
 11
148.78999999999991
 21
200.01599999999999
 31
0.0
  0
LINE
  5
C0
  8
0
 62
     7
 10
146.703
 20
197.09200000000001
 30
0.0
 11
144.721
 21
195.94699999999989
 31
0.0
  0
LINE
  5
C1
  8
0
 62
     7
 10
144.721
 20
195.94699999999989
 30
0.0
 11
145.86600000000001
 21
197.92899999999989
 31
0.0
  0
LINE
  5
C2
  8
0
 62
     7
 10
145.86600000000001
 20
197.92899999999989
 30
0.0
 11
146.703
 21
197.09200000000001
 31
0.0
  0
LINE
  5
C3
  8
0
 62
     7
 10
148.78999999999991
 20
200.01599999999999
 30
0.0
 11
144.721
 21
195.94699999999989
 31
0.0
  0
LINE
  5
C4
  8
0
 62
     7
 10
162.46000000000001
 20
176.965
 30
0.0
 11
152.96299999999999
 21
176.965
 31
0.0
  0
LINE
  5
C5
  8
0
 62
     7
 10
153.76400000000001
 20
183.18299999999999
 30
0.0
 11
148.95599999999999
 21
183.18299999999999
 31
0.0
  0
LINE
  5
C6
  8
0
 62
     7
 10
135.76799999999989
 20
173.4309999999999
 30
0.0
 11
137.97799999999989
 21
174.02299999999991
 31
0.0
  0
LINE
  5
C7
  8
0
 62
     7
 10
137.97799999999989
 20
174.02299999999991
 30
0.0
 11
135.76799999999989
 21
174.6159999999999
 31
0.0
  0
LINE
  5
C8
  8
0
 62
     7
 10
135.76799999999989
 20
174.6159999999999
 30
0.0
 11
135.76799999999989
 21
173.4309999999999
 31
0.0
  0
LINE
  5
C9
  8
0
 62
     7
 10
137.9789999999999
 20
177.64199999999991
 30
0.0
 11
137.9789999999999
 21
173.309
 31
0.0
  0
LINE
  5
CA
  8
0
 62
     7
 10
144.66800000000001
 20
173.4309999999999
 30
0.0
 11
146.8779999999999
 21
174.02299999999991
 31
0.0
  0
LINE
  5
CB
  8
0
 62
     7
 10
146.8779999999999
 20
174.02299999999991
 30
0.0
 11
144.66800000000001
 21
174.6159999999999
 31
0.0
  0
LINE
  5
CC
  8
0
 62
     7
 10
144.66800000000001
 20
174.6159999999999
 30
0.0
 11
144.66800000000001
 21
173.4309999999999
 31
0.0
  0
LINE
  5
CD
  8
0
 62
     7
 10
140.18899999999991
 20
174.6159999999999
 30
0.0
 11
137.97799999999989
 21
174.02299999999991
 31
0.0
  0
LINE
  5
CE
  8
0
 62
     7
 10
137.97799999999989
 20
174.02299999999991
 30
0.0
 11
140.18899999999991
 21
173.4309999999999
 31
0.0
  0
LINE
  5
CF
  8
0
 62
     7
 10
140.18899999999991
 20
173.4309999999999
 30
0.0
 11
140.18899999999991
 21
174.6159999999999
 31
0.0
  0
LINE
  5
D0
  8
0
 62
     7
 10
149.14099999999991
 20
181.624
 30
0.0
 11
147.15899999999991
 21
182.76799999999989
 31
0.0
  0
LINE
  5
D1
  8
0
 62
     7
 10
147.15899999999991
 20
182.76799999999989
 30
0.0
 11
148.303
 21
180.78599999999989
 31
0.0
  0
LINE
  5
D2
  8
0
 62
     7
 10
148.303
 20
180.78599999999989
 30
0.0
 11
149.14099999999991
 21
181.624
 31
0.0
  0
LINE
  5
D3
  8
0
 62
     7
 10
152.96299999999999
 20
176.965
 30
0.0
 11
147.1579999999999
 21
182.76900000000001
 31
0.0
  0
LINE
  5
D4
  8
0
 62
     7
 10
131.28999999999991
 20
174.601
 30
0.0
 11
129.08000000000001
 21
174.00899999999999
 31
0.0
  0
LINE
  5
D5
  8
0
 62
     7
 10
129.08000000000001
 20
174.00899999999999
 30
0.0
 11
131.28999999999991
 21
173.41599999999991
 31
0.0
  0
LINE
  5
D6
  8
0
 62
     7
 10
131.28999999999991
 20
173.41599999999991
 30
0.0
 11
131.28999999999991
 21
174.601
 31
0.0
  0
LINE
  5
D7
  8
0
 62
     7
 10
146.87899999999999
 20
174.00899999999999
 30
0.0
 11
129.07900000000001
 21
174.00899999999999
 31
0.0
  0
ARC
  5
D8
  8
0
 62
     7
 10
129.05952999999991
 20
183.202269
 30
0.0
 40
0.519602
 50
272.13619299999999
 51
357.90329100000002
  0
ARC
  5
D9
  8
0
 62
     7
 10
129.09834399999991
 20
183.202347
 30
0.0
 40
0.519684
 50
182.10506000000001
 51
267.85549600000002
  0
ARC
  5
DA
  8
0
 62
     7
 10
129.09826499999991
 20
183.16424799999999
 30
0.0
 40
0.519602
 50
92.136156
 51
177.90328799999989
  0
ARC
  5
DB
  8
0
 62
     7
 10
129.06017600000001
 20
183.164894
 30
0.0
 40
0.518933
 50
2.0280269999999998
 51
87.932490000000016
  0
LINE
  5
DC
  8
0
  6
AIGENLINE001
 62
     7
 10
127.756
 20
183.18299999999999
 30
0.0
 11
130.45599999999999
 21
183.18299999999999
 31
0.0
  0
LINE
  5
DD
  8
0
 62
     7
 10
129.07900000000001
 20
181.017
 30
0.0
 11
129.07900000000001
 21
173.309
 31
0.0
  0
LINE
  5
DE
  8
0
 62
     7
 10
146.87899999999999
 20
181.017
 30
0.0
 11
146.87899999999999
 21
173.309
 31
0.0
  0
LINE
  5
DF
  8
0
  6
AIGENLINE001
 62
     7
 10
129.07900000000001
 20
184.66200000000001
 30
0.0
 11
129.07900000000001
 21
181.71700000000001
 31
0.0
  0
ARC
  5
E0
  8
0
 62
     7
 10
146.85976099999999
 20
183.202269
 30
0.0
 40
0.519602
 50
272.13619299999999
 51
357.90329100000002
  0
ARC
  5
E1
  8
0
 62
     7
 10
146.89857599999991
 20
183.202347
 30
0.0
 40
0.519684
 50
182.10506000000001
 51
267.85549600000002
  0
ARC
  5
E2
  8
0
 62
     7
 10
146.89849699999991
 20
183.16424799999999
 30
0.0
 40
0.519602
 50
92.136156
 51
177.90328799999989
  0
ARC
  5
E3
  8
0
 62
     7
 10
146.86040800000001
 20
183.164894
 30
0.0
 40
0.518933
 50
2.0280269999999998
 51
87.932490000000016
  0
ARC
  5
E4
  8
0
  6
AIGENLINE003
 62
     7
 10
137.891436
 20
188.37099399999991
 30
0.0
 40
2.389149999999999
 50
272.10073799999992
 51
357.89497999999992
  0
ARC
  5
E5
  8
0
  6
AIGENLINE003
 62
     7
 10
138.06754699999991
 20
188.37194999999991
 30
0.0
 40
2.390140999999999
 50
182.127104
 51
267.87721699999992
  0
ARC
  5
E6
  8
0
  6
AIGENLINE003
 62
     7
 10
137.97901399999989
 20
188.28323700000001
 30
0.0
 40
2.2999610000000001
 50
90.0
 51
179.99996999999991
  0
ARC
  5
E7
  8
0
  6
AIGENLINE003
 62
     7
 10
137.9790129999999
 20
188.28323700000001
 30
0.0
 40
2.2999610000000001
 50
0.00001
 51
89.999980000000008
  0
LINE
  5
E8
  8
0
  6
AIGENLINE001
 62
     7
 10
145.55600000000001
 20
183.18299999999999
 30
0.0
 11
148.256
 21
183.18299999999999
 31
0.0
  0
LINE
  5
E9
  8
0
  6
AIGENLINE001
 62
     7
 10
129.17199999999991
 20
188.28299999999999
 30
0.0
 11
146.72200000000001
 21
188.28299999999999
 31
0.0
  0
LINE
  5
EA
  8
0
  6
AIGENLINE001
 62
     7
 10
146.87899999999999
 20
184.66200000000001
 30
0.0
 11
146.87899999999999
 21
181.71700000000001
 31
0.0
  0
LINE
  5
EB
  8
0
  6
AIGENLINE001
 62
     7
 10
137.9789999999999
 20
198.34599999999989
 30
0.0
 11
137.9789999999999
 21
178.34200000000001
 31
0.0
  0
ARC
  5
EC
  8
0
 62
     7
 10
132.01730699999999
 20
195.24490299999999
 30
0.0
 40
1.0391330000000001
 50
92.131778999999995
 51
177.88793200000001
  0
ARC
  5
ED
  8
0
 62
     7
 10
143.97868500000001
 20
195.28319899999991
 30
0.0
 40
1.0001180000000001
 50
0.00001
 51
89.999980000000008
  0
ARC
  5
EE
  8
0
 62
     7
 10
132.01730699999999
 20
181.321572
 30
0.0
 40
1.0391330000000001
 50
182.11206799999991
 51
267.86822100000001
  0
ARC
  5
EF
  8
0
 62
     7
 10
143.97868500000001
 20
181.283276
 30
0.0
 40
1.0001180000000001
 50
270.00002000000001
 51
359.99998999999991
  0
LINE
  5
F0
  8
0
 62
     7
 10
144.9789999999999
 20
197.119
 30
0.0
 11
144.9789999999999
 21
203.27999999999989
 31
0.0
  0
LINE
  5
F1
  8
0
 62
     7
 10
130.9789999999999
 20
196.624
 30
0.0
 11
130.9789999999999
 21
203.27999999999989
 31
0.0
  0
LINE
  5
F2
  8
0
 62
     7
 10
144.9789999999999
 20
181.2829999999999
 30
0.0
 11
144.9789999999999
 21
195.2829999999999
 31
0.0
  0
LINE
  5
F3
  8
0
 62
     7
 10
130.9789999999999
 20
181.2829999999999
 30
0.0
 11
130.9789999999999
 21
195.2829999999999
 31
0.0
  0
LINE
  5
F4
  8
0
 62
     7
 10
122.765
 20
180.2829999999999
 30
0.0
 11
130.23299999999989
 21
180.2829999999999
 31
0.0
  0
LINE
  5
F5
  8
0
 62
     7
 10
122.765
 20
196.2829999999999
 30
0.0
 11
130.23299999999989
 21
196.2829999999999
 31
0.0
  0
LINE
  5
F6
  8
0
 62
     7
 10
131.9789999999999
 20
180.2829999999999
 30
0.0
 11
143.9789999999999
 21
180.2829999999999
 31
0.0
  0
LINE
  5
F7
  8
0
 62
     7
 10
131.9789999999999
 20
196.2829999999999
 30
0.0
 11
143.9789999999999
 21
196.2829999999999
 31
0.0
  0
ARC
  5
F8
  8
0
 62
     7
 10
67.296486000000002
 20
88.965808999999993
 30
0.0
 40
3.8642059999999989
 50
318.92211099999992
 51
331.90986700000002
  0
ARC
  5
F9
  8
0
 62
     7
 10
66.166518999999994
 20
89.872556000000003
 30
0.0
 40
5.3121320000000001
 50
300.29517499999992
 51
319.558086
  0
ARC
  5
FA
  8
0
 62
     7
 10
67.563085000000001
 20
87.500260999999995
 30
0.0
 40
2.5593129999999991
 50
286.86246799999998
 51
300.09070800000001
  0
LINE
  5
FB
  8
0
 62
     7
 10
64.205399999999983
 20
84.146299999999997
 30
0.0
 11
68.234499999999997
 21
84.146299999999997
 31
0.0
  0
LINE
  5
FC
  8
0
 62
     7
 10
68.305499999999995
 20
85.051000000000002
 30
0.0
 11
68.305499999999995
 21
84.245500000000007
 31
0.0
  0
ARC
  5
FD
  8
0
 62
     7
 10
68.202503000000007
 20
84.249275999999995
 30
0.0
 40
0.103044
 50
272.08895000000001
 51
357.91106000000002
  0
ARC
  5
FE
  8
0
 62
     7
 10
61.114403000000003
 20
88.965808999999993
 30
0.0
 40
3.8642059999999989
 50
208.09015299999999
 51
221.07790899999989
  0
ARC
  5
FF
  8
0
 62
     7
 10
62.244370999999987
 20
89.872556000000003
 30
0.0
 40
5.3121320000000001
 50
220.441934
 51
239.70484500000001
  0
ARC
  5
100
  8
0
 62
     7
 10
60.847803999999996
 20
87.500260999999995
 30
0.0
 40
2.5593129999999991
 50
239.909312
 51
253.137552
  0
LINE
  5
101
  8
0
 62
     7
 10
64.205399999999983
 20
84.146299999999997
 30
0.0
 11
60.176400000000001
 21
84.146299999999997
 31
0.0
  0
LINE
  5
102
  8
0
 62
     7
 10
60.105400000000003
 20
85.051000000000002
 30
0.0
 11
60.105400000000003
 21
84.245500000000007
 31
0.0
  0
ARC
  5
103
  8
0
 62
     7
 10
60.208385999999997
 20
84.249275999999995
 30
0.0
 40
0.103044
 50
182.088943
 51
267.91108700000001
  0
ARC
  5
104
  8
0
 62
     7
 10
64.203372999999985
 20
188.277041
 30
0.0
 40
26.50019099999999
 50
270.00002000000001
 51
359.99998999999991
  0
ARC
  5
105
  8
0
 62
     7
 10
64.203372999999985
 20
188.27703199999999
 30
0.0
 40
26.500181999999999
 50
179.99996999999991
 51
270.00002000000001
  0
ARC
  5
106
  8
0
 62
     7
 10
64.203381999999991
 20
188.27703199999999
 30
0.0
 40
26.50019099999999
 50
90.0
 51
179.99996999999991
  0
ARC
  5
107
  8
0
 62
     7
 10
64.203372999999985
 20
188.27703199999999
 30
0.0
 40
26.50019099999999
 50
0.00001
 51
89.999980000000008
  0
LINE
  5
108
  8
0
 62
     7
 10
48.0015
 20
195.78200000000001
 30
0.0
 11
56.571399999999997
 21
195.78200000000001
 31
0.0
  0
LINE
  5
109
  8
0
 62
     7
 10
83.106399999999994
 20
207.02199999999999
 30
0.0
 11
90.574700000000007
 21
207.02199999999999
 31
0.0
  0
LINE
  5
10A
  8
0
 62
     7
 10
77.205600000000004
 20
69.4846
 30
0.0
 11
77.205600000000004
 21
86.680199999999999
 31
0.0
  0
LINE
  5
10B
  8
0
 62
     7
 10
51.205300000000001
 20
69.4846
 30
0.0
 11
51.205300000000001
 21
86.472099999999983
 31
0.0
  0
LINE
  5
10C
  8
0
 62
     7
 10
126.18899999999989
 20
160.57299999999989
 30
0.0
 11
151.23500000000001
 21
160.57299999999989
 31
0.0
  0
LINE
  5
10D
  8
0
 62
     7
 10
158.23500000000001
 20
101.146
 30
0.0
 11
169.578
 21
101.146
 31
0.0
  0
LINE
  5
10E
  8
0
 62
     7
 10
67.827299999999994
 20
185.53599999999989
 30
0.0
 11
65.837199999999996
 21
186.66599999999991
 31
0.0
  0
LINE
  5
10F
  8
0
 62
     7
 10
65.837199999999996
 20
186.66599999999991
 30
0.0
 11
66.995599999999996
 21
184.69300000000001
 31
0.0
  0
LINE
  5
110
  8
0
 62
     7
 10
66.995599999999996
 20
184.69300000000001
 30
0.0
 11
67.827299999999994
 21
185.53599999999989
 31
0.0
  0
LINE
  5
111
  8
0
 62
     7
 10
60.566400000000002
 20
191.018
 30
0.0
 11
62.556399999999989
 21
189.88800000000001
 31
0.0
  0
LINE
  5
112
  8
0
 62
     7
 10
62.556399999999989
 20
189.88800000000001
 30
0.0
 11
61.39800000000001
 21
191.86199999999991
 31
0.0
  0
LINE
  5
113
  8
0
 62
     7
 10
61.39800000000001
 20
191.86199999999991
 30
0.0
 11
60.566400000000002
 21
191.018
 31
0.0
  0
LINE
  5
114
  8
0
 62
     7
 10
56.603999999999999
 20
195.768
 30
0.0
 11
72.0822
 21
180.50999999999991
 31
0.0
  0
LINE
  5
115
  8
0
 62
     7
 10
81.806899999999999
 20
205.054
 30
0.0
 11
82.9512
 21
207.03599999999989
 31
0.0
  0
LINE
  5
116
  8
0
 62
     7
 10
82.9512
 20
207.03599999999989
 30
0.0
 11
80.969200000000001
 21
205.892
 31
0.0
  0
LINE
  5
117
  8
0
 62
     7
 10
80.969200000000001
 20
205.892
 30
0.0
 11
81.806899999999999
 21
205.054
 31
0.0
  0
LINE
  5
118
  8
0
 62
     7
 10
46.617100000000001
 20
171.51899999999989
 30
0.0
 11
45.472799999999992
 21
169.53700000000001
 31
0.0
  0
LINE
  5
119
  8
0
 62
     7
 10
45.472799999999992
 20
169.53700000000001
 30
0.0
 11
47.454799999999992
 21
170.68199999999999
 31
0.0
  0
LINE
  5
11A
  8
0
 62
     7
 10
47.454799999999992
 20
170.68199999999999
 30
0.0
 11
46.617100000000001
 21
171.51899999999989
 31
0.0
  0
LINE
  5
11B
  8
0
 62
     7
 10
82.678500000000014
 20
206.75299999999999
 30
0.0
 11
45.804400000000001
 21
169.87899999999999
 31
0.0
  0
LINE
  5
11C
  8
0
 62
     7
 10
53.395899999999997
 20
70.702100000000002
 30
0.0
 11
51.185299999999991
 21
70.109899999999996
 31
0.0
  0
LINE
  5
11D
  8
0
 62
     7
 10
51.185299999999991
 20
70.109899999999996
 30
0.0
 11
53.395899999999997
 21
69.517600000000002
 31
0.0
  0
LINE
  5
11E
  8
0
 62
     7
 10
53.395899999999997
 20
69.517600000000002
 30
0.0
 11
53.395899999999997
 21
70.702100000000002
 31
0.0
  0
LINE
  5
11F
  8
0
 62
     7
 10
75.0595
 20
69.5321
 30
0.0
 11
77.269999999999996
 21
70.124300000000005
 31
0.0
  0
LINE
  5
120
  8
0
 62
     7
 10
77.269999999999996
 20
70.124300000000005
 30
0.0
 11
75.0595
 21
70.716499999999996
 31
0.0
  0
LINE
  5
121
  8
0
 62
     7
 10
75.0595
 20
70.716499999999996
 30
0.0
 11
75.0595
 21
69.5321
 31
0.0
  0
LINE
  5
122
  8
0
 62
     7
 10
51.064900000000002
 20
70.117099999999994
 30
0.0
 11
76.764300000000006
 21
70.117099999999994
 31
0.0
  0
LINE
  5
123
  8
0
 62
     7
 10
169.46899999999999
 20
98.866600000000005
 30
0.0
 11
168.8779999999999
 21
101.077
 31
0.0
  0
LINE
  5
124
  8
0
 62
     7
 10
168.8779999999999
 20
101.077
 30
0.0
 11
168.285
 21
98.866600000000005
 31
0.0
  0
LINE
  5
125
  8
0
 62
     7
 10
168.285
 20
98.866600000000005
 30
0.0
 11
169.46899999999999
 21
98.866600000000005
 31
0.0
  0
LINE
  5
126
  8
0
 62
     7
 10
168.29900000000001
 20
86.383899999999997
 30
0.0
 11
168.89199999999991
 21
84.173199999999994
 31
0.0
  0
LINE
  5
127
  8
0
 62
     7
 10
168.89199999999991
 20
84.173199999999994
 30
0.0
 11
169.48400000000001
 21
86.383899999999997
 31
0.0
  0
LINE
  5
128
  8
0
 62
     7
 10
169.48400000000001
 20
86.383899999999997
 30
0.0
 11
168.29900000000001
 21
86.383899999999997
 31
0.0
  0
LINE
  5
129
  8
0
 62
     7
 10
168.88399999999999
 20
101.09399999999989
 30
0.0
 11
168.88399999999999
 21
84.392300000000006
 31
0.0
  0
LINE
  5
12A
  8
0
 62
     7
 10
40.056600000000003
 20
81.818100000000001
 30
0.0
 11
39.464300000000001
 21
84.028499999999994
 31
0.0
  0
LINE
  5
12B
  8
0
 62
     7
 10
39.464300000000001
 20
84.028499999999994
 30
0.0
 11
38.871899999999997
 21
81.818100000000001
 31
0.0
  0
LINE
  5
12C
  8
0
 62
     7
 10
38.871899999999997
 20
81.818100000000001
 30
0.0
 11
40.056600000000003
 21
81.818100000000001
 31
0.0
  0
LINE
  5
12D
  8
0
 62
     7
 10
38.886600000000001
 20
89.413200000000003
 30
0.0
 11
39.478799999999993
 21
87.202500000000001
 31
0.0
  0
LINE
  5
12E
  8
0
 62
     7
 10
39.478799999999993
 20
87.202500000000001
 30
0.0
 11
40.07119999999999
 21
89.413200000000003
 31
0.0
  0
LINE
  5
12F
  8
0
 62
     7
 10
40.07119999999999
 20
89.413200000000003
 30
0.0
 11
38.886600000000001
 21
89.413200000000003
 31
0.0
  0
LINE
  5
130
  8
0
 62
     7
 10
39.471600000000002
 20
87.904200000000003
 30
0.0
 11
39.471600000000002
 21
72.328500000000005
 31
0.0
  0
LINE
  5
131
  8
0
 62
     7
 10
39.471600000000002
 20
93.244900000000001
 30
0.0
 11
39.471600000000002
 21
87.747799999999984
 31
0.0
  0
LINE
  5
132
  8
0
 62
     7
 10
128.4079999999999
 20
98.807699999999997
 30
0.0
 11
127.8159999999999
 21
101.0179999999999
 31
0.0
  0
LINE
  5
133
  8
0
 62
     7
 10
127.8159999999999
 20
101.0179999999999
 30
0.0
 11
127.2229999999999
 21
98.807699999999997
 31
0.0
  0
LINE
  5
134
  8
0
 62
     7
 10
127.2229999999999
 20
98.807699999999997
 30
0.0
 11
128.4079999999999
 21
98.807699999999997
 31
0.0
  0
LINE
  5
135
  8
0
 62
     7
 10
127.238
 20
90.855699999999999
 30
0.0
 11
127.8299999999999
 21
88.644900000000007
 31
0.0
  0
LINE
  5
136
  8
0
 62
     7
 10
127.8299999999999
 20
88.644900000000007
 30
0.0
 11
128.42299999999989
 21
90.855699999999999
 31
0.0
  0
LINE
  5
137
  8
0
 62
     7
 10
128.42299999999989
 20
90.855699999999999
 30
0.0
 11
127.238
 21
90.855699999999999
 31
0.0
  0
LINE
  5
138
  8
0
 62
     7
 10
127.82299999999989
 20
101.1819999999999
 30
0.0
 11
127.82299999999989
 21
88.570499999999996
 31
0.0
  0
LINE
  5
139
  8
0
 62
     7
 10
162.827
 20
98.9358
 30
0.0
 11
162.23500000000001
 21
101.146
 31
0.0
  0
LINE
  5
13A
  8
0
 62
     7
 10
162.23500000000001
 20
101.146
 30
0.0
 11
161.64199999999991
 21
98.9358
 31
0.0
  0
LINE
  5
13B
  8
0
 62
     7
 10
161.64199999999991
 20
98.9358
 30
0.0
 11
162.827
 21
98.9358
 31
0.0
  0
LINE
  5
13C
  8
0
 62
     7
 10
161.64199999999991
 20
89.356700000000004
 30
0.0
 11
162.23500000000001
 21
87.146299999999997
 31
0.0
  0
LINE
  5
13D
  8
0
 62
     7
 10
162.23500000000001
 20
87.146299999999997
 30
0.0
 11
162.827
 21
89.356700000000004
 31
0.0
  0
LINE
  5
13E
  8
0
 62
     7
 10
162.827
 20
89.356700000000004
 30
0.0
 11
161.64199999999991
 21
89.356700000000004
 31
0.0
  0
LINE
  5
13F
  8
0
 62
     7
 10
162.23500000000001
 20
101.146
 30
0.0
 11
162.23500000000001
 21
87.146299999999997
 31
0.0
  0
LINE
  5
140
  8
0
  6
AIGENLINE001
 62
     7
 10
73.105599999999995
 20
79.199100000000001
 30
0.0
 11
73.105599999999995
 21
91.137100000000004
 31
0.0
  0
LINE
  5
141
  8
0
  6
AIGENLINE001
 62
     7
 10
96.598200000000006
 20
188.28200000000001
 30
0.0
 11
31.921900000000001
 21
188.28200000000001
 31
0.0
  0
LINE
  5
142
  8
0
  6
AIGENLINE001
 62
     7
 10
64.205399999999983
 20
156.29900000000001
 30
0.0
 11
64.205399999999983
 21
221.845
 31
0.0
  0
LINE
  5
143
  8
0
  6
AIGENLINE001
 62
     7
 10
130.66599999999991
 20
80.015600000000006
 30
0.0
 11
130.66599999999991
 21
104.0929999999999
 31
0.0
  0
LINE
  5
144
  8
0
  6
AIGENLINE001
 62
     7
 10
64.205399999999983
 20
78.692700000000002
 30
0.0
 11
64.205399999999983
 21
104.97499999999989
 31
0.0
  0
ARC
  5
145
  8
0
  6
AIGENLINE002
 62
     7
 10
55.303606000000002
 20
183.17688499999991
 30
0.0
 40
0.5000590000000001
 50
270.00002000000001
 51
359.99998999999991
  0
ARC
  5
146
  8
0
  6
AIGENLINE002
 62
     7
 10
55.303606000000002
 20
183.17688499999991
 30
0.0
 40
0.5000590000000001
 50
179.99996999999991
 51
270.00002000000001
  0
ARC
  5
147
  8
0
  6
AIGENLINE002
 62
     7
 10
55.303606000000002
 20
183.17688499999991
 30
0.0
 40
0.5000590000000001
 50
90.0
 51
179.99996999999991
  0
ARC
  5
148
  8
0
  6
AIGENLINE002
 62
     7
 10
55.303606000000002
 20
183.17688499999991
 30
0.0
 40
0.5000590000000001
 50
0.00001
 51
89.999980000000008
  0
ARC
  5
149
  8
0
  6
AIGENLINE002
 62
     7
 10
73.102976999999996
 20
183.17671299999989
 30
0.0
 40
0.5000590000000001
 50
270.00002000000001
 51
359.99998999999991
  0
ARC
  5
14A
  8
0
  6
AIGENLINE002
 62
     7
 10
73.102976999999996
 20
183.17671299999989
 30
0.0
 40
0.5000590000000001
 50
179.99996999999991
 51
270.00002000000001
  0
ARC
  5
14B
  8
0
  6
AIGENLINE002
 62
     7
 10
73.102976999999996
 20
183.17671299999989
 30
0.0
 40
0.5000590000000001
 50
90.0
 51
179.99996999999991
  0
ARC
  5
14C
  8
0
  6
AIGENLINE002
 62
     7
 10
73.102976999999996
 20
183.17671299999989
 30
0.0
 40
0.5000590000000001
 50
0.00001
 51
89.999980000000008
  0
LINE
  5
14D
  8
0
 62
     7
 10
72.159199999999998
 20
183.71999999999991
 30
0.0
 11
73.992199999999997
 21
182.66200000000001
 31
0.0
  0
LINE
  5
14E
  8
0
 62
     7
 10
56.320900000000002
 20
183.76400000000001
 30
0.0
 11
54.3123
 21
182.60400000000001
 31
0.0
  0
ARC
  5
14F
  8
0
 62
     7
 10
64.180668999999995
 20
188.30989099999999
 30
0.0
 40
10.25566699999999
 50
203.95966399999989
 51
216.139937
  0
ARC
  5
150
  8
0
 62
     7
 10
64.216211000000001
 20
188.3164679999999
 30
0.0
 40
10.267503
 50
323.95446399999997
 51
335.93062099999992
  0
ARC
  5
151
  8
0
 62
     7
 10
64.201655000000002
 20
188.2825489999999
 30
0.0
 40
2.2999610000000001
 50
270.00002000000001
 51
359.99998999999991
  0
ARC
  5
152
  8
0
 62
     7
 10
64.201655000000002
 20
188.28254799999991
 30
0.0
 40
2.29996
 50
179.99996999999991
 51
270.00002000000001
  0
ARC
  5
153
  8
0
 62
     7
 10
64.201655000000002
 20
188.28254799999991
 30
0.0
 40
2.2999610000000001
 50
90.0
 51
179.99996999999991
  0
ARC
  5
154
  8
0
 62
     7
 10
64.201655000000002
 20
188.28254799999991
 30
0.0
 40
2.2999610000000001
 50
0.00001
 51
89.999980000000008
  0
ARC
  5
155
  8
0
  6
AIGENLINE002
 62
     7
 10
64.203374999999994
 20
188.28255100000001
 30
0.0
 40
13.000152
 50
270.00002000000001
 51
359.99998999999991
  0
ARC
  5
156
  8
0
  6
AIGENLINE002
 62
     7
 10
64.203374999999994
 20
188.282546
 30
0.0
 40
13.000147999999999
 50
179.99996999999991
 51
270.00002000000001
  0
ARC
  5
157
  8
0
  6
AIGENLINE002
 62
     7
 10
64.203379999999996
 20
188.282546
 30
0.0
 40
13.000152
 50
90.0
 51
179.99996999999991
  0
ARC
  5
158
  8
0
  6
AIGENLINE002
 62
     7
 10
64.203374999999994
 20
188.282546
 30
0.0
 40
13.000152
 50
0.00001
 51
89.999980000000008
  0
LINE
  5
159
  8
0
 62
     7
 10
136.114
 20
84.146299999999997
 30
0.0
 11
170.42500000000001
 21
84.146299999999997
 31
0.0
  0
LINE
  5
15A
  8
0
 62
     7
 10
144.6399999999999
 20
87.146299999999997
 30
0.0
 11
163.01400000000001
 21
87.146299999999997
 31
0.0
  0
LINE
  5
15B
  8
0
 62
     7
 10
38.137599999999999
 20
87.146299999999997
 30
0.0
 11
50.497
 21
87.146299999999997
 31
0.0
  0
LINE
  5
15C
  8
0
 62
     7
 10
77.197299999999998
 20
87.436400000000006
 30
0.0
 11
77.197299999999998
 21
87.146299999999997
 31
0.0
  0
LINE
  5
15D
  8
0
 62
     7
 10
77.197299999999998
 20
87.146299999999997
 30
0.0
 11
51.196999999999989
 21
87.146299999999997
 31
0.0
  0
LINE
  5
15E
  8
0
 62
     7
 10
51.196999999999989
 20
87.146299999999997
 30
0.0
 11
51.196999999999989
 21
87.436400000000006
 31
0.0
  0
ARC
  5
15F
  8
0
 62
     7
 10
78.128468999999996
 20
87.257230000000007
 30
0.0
 40
0.9482219999999998
 50
142.869328
 51
169.10905099999991
  0
ARC
  5
160
  8
0
 62
     7
 10
79.428801000000007
 20
86.163184000000001
 30
0.0
 40
2.6467700000000001
 50
132.66074499999999
 51
140.97883999999991
  0
LINE
  5
161
  8
0
 62
     7
 10
77.635199999999983
 20
88.109599999999986
 30
0.0
 11
90.401399999999995
 21
99.890500000000003
 31
0.0
  0
ARC
  5
162
  8
0
 62
     7
 10
89.884795999999994
 20
100.4323269999999
 30
0.0
 40
0.748665
 50
313.63566299999991
 51
18.494568999999991
  0
ARC
  5
163
  8
0
 62
     7
 10
89.728402999999986
 20
100.419634
 30
0.0
 40
0.901791
 50
16.106649999999998
 51
46.740566999999999
  0
ARC
  5
164
  8
0
 62
     7
 10
90.163993000000005
 20
100.877589
 30
0.0
 40
0.269791
 50
47.459459999999993
 51
84.710766000000007
  0
LINE
  5
165
  8
0
 62
     7
 10
90.188900000000004
 20
101.146
 30
0.0
 11
38.206200000000003
 21
101.146
 31
0.0
  0
ARC
  5
166
  8
0
 62
     7
 10
38.20776
 20
100.964929
 30
0.0
 40
0.18131
 50
90.499915999999999
 51
117.068004
  0
ARC
  5
167
  8
0
 62
     7
 10
38.315027000000001
 20
100.746033
 30
0.0
 40
0.4250600000000001
 50
116.5165989999999
 51
137.955029
  0
ARC
  5
168
  8
0
 62
     7
 10
38.669910999999992
 20
100.43072699999991
 30
0.0
 40
0.8997759999999999
 50
138.17907500000001
 51
199.58524800000001
  0
ARC
  5
169
  8
0
 62
     7
 10
38.473722999999993
 20
100.4176479999999
 30
0.0
 40
0.712561
 50
203.8864879999999
 51
227.715577
  0
LINE
  5
16A
  8
0
 62
     7
 10
37.994300000000003
 20
99.890500000000003
 30
0.0
 11
50.759199999999993
 21
88.109599999999986
 31
0.0
  0
ARC
  5
16B
  8
0
 62
     7
 10
46.632742999999998
 20
84.079785999999984
 30
0.0
 40
5.7676989999999986
 50
39.896834999999989
 51
44.32120900000001
  0
ARC
  5
16C
  8
0
 62
     7
 10
50.305737999999991
 20
87.273968000000011
 30
0.0
 40
0.9059659999999999
 50
10.327688999999991
 51
33.897283000000002
  0
ARC
  5
16D
  8
0
 62
     7
 10
64.264359999999996
 20
206.64195100000001
 30
0.0
 40
2.476669999999999
 50
90.095713000000003
 51
123.83803399999999
  0
ARC
  5
16E
  8
0
 62
     7
 10
63.654778
 20
207.66079699999989
 30
0.0
 40
1.2923990000000001
 50
126.543936
 51
163.32301200000001
  0
ARC
  5
16F
  8
0
 62
     7
 10
63.464195999999987
 20
208.29808899999989
 30
0.0
 40
1.0808029999999991
 50
182.81889799999999
 51
194.26982699999991
  0
ARC
  5
170
  8
0
 62
     7
 10
63.360340999999998
 20
208.24042099999991
 30
0.0
 40
0.9756510000000001
 50
138.16098799999989
 51
179.73479199999991
  0
ARC
  5
171
  8
0
 62
     7
 10
63.831795999999997
 20
207.876341
 30
0.0
 40
1.570346999999999
 50
115.459531
 51
139.73855499999991
  0
ARC
  5
172
  8
0
 62
     7
 10
64.218128000000007
 20
207.15223700000001
 30
0.0
 40
2.3905009999999991
 50
88.991033999999985
 51
116.359375
  0
ARC
  5
173
  8
0
 62
     7
 10
64.255944
 20
207.04798700000001
 30
0.0
 40
2.4943840000000002
 50
56.073528000000003
 51
89.901725999999996
  0
ARC
  5
174
  8
0
 62
     7
 10
64.918672000000001
 20
208.13804999999991
 30
0.0
 40
1.221412999999999
 50
5.0203839999999991
 51
53.328569999999992
  0
ARC
  5
175
  8
0
 62
     7
 10
65.349302000000009
 20
208.24913099999989
 30
0.0
 40
0.7861090000000001
 50
343.94187499999992
 51
359.69426600000003
  0
ARC
  5
176
  8
0
 62
     7
 10
65.034666999999999
 20
207.77145200000001
 30
0.0
 40
1.1012589999999991
 50
13.668461000000001
 51
53.530744999999989
  0
ARC
  5
177
  8
0
 62
     7
 10
64.426310999999984
 20
207.08926199999999
 30
0.0
 40
2.0132039999999991
 50
51.146895000000001
 51
83.26165300000001
  0
ARC
  5
178
  8
0
 62
     7
 10
64.262208000000001
 20
206.437895
 30
0.0
 40
2.6807240000000001
 50
81.411670000000015
 51
90.042443000000006
  0
ARC
  5
179
  8
0
 62
     7
 10
65.159068000000005
 20
207.78194899999991
 30
0.0
 40
0.9763419999999999
 50
318.19734399999999
 51
359.73505799999998
  0
ARC
  5
17A
  8
0
 62
     7
 10
64.689373000000003
 20
208.14447000000001
 30
0.0
 40
1.568703
 50
295.46596899999992
 51
319.76236899999992
  0
ARC
  5
17B
  8
0
 62
     7
 10
64.302702999999994
 20
208.86917199999991
 30
0.0
 40
2.3895469999999999
 50
268.98137100000002
 51
296.36512900000002
  0
ARC
  5
17C
  8
0
 62
     7
 10
64.264515000000003
 20
208.97425499999991
 30
0.0
 40
2.494256
 50
236.07265299999989
 51
269.90139699999997
  0
ARC
  5
17D
  8
0
 62
     7
 10
63.601700000000001
 20
207.88480499999989
 30
0.0
 40
1.221727
 50
185.041943
 51
233.34691699999991
  0
ARC
  5
17E
  8
0
 62
     7
 10
63.361201999999992
 20
207.77291199999999
 30
0.0
 40
0.9765119999999999
 50
138.18029599999991
 51
179.73467500000001
  0
ARC
  5
17F
  8
0
 62
     7
 10
63.831990000000012
 20
207.4096679999999
 30
0.0
 40
1.5701670000000001
 50
115.4704649999999
 51
139.75721399999989
  0
ARC
  5
180
  8
0
 62
     7
 10
64.218221999999997
 20
206.686306
 30
0.0
 40
2.389616999999999
 50
88.992912999999987
 51
116.372394
  0
ARC
  5
181
  8
0
 62
     7
 10
64.255943000000002
 20
206.582325
 30
0.0
 40
2.493233
 50
56.055712999999997
 51
89.901661000000004
  0
ARC
  5
182
  8
0
 62
     7
 10
64.917923000000002
 20
207.670637
 30
0.0
 40
1.2221519999999999
 50
5.0131350000000001
 51
53.310561
  0
ARC
  5
183
  8
0
 62
     7
 10
64.068508999999992
 20
188.4033189999999
 30
0.0
 40
3.5200330000000002
 50
272.10602699999993
 51
357.88232999999991
  0
ARC
  5
184
  8
0
 62
     7
 10
64.327902000000009
 20
188.40292500000001
 30
0.0
 40
3.5196649999999998
 50
182.111502
 51
267.8827
  0
ARC
  5
185
  8
0
 62
     7
 10
64.327111999999985
 20
188.14364299999991
 30
0.0
 40
3.5188730000000001
 50
92.104904000000005
 51
177.88923800000001
  0
ARC
  5
186
  8
0
 62
     7
 10
64.067918999999989
 20
188.1418689999999
 30
0.0
 40
3.5206710000000001
 50
2.1385499999999991
 51
87.884748000000016
  0
LINE
  5
187
  8
0
 62
     7
 10
73.529700000000005
 20
83.774199999999979
 30
0.0
 11
73.529700000000005
 21
83.296700000000001
 31
0.0
  0
LINE
  5
188
  8
0
 62
     7
 10
72.718699999999984
 20
83.774199999999979
 30
0.0
 11
72.718699999999984
 21
83.296700000000001
 31
0.0
  0
LINE
  5
189
  8
0
 62
     7
 10
72.476799999999983
 20
83.293999999999997
 30
0.0
 11
73.746399999999994
 21
83.293999999999997
 31
0.0
  0
LINE
  5
18A
  8
0
 62
     7
 10
73.746399999999994
 20
83.293999999999997
 30
0.0
 11
73.746399999999994
 21
83.8142
 31
0.0
  0
LINE
  5
18B
  8
0
 62
     7
 10
73.746399999999994
 20
83.8142
 30
0.0
 11
72.476799999999983
 21
83.8142
 31
0.0
  0
LINE
  5
18C
  8
0
 62
     7
 10
72.476799999999983
 20
83.8142
 30
0.0
 11
72.476799999999983
 21
83.293999999999997
 31
0.0
  0
LINE
  5
18D
  8
0
 62
     7
 10
74.028499999999994
 20
83.816900000000004
 30
0.0
 11
72.197800000000001
 21
83.816900000000004
 31
0.0
  0
LINE
  5
18E
  8
0
 62
     7
 10
72.197800000000001
 20
83.816900000000004
 30
0.0
 11
72.197800000000001
 21
84.106300000000005
 31
0.0
  0
LINE
  5
18F
  8
0
 62
     7
 10
72.197800000000001
 20
84.106300000000005
 30
0.0
 11
74.028499999999994
 21
84.106300000000005
 31
0.0
  0
LINE
  5
190
  8
0
 62
     7
 10
74.028499999999994
 20
84.106300000000005
 30
0.0
 11
74.028499999999994
 21
83.816900000000004
 31
0.0
  0
LINE
  5
191
  8
0
 62
     7
 10
73.325000000000003
 20
82.343100000000007
 30
0.0
 11
73.325000000000003
 21
87.164199999999994
 31
0.0
  0
LINE
  5
192
  8
0
 62
     7
 10
72.901300000000006
 20
82.343100000000007
 30
0.0
 11
72.901300000000006
 21
87.164199999999994
 31
0.0
  0
LINE
  5
193
  8
0
 62
     7
 10
72.815799999999996
 20
82.436800000000005
 30
0.0
 11
73.411100000000005
 21
82.436800000000005
 31
0.0
  0
LINE
  5
194
  8
0
 62
     7
 10
72.898899999999983
 20
82.337599999999995
 30
0.0
 11
73.315399999999997
 21
82.337599999999995
 31
0.0
  0
LINE
  5
195
  8
0
 62
     7
 10
73.315399999999997
 20
82.337599999999995
 30
0.0
 11
73.407700000000006
 21
82.434100000000001
 31
0.0
  0
LINE
  5
196
  8
0
 62
     7
 10
73.407700000000006
 20
82.434100000000001
 30
0.0
 11
73.407700000000006
 21
87.146299999999997
 31
0.0
  0
LINE
  5
197
  8
0
 62
     7
 10
73.407700000000006
 20
87.146299999999997
 30
0.0
 11
72.805499999999995
 21
87.146299999999997
 31
0.0
  0
LINE
  5
198
  8
0
 62
     7
 10
72.805499999999995
 20
87.146299999999997
 30
0.0
 11
72.805499999999995
 21
82.434100000000001
 31
0.0
  0
LINE
  5
199
  8
0
 62
     7
 10
72.805499999999995
 20
82.434100000000001
 30
0.0
 11
72.898899999999983
 21
82.337599999999995
 31
0.0
  0
LINE
  5
19A
  8
0
 62
     7
 10
38.137599999999999
 20
84.146299999999997
 30
0.0
 11
53.688899999999997
 21
84.146299999999997
 31
0.0
  0
LINE
  5
19B
  8
_________2
 62
     7
 10
205.30099999999999
 20
127.411
 30
0.0
 11
183.55000000000001
 21
127.411
 31
0.0
  0
LINE
  5
19C
  8
_________2
 62
     7
 10
100.2999999999999
 20
-4.0910799999999998
 30
0.0
 11
100.2999999999999
 21
-21.071400000000001
 31
0.0
  0
LINE
  5
19D
  8
_________2
 62
     7
 10
100.2999999999999
 20
275.93099999999993
 30
0.0
 11
100.2999999999999
 21
258.911
 31
0.0
  0
LINE
  5
19E
  8
_________2
 62
     7
 10
17.049499999999998
 20
127.411
 30
0.0
 11
-4.70052
 21
127.411
 31
0.0
  0
LINE
  5
19F
  8
_________2
 62
     7
 10
76.741
 20
29.8047
 30
0.0
 11
74.554699999999997
 21
29.8047
 31
0.0
  0
LINE
  5
1A0
  8
_________2
 62
     7
 10
77.233699999999999
 20
29.8047
 30
0.0
 11
76.981499999999997
 21
29.8047
 31
0.0
  0
LINE
  5
1A1
  8
_________2
 62
     7
 10
77.726299999999995
 20
29.8047
 30
0.0
 11
80.651200000000003
 21
29.8047
 31
0.0
  0
LINE
  5
1A2
  8
_________2
 62
     7
 10
77.233699999999999
 20
29.8047
 30
0.0
 11
77.485500000000002
 21
29.8047
 31
0.0
  0
LINE
  5
1A3
  8
_________2
 62
     7
 10
70.837100000000007
 20
29.8047
 30
0.0
 11
68.650499999999994
 21
29.8047
 31
0.0
  0
LINE
  5
1A4
  8
_________2
 62
     7
 10
71.329400000000007
 20
29.8047
 30
0.0
 11
71.077600000000004
 21
29.8047
 31
0.0
  0
LINE
  5
1A5
  8
_________2
 62
     7
 10
71.329400000000007
 20
30.2974
 30
0.0
 11
71.329400000000007
 21
32.484400000000001
 31
0.0
  0
LINE
  5
1A6
  8
_________2
 62
     7
 10
71.329400000000007
 20
29.8047
 30
0.0
 11
71.329400000000007
 21
30.056899999999992
 31
0.0
  0
LINE
  5
1A7
  8
_________2
 62
     7
 10
71.822100000000006
 20
29.8047
 30
0.0
 11
74.009
 21
29.8047
 31
0.0
  0
LINE
  5
1A8
  8
_________2
 62
     7
 10
71.329400000000007
 20
29.8047
 30
0.0
 11
71.581599999999995
 21
29.8047
 31
0.0
  0
LINE
  5
1A9
  8
_________2
 62
     7
 10
71.329400000000007
 20
29.312799999999999
 30
0.0
 11
71.329400000000007
 21
27.125800000000002
 31
0.0
  0
LINE
  5
1AA
  8
_________2
 62
     7
 10
71.329400000000007
 20
29.8047
 30
0.0
 11
71.329400000000007
 21
29.5532
 31
0.0
  0
LINE
  5
1AB
  8
_________2
 62
     7
 10
75.040499999999994
 20
28.5852
 30
0.0
 11
80.218500000000006
 21
27.720400000000001
 31
0.0
  0
LINE
  5
1AC
  8
_________2
 62
     7
 10
75.040499999999994
 20
31.0243
 30
0.0
 11
80.218500000000006
 21
31.889700000000001
 31
0.0
  0
LINE
  5
1AD
  8
_________2
 62
     7
 10
80.218500000000006
 20
27.720400000000001
 30
0.0
 11
80.218500000000006
 21
31.889700000000001
 31
0.0
  0
LINE
  5
1AE
  8
_________2
 62
     7
 10
75.040499999999994
 20
28.5852
 30
0.0
 11
75.040499999999994
 21
31.0243
 31
0.0
  0
ARC
  5
1AF
  8
_________2
 62
     7
 10
71.28285600000001
 20
29.757811
 30
0.0
 40
1.2673589999999999
 50
2.122214
 51
87.893958999999995
  0
ARC
  5
1B0
  8
_________2
 62
     7
 10
71.375959999999992
 20
29.758213000000001
 30
0.0
 40
1.2669559999999991
 50
92.104701000000006
 51
177.8952689999999
  0
ARC
  5
1B1
  8
_________2
 62
     7
 10
71.376357999999996
 20
29.851671
 30
0.0
 40
1.2673680000000001
 50
182.12203600000001
 51
267.877993
  0
ARC
  5
1B2
  8
_________2
 62
     7
 10
71.282531999999989
 20
29.851998999999989
 30
0.0
 40
1.267695999999999
 50
272.12015300000002
 51
357.863674
  0
ARC
  5
1B3
  8
_________2
 62
     7
 10
71.329430000000002
 20
29.804742999999998
 30
0.0
 40
2.0849849999999992
 50
0.00001
 51
89.999980000000008
  0
ARC
  5
1B4
  8
_________2
 62
     7
 10
71.329603000000006
 20
29.804915000000001
 30
0.0
 40
2.084813
 50
90.004733999999999
 51
180.00474399999999
  0
ARC
  5
1B5
  8
_________2
 62
     7
 10
71.409106000000008
 20
29.884775999999999
 30
0.0
 40
2.1657950000000001
 50
182.11776599999999
 51
267.89173399999999
  0
ARC
  5
1B6
  8
_________2
 62
     7
 10
71.249459000000002
 20
29.885429999999989
 30
0.0
 40
2.1664590000000001
 50
272.11546800000002
 51
357.86560400000002
  0
TEXT
  5
1B7
  8
_________2
 62
     7
 10
104.605
 20
1.6794899999999999
 30
0.0
 40
3.0923400000000001
  1
図番
 41
0.5
  0
LINE
  5
1B8
  8
_________2
 62
     7
 10
103.55
 20
5.9087199999999989
 30
0.0
 11
183.55099999999999
 21
5.9087199999999989
 31
0.0
  0
TEXT
  5
1B9
  8
_________2
 62
     7
 10
104.605
 20
11.679299999999991
 30
0.0
 40
3.0923400000000001
  1
品番
 41
0.5
  0
TEXT
  5
1BA
  8
_________2
 62
     7
 10
104.605
 20
31.818100000000001
 30
0.0
 40
3.0923400000000001
  1
名称
 41
0.5
  0
TEXT
  5
1BB
  8
_________2
 62
     7
 10
91.845058333333341
 20
26.821999999999989
 30
0.0
 40
3.6545800000000002
  1
mm
 41
0.5
 72
     1
 11
93.367800000000003
 21
26.821999999999989
 31
0.0
  0
TEXT
  5
1BC
  8
_________2
 62
     7
 10
85.643199999999993
 20
31.818100000000001
 30
0.0
 40
3.0923400000000001
  1
単位
 41
0.5
  0
TEXT
  5
1BD
  8
_________2
 62
     7
 10
85.643199999999993
 20
19.410799999999991
 30
0.0
 40
3.0923400000000001
  1
尺度
 41
0.5
  0
TEXT
  5
1BE
  8
_________2
 62
     7
 10
90.09193616666667
 20
13.2179
 30
0.0
 40
3.6545800000000002
  1
1 ： 10
 41
0.5
 72
     1
 11
93.959699999999998
 21
13.2179
 31
0.0
  0
TEXT
  5
1BF
  8
_________2
 62
     7
 10
133.38277500000001
 20
9.1078600000000005
 30
0.0
 40
3.9357000000000002
  1
DV040853-00
 41
0.5
 72
     1
 11
143.55000000000001
 21
9.1078600000000005
 31
0.0
  0
TEXT
  5
1C0
  8
_________2
 62
     7
 10
136.00657499999991
 20
-0.8926299999999999
 30
0.0
 40
3.9357000000000002
  1
DV040853
 41
0.5
 72
     1
 11
143.55000000000001
 21
-0.8926299999999999
 31
0.0
  0
TEXT
  5
1C1
  8
_________2
 62
     7
 10
24.5868
 20
0.707283
 30
0.0
 40
3.9357000000000002
  1
530サイズ、実容量4L、オーバーフロー付
 41
0.5
  0
TEXT
  5
1C2
  8
_________2
 62
     7
 10
109.179
 20
24.2257
 30
0.0
 40
3.9357000000000002
  1
コンソール洗面器
 41
0.5
  0
TEXT
  5
1C3
  8
_________2
 62
     7
 10
39.303480999999991
 20
13.603
 30
0.0
 40
3.6545800000000002
  1
田尻
 41
0.5
 72
     1
 11
41.313499999999998
 21
13.603
 31
0.0
  0
TEXT
  5
1C4
  8
_________2
 62
     7
 10
20.790090666666661
 20
13.603
 30
0.0
 40
3.6545800000000002
  1
石原
 41
0.5
 72
     1
 11
22.73919999999999
 21
13.603
 31
0.0
  0
TEXT
  5
1C5
  8
_________2
 62
     7
 10
67.785399999999996
 20
13.2179
 30
0.0
 40
3.6545800000000002
  1
11.01.26
 41
0.5
  0
TEXT
  5
1C6
  8
_________2
 62
     7
 10
66.593100000000007
 20
19.410799999999991
 30
0.0
 40
3.0923400000000001
  1
日付
 41
0.5
  0
TEXT
  5
1C7
  8
_________2
 62
     7
 10
29.639399999999998
 20
19.410799999999991
 30
0.0
 40
3.0923400000000001
  1
検図
 41
0.5
  0
TEXT
  5
1C8
  8
_________2
 62
     7
 10
18.021100000000001
 20
5.21143
 30
0.0
 40
3.0923400000000001
  1
備考
 41
0.5
  0
TEXT
  5
1C9
  8
_________2
 62
     7
 10
18.021100000000001
 20
19.410799999999991
 30
0.0
 40
3.0923400000000001
  1
製図
 41
0.5
  0
TEXT
  5
1CA
  8
_________2
 62
     7
 10
23.788465333333338
 20
27.936800000000002
 30
0.0
 40
4.4979399999999989
  1
セラトレーディング株式会社
 41
0.5
 72
     1
 11
41.180500000000002
 21
27.936800000000002
 31
0.0
  0
LINE
  5
1CB
  8
_________2
 62
     7
 10
183.55099999999999
 20
-4.0910799999999998
 30
0.0
 11
17.049499999999998
 21
-4.0910799999999998
 31
0.0
  0
LINE
  5
1CC
  8
_________2
 62
     7
 10
17.049499999999998
 20
-4.0910799999999998
 30
0.0
 11
17.049499999999998
 21
258.911
 31
0.0
  0
LINE
  5
1CD
  8
_________2
 62
     7
 10
17.049499999999998
 20
258.911
 30
0.0
 11
183.55099999999999
 21
258.911
 31
0.0
  0
LINE
  5
1CE
  8
_________2
 62
     7
 10
183.55099999999999
 20
258.911
 30
0.0
 11
183.55099999999999
 21
-4.0910799999999998
 31
0.0
  0
LINE
  5
1CF
  8
_________2
 62
     7
 10
65.549599999999998
 20
9.4089600000000004
 30
0.0
 11
65.549599999999998
 21
35.908799999999999
 31
0.0
  0
LINE
  5
1D0
  8
_________2
 62
     7
 10
84.549700000000016
 20
9.4089600000000004
 30
0.0
 11
84.549700000000016
 21
35.908799999999999
 31
0.0
  0
LINE
  5
1D1
  8
_________2
 62
     7
 10
103.55
 20
-4.0910799999999998
 30
0.0
 11
103.55
 21
35.908799999999999
 31
0.0
  0
LINE
  5
1D2
  8
_________2
 62
     7
 10
28.549299999999992
 20
9.4089600000000004
 30
0.0
 11
28.549299999999992
 21
23.409199999999998
 31
0.0
  0
LINE
  5
1D3
  8
_________2
 62
     7
 10
17.049499999999998
 20
9.4089600000000004
 30
0.0
 11
103.55
 21
9.4089600000000004
 31
0.0
  0
LINE
  5
1D4
  8
_________2
 62
     7
 10
17.049499999999998
 20
23.409199999999998
 30
0.0
 11
103.55
 21
23.409199999999998
 31
0.0
  0
LINE
  5
1D5
  8
_________2
 62
     7
 10
103.55
 20
15.9085
 30
0.0
 11
183.55099999999999
 21
15.9085
 31
0.0
  0
LINE
  5
1D6
  8
_________2
 62
     7
 10
17.049499999999998
 20
35.908799999999999
 30
0.0
 11
183.55099999999999
 21
35.908799999999999
 31
0.0
  0
ENDSEC
  0
EOF
