  0
SECTION
  2
HEADER
  9
$ACADVER
  1
AC1009
  9
$INSBASE
 10
0.0
 20
0.0
 30
0.0
  9
$EXTMIN
 10
0.238058
 20
0.4482100000000001
 30
0.0
  9
$EXTMAX
 10
210.24000000000001
 20
297.44999999999987
 30
0.0
  9
$LIMMIN
 10
0.0
 20
0.0
  9
$LIMMAX
 10
12.0
 20
9.0
  9
$ORTHOMODE
 70
     0
  9
$REGENMODE
 70
     1
  9
$FILLMODE
 70
     1
  9
$QTEXTMODE
 70
     0
  9
$MIRRTEXT
 70
     1
  9
$DRAGMODE
 70
     2
  9
$LTSCALE
 40
1.0
  9
$OSMODE
 70
    37
  9
$ATTMODE
 70
     1
  9
$TEXTSIZE
 40
0.0
  9
$TRACEWID
 40
0.05
  9
$TEXTSTYLE
  7
STANDARD
  9
$CLAYER
  8
0
  9
$CELTYPE
  6
CONTINUOUS
  9
$CECOLOR
 62
   256
  9
$DIMSCALE
 40
1.0
  9
$DIMASZ
 40
0.18
  9
$DIMEXO
 40
0.0625
  9
$DIMDLI
 40
0.38
  9
$DIMRND
 40
0.0
  9
$DIMDLE
 40
0.0
  9
$DIMEXE
 40
0.18
  9
$DIMTP
 40
0.0
  9
$DIMTM
 40
0.0
  9
$DIMTXT
 40
0.18
  9
$DIMCEN
 40
0.09
  9
$DIMTSZ
 40
0.0
  9
$DIMTOL
 70
     0
  9
$DIMLIM
 70
     0
  9
$DIMTIH
 70
     1
  9
$DIMTOH
 70
     1
  9
$DIMSE1
 70
     0
  9
$DIMSE2
 70
     0
  9
$DIMTAD
 70
     0
  9
$DIMZIN
 70
     0
  9
$DIMBLK
  1

  9
$DIMASO
 70
     1
  9
$DIMSHO
 70
     1
  9
$DIMPOST
  1

  9
$DIMAPOST
  1

  9
$DIMALT
 70
     0
  9
$DIMALTD
 70
     2
  9
$DIMALTF
 40
25.399999999999999
  9
$DIMLFAC
 40
1.0
  9
$DIMTOFL
 70
     0
  9
$DIMTVP
 40
0.0
  9
$DIMTIX
 70
     0
  9
$DIMSOXD
 70
     0
  9
$DIMSAH
 70
     0
  9
$DIMBLK1
  1

  9
$DIMBLK2
  1

  9
$DIMSTYLE
  2
STANDARD
  9
$DIMCLRD
 70
     0
  9
$DIMCLRE
 70
     0
  9
$DIMCLRT
 70
     0
  9
$DIMTFAC
 40
1.0
  9
$DIMGAP
 40
0.09
  9
$LUNITS
 70
     2
  9
$LUPREC
 70
     4
  9
$SKETCHINC
 40
0.1
  9
$FILLETRAD
 40
0.0
  9
$AUNITS
 70
     0
  9
$AUPREC
 70
     0
  9
$MENU
  1
.
  9
$ELEVATION
 40
0.0
  9
$PELEVATION
 40
0.0
  9
$THICKNESS
 40
0.0
  9
$LIMCHECK
 70
     0
  9
$BLIPMODE
 70
     0
  9
$CHAMFERA
 40
0.0
  9
$CHAMFERB
 40
0.0
  9
$SKPOLY
 70
     0
  9
$TDCREATE
 40
2444972.375
  9
$TDUPDATE
 40
2456644.2480264688
  9
$TDINDWG
 40
0.0000052431
  9
$TDUSRTIMER
 40
0.0000052431
  9
$USRTIMER
 70
     1
  9
$ANGBASE
 50
0.0
  9
$ANGDIR
 70
     0
  9
$PDMODE
 70
     0
  9
$PDSIZE
 40
0.0
  9
$PLINEWID
 40
0.0
  9
$COORDS
 70
     1
  9
$SPLFRAME
 70
     0
  9
$SPLINETYPE
 70
     6
  9
$SPLINESEGS
 70
     8
  9
$ATTDIA
 70
     0
  9
$ATTREQ
 70
     1
  9
$HANDLING
 70
     1
  9
$HANDSEED
  5
154
  9
$SURFTAB1
 70
     6
  9
$SURFTAB2
 70
     6
  9
$SURFTYPE
 70
     6
  9
$SURFU
 70
     6
  9
$SURFV
 70
     6
  9
$UCSNAME
  2

  9
$UCSORG
 10
0.0
 20
0.0
 30
0.0
  9
$UCSXDIR
 10
1.0
 20
0.0
 30
0.0
  9
$UCSYDIR
 10
0.0
 20
1.0
 30
0.0
  9
$PUCSNAME
  2

  9
$PUCSORG
 10
0.0
 20
0.0
 30
0.0
  9
$PUCSXDIR
 10
1.0
 20
0.0
 30
0.0
  9
$PUCSYDIR
 10
0.0
 20
1.0
 30
0.0
  9
$USERI1
 70
     0
  9
$USERI2
 70
     0
  9
$USERI3
 70
     0
  9
$USERI4
 70
     0
  9
$USERI5
 70
     0
  9
$USERR1
 40
0.0
  9
$USERR2
 40
0.0
  9
$USERR3
 40
0.0
  9
$USERR4
 40
0.0
  9
$USERR5
 40
0.0
  9
$WORLDVIEW
 70
     1
  9
$SHADEDGE
 70
     3
  9
$SHADEDIF
 70
    70
  9
$TILEMODE
 70
     1
  9
$MAXACTVP
 70
    48
  9
$PLIMCHECK
 70
     0
  9
$PEXTMIN
 10
1.0000000000000000E+020
 20
1.0000000000000000E+020
 30
1.0000000000000000E+020
  9
$PEXTMAX
 10
-1.0000000000000000E+020
 20
-1.0000000000000000E+020
 30
-1.0000000000000000E+020
  9
$PLIMMIN
 10
0.0
 20
0.0
  9
$PLIMMAX
 10
12.0
 20
9.0
  9
$UNITMODE
 70
     0
  9
$VISRETAIN
 70
     1
  9
$PLINEGEN
 70
     0
  9
$PSLTSCALE
 70
     1
  0
ENDSEC
  0
SECTION
  2
TABLES
  0
TABLE
  2
VPORT
 70
     2
  0
VPORT
  2
*ACTIVE
 70
     0
 10
0.0
 20
0.0
 11
1.0
 21
1.0
 12
206.97982146115791
 22
148.72499999999991
 13
0.0
 23
0.0
 14
1.0
 24
1.0
 15
0.0
 25
0.0
 16
0.0
 26
0.0
 36
1.0
 17
0.0
 27
0.0
 37
0.0
 40
299.90488308115528
 41
2.2894736842105261
 42
50.0
 43
0.0
 44
0.0
 50
0.0
 51
0.0
 71
     0
 72
   100
 73
     1
 74
     1
 75
     0
 76
     0
 77
     0
 78
     0
  0
ENDTAB
  0
TABLE
  2
LTYPE
 70
     3
  0
LTYPE
  2
CONTINUOUS
 70
     0
  3
Solid line
 72
    65
 73
     0
 40
0.0
  0
LTYPE
  2
AIGENLINE001
 70
     0
  3
generate AI->DXF Converter
 72
    65
 73
     4
 40
5.8561449999999988
 49
3.5278
 49
-0.776115
 49
0.776115
 49
-0.776115
  0
LTYPE
  2
AIGENLINE002
 70
     0
  3
generate AI->DXF Converter
 72
    65
 73
     2
 40
1.5522299999999991
 49
0.776115
 49
-0.776115
  0
ENDTAB
  0
TABLE
  2
LAYER
 70
     2
  0
LAYER
  2
0
 70
     0
 62
     7
  6
CONTINUOUS
  0
LAYER
  2
_________2
 70
     0
 62
     7
  6
CONTINUOUS
  0
ENDTAB
  0
TABLE
  2
STYLE
 70
     1
  0
STYLE
  2
STANDARD
 70
     0
 40
0.0
 41
0.0
 50
0.0
 71
     0
 42
0.0
  3
TXT
  4
EXTFONT.SHX
  0
ENDTAB
  0
TABLE
  2
VIEW
 70
     0
  0
ENDTAB
  0
TABLE
  2
UCS
 70
     0
  0
ENDTAB
  0
TABLE
  2
APPID
 70
     1
  0
APPID
  2
ACAD
 70
     0
  0
ENDTAB
  0
TABLE
  2
DIMSTYLE
 70
     1
  0
DIMSTYLE
  2
STANDARD
 70
     0
  3

  4

  5

  6

  7

 40
1.0
 41
0.18
 42
0.0625
 43
0.38
 44
0.18
 45
0.0
 46
0.0
 47
0.0
 48
0.0
140
0.18
141
0.09
142
0.0
143
25.399999999999999
144
1.0
145
0.0
146
1.0
147
0.09
 71
     0
 72
     0
 73
     1
 74
     1
 75
     0
 76
     0
 77
     0
 78
     0
170
     0
171
     2
172
     0
173
     0
174
     0
175
     0
176
     0
177
     0
178
     0
  0
ENDTAB
  0
ENDSEC
  0
SECTION
  2
BLOCKS
  0
BLOCK
  8
0
  2
$MODEL_SPACE
 70
     0
 10
0.0
 20
0.0
 30
0.0
  3
$MODEL_SPACE
  1

  0
ENDBLK
  5
1A
  8
0
  0
BLOCK
 67
     1
  8
0
  2
$PAPER_SPACE
 70
     0
 10
0.0
 20
0.0
 30
0.0
  3
$PAPER_SPACE
  1

  0
ENDBLK
  5
17
 67
     1
  8
0
  0
ENDSEC
  0
SECTION
  2
ENTITIES
  0
TEXT
  5
23
  8
0
 62
     7
 10
129.5088211802213
 20
217.07182118022129
 30
0.0
 40
3.0923400000000001
  1
%%c315
 50
45.0
 41
0.5
 72
     1
 11
131.33099999999999
 21
218.89400000000001
 31
0.0
  0
TEXT
  5
24
  8
0
 62
     7
 10
131.91475999999989
 20
188.684
 30
0.0
 40
3.0923400000000001
  1
カウンター切込寸法
 41
0.5
 72
     1
 11
140.16099999999989
 21
188.684
 31
0.0
  0
TEXT
  5
25
  8
0
 62
     7
 10
104.71299999999989
 20
125.0212199999999
 30
0.0
 40
3.0923400000000001
  1
15
 50
90.0
 41
0.5
 72
     1
 11
104.71299999999989
 21
126.05200000000001
 31
0.0
  0
TEXT
  5
26
  8
0
 62
     7
 10
176.05199999999999
 20
108.69813499999999
 30
0.0
 40
3.0923400000000001
  1
195
 50
90.0
 41
0.5
 72
     1
 11
176.05199999999999
 21
110.502
 31
0.0
  0
TEXT
  5
27
  8
0
 62
     7
 10
134.965
 20
113.334135
 30
0.0
 40
3.0923400000000001
  1
148
 50
90.0
 41
0.5
 72
     1
 11
134.965
 21
115.13799999999991
 31
0.0
  0
TEXT
  5
28
  8
0
 62
     7
 10
151.12135499999999
 20
84.587299999999999
 30
0.0
 40
3.0923400000000001
  1
167.5
 41
0.5
 72
     1
 11
153.95599999999999
 21
84.587299999999999
 31
0.0
  0
TEXT
  5
29
  8
0
 62
     7
 10
63.405140000000003
 20
138.6109999999999
 30
0.0
 40
3.0923400000000001
  1
335
 41
0.5
 72
     1
 11
65.466700000000003
 21
138.6109999999999
 31
0.0
  0
TEXT
  5
2A
  8
0
 62
     7
 10
62.632055000000001
 20
177.15199999999999
 30
0.0
 40
3.0923400000000001
  1
%%c335
 41
0.5
 72
     1
 11
65.466700000000003
 21
177.15199999999999
 31
0.0
  0
TEXT
  5
2B
  8
0
 62
     7
 10
62.889749999999999
 20
186.57799999999989
 30
0.0
 40
3.0923400000000001
  1
%%c271
 41
0.5
 72
     1
 11
65.466700000000003
 21
186.57799999999989
 31
0.0
  0
TEXT
  5
2C
  8
0
 62
     7
 10
73.311440000000005
 20
233.0979999999999
 30
0.0
 40
3.0923400000000001
  1
%%c46
 41
0.5
 72
     1
 11
75.373000000000005
 21
233.0979999999999
 31
0.0
  0
TEXT
  5
2D
  8
0
 62
     7
 10
138.09943999999999
 20
149.41599999999991
 30
0.0
 40
3.0923400000000001
  1
335
 41
0.5
 72
     1
 11
140.16099999999989
 21
149.41599999999991
 31
0.0
  0
TEXT
  5
2E
  8
0
 62
     7
 10
137.7061349999999
 20
139.01799999999989
 30
0.0
 40
3.0923400000000001
  1
271
 41
0.5
 72
     1
 11
139.50999999999999
 21
139.01799999999989
 31
0.0
  0
TEXT
  5
2F
  8
0
 62
     7
 10
113.941525
 20
139.01799999999989
 30
0.0
 40
3.0923400000000001
  1
32
 41
0.5
 72
     1
 11
115.23
 21
139.01799999999989
 31
0.0
  0
TEXT
  5
30
  8
0
 62
     7
 10
163.96152499999999
 20
139.01799999999989
 30
0.0
 40
3.0923400000000001
  1
32
 41
0.5
 72
     1
 11
165.25
 21
139.01799999999989
 31
0.0
  0
ARC
  5
31
  8
0
 62
     7
 10
144.349073
 20
96.502181000000007
 30
0.0
 40
0.355017
 50
100.2353049999999
 51
178.43776800000001
  0
ARC
  5
32
  8
0
 62
     7
 10
144.42212900000001
 20
100.03206899999989
 30
0.0
 40
0.772389
 50
270.20021299999991
 51
311.236175
  0
ARC
  5
33
  8
0
 62
     7
 10
163.5984399999999
 20
126.5931719999999
 30
0.0
 40
0.8646219999999999
 50
91.974115999999995
 51
176.29412400000001
  0
ARC
  5
34
  8
0
 62
     7
 10
129.12693899999991
 20
127.39279999999989
 30
0.0
 40
33.616915999999989
 50
346.80328399999991
 51
358.73228
  0
ARC
  5
35
  8
0
 62
     7
 10
134.9245139999999
 20
126.222979
 30
0.0
 40
27.705994
 50
333.046764
 51
346.42146999999989
  0
ARC
  5
36
  8
0
 62
     7
 10
139.02297799999999
 20
124.3284159999999
 30
0.0
 40
23.194597000000002
 50
316.441868
 51
332.62950599999999
  0
ARC
  5
37
  8
0
 62
     7
 10
141.04495899999989
 20
122.655861
 30
0.0
 40
20.577575
 50
285.11566299999993
 51
315.93714399999999
  0
ARC
  5
38
  8
0
 62
     7
 10
134.04606100000001
 20
122.413419
 30
0.0
 40
32.599732000000003
 50
342.835891
 51
353.11748499999987
  0
ARC
  5
39
  8
0
 62
     7
 10
140.45085800000001
 20
120.6316409999999
 30
0.0
 40
25.955041000000001
 50
327.85443199999992
 51
342.4215529999999
  0
ARC
  5
3A
  8
0
 62
     7
 10
142.66892399999989
 20
119.4687679999999
 30
0.0
 40
23.45909
 50
303.63389799999999
 51
327.37677599999989
  0
ARC
  5
3B
  8
0
 62
     7
 10
140.18373500000001
 20
122.89778200000001
 30
0.0
 40
27.691092999999999
 50
293.970147
 51
303.98539399999993
  0
ARC
  5
3C
  8
0
 62
     7
 10
137.5210129999999
 20
128.49750299999999
 30
0.0
 40
33.890006999999997
 50
286.25890600000002
 51
294.23749800000002
  0
ARC
  5
3D
  8
0
 62
     7
 10
135.7521659999999
 20
133.9143929999999
 30
0.0
 40
39.585910999999989
 50
285.62004999999988
 51
286.52159799999993
  0
ARC
  5
3E
  8
0
 62
     7
 10
139.890525
 20
121.669172
 30
0.0
 40
25.467558
 50
310.85096099999998
 51
352.86717599999992
  0
ARC
  5
3F
  8
0
 62
     7
 10
140.6751889999999
 20
121.220178
 30
0.0
 40
24.616516000000001
 50
283.597081
 51
310.15304099999997
  0
ARC
  5
40
  8
0
 62
     7
 10
140.06910400000001
 20
123.1916659999999
 30
0.0
 40
26.675529999999991
 50
279.09551899999991
 51
283.8668909999999
  0
ARC
  5
41
  8
0
 62
     7
 10
138.20307
 20
125.44695299999999
 30
0.0
 40
26.047585000000002
 50
335.94174500000003
 51
357.08823100000001
  0
ARC
  5
42
  8
0
 62
     7
 10
137.46737999999991
 20
125.5891279999999
 30
0.0
 40
26.77786699999999
 50
317.842691
 51
336.30568599999992
  0
ARC
  5
43
  8
0
 62
     7
 10
140.549724
 20
123.0316739999999
 30
0.0
 40
22.777083999999991
 50
303.23997000000003
 51
317.40771100000001
  0
ARC
  5
44
  8
0
 62
     7
 10
142.5421429999999
 20
120.23536799999989
 30
0.0
 40
19.346626999999991
 50
284.90787199999988
 51
302.84419200000002
  0
ARC
  5
45
  8
0
 62
     7
 10
143.03576499999991
 20
118.873881
 30
0.0
 40
17.904423999999992
 50
282.99567599999989
 51
284.50227699999988
  0
ARC
  5
46
  8
0
 62
     7
 10
165.0824179999999
 20
124.09212599999999
 30
0.0
 40
0.86597
 50
92.118853000000001
 51
177.904798
  0
ARC
  5
47
  8
0
 62
     7
 10
116.7235169999999
 20
126.5931719999999
 30
0.0
 40
0.8646219999999999
 50
3.7058559999999989
 51
88.025863999999999
  0
ARC
  5
48
  8
0
 62
     7
 10
63.568379999999998
 20
125.441796
 30
0.0
 40
25.987814
 50
336.96344900000003
 51
357.09291200000001
  0
ARC
  5
49
  8
0
 62
     7
 10
62.647877000000001
 20
125.655258
 30
0.0
 40
26.91894099999999
 50
318.92676299999988
 51
337.312029
  0
ARC
  5
4A
  8
0
 62
     7
 10
65.646697000000003
 20
123.252956
 30
0.0
 40
23.080401999999999
 50
304.52912700000002
 51
318.53138100000001
  0
ARC
  5
4B
  8
0
 62
     7
 10
67.741367999999994
 20
120.442004
 30
0.0
 40
19.577767000000001
 50
286.42746499999998
 51
304.14178399999992
  0
ARC
  5
4C
  8
0
 62
     7
 10
68.334581999999983
 20
118.901067
 30
0.0
 40
17.932466999999999
 50
282.99764699999997
 51
286.00181600000002
  0
ARC
  5
4D
  8
0
 62
     7
 10
90.388533999999979
 20
124.0917339999999
 30
0.0
 40
0.8663770000000001
 50
92.143825000000007
 51
177.87982600000001
  0
ARC
  5
4E
  8
0
 62
     7
 10
72.576053000000002
 20
100.5939769999999
 30
0.0
 40
0.8596319999999998
 50
104.00878399999991
 51
178.644949
  0
LINE
  5
4F
  8
0
 62
     7
 10
71.716700000000003
 20
100.6139999999999
 30
0.0
 11
71.716700000000003
 21
94.956699999999998
 31
0.0
  0
ARC
  5
50
  8
0
 62
     7
 10
151.1902969999999
 20
127.39138699999999
 30
0.0
 40
33.612163999999993
 50
181.265511
 51
193.19616199999999
  0
ARC
  5
51
  8
0
 62
     7
 10
145.39976699999991
 20
126.22359299999989
 30
0.0
 40
27.708563999999999
 50
193.57857300000001
 51
206.95197699999991
  0
ARC
  5
52
  8
0
 62
     7
 10
141.2932459999999
 20
124.32450799999999
 30
0.0
 40
23.187929999999991
 50
207.3681709999999
 51
223.560495
  0
ARC
  5
53
  8
0
 62
     7
 10
139.2764249999999
 20
122.65554899999989
 30
0.0
 40
20.577123999999991
 50
224.06288000000001
 51
254.88566999999989
  0
ARC
  5
54
  8
0
 62
     7
 10
142.11992399999991
 20
125.44700899999999
 30
0.0
 40
26.048622999999999
 50
182.91179600000001
 51
204.057389
  0
ARC
  5
55
  8
0
 62
     7
 10
142.85536999999991
 20
125.5895129999999
 30
0.0
 40
26.778817
 50
203.69434099999989
 51
222.156599
  0
ARC
  5
56
  8
0
 62
     7
 10
139.76797499999989
 20
123.0268219999999
 30
0.0
 40
22.770769000000001
 50
222.5903339999999
 51
236.762024
  0
ARC
  5
57
  8
0
 62
     7
 10
137.77929499999991
 20
120.2347749999999
 30
0.0
 40
19.345922999999999
 50
237.15581900000001
 51
255.09315099999989
  0
ARC
  5
58
  8
0
 62
     7
 10
137.289805
 20
118.889079
 30
0.0
 40
17.920044999999998
 50
255.498695
 51
257.00401599999998
  0
ARC
  5
59
  8
0
 62
     7
 10
115.23953899999989
 20
124.09212599999999
 30
0.0
 40
0.86597
 50
2.0952000000000002
 51
87.881109999999978
  0
ARC
  5
5A
  8
0
 62
     7
 10
133.051007
 20
100.593524
 30
0.0
 40
0.8602629999999999
 50
1.3842139999999989
 51
75.947226000000001
  0
LINE
  5
5B
  8
0
 62
     7
 10
133.911
 20
100.6139999999999
 30
0.0
 11
133.911
 21
94.956699999999998
 31
0.0
  0
ARC
  5
5C
  8
0
 62
     7
 10
67.364769999999993
 20
125.44179199999989
 30
0.0
 40
25.987732000000001
 50
182.90710699999991
 51
203.0366379999999
  0
ARC
  5
5D
  8
0
 62
     7
 10
68.284986000000004
 20
125.6550999999999
 30
0.0
 40
26.918534999999999
 50
202.68798799999999
 51
221.073565
  0
ARC
  5
5E
  8
0
 62
     7
 10
65.285850999999994
 20
123.25231699999991
 30
0.0
 40
23.079442
 50
221.46862799999991
 51
235.47155799999999
  0
ARC
  5
5F
  8
0
 62
     7
 10
63.190970999999998
 20
120.440106
 30
0.0
 40
19.575649999999989
 50
235.85747499999991
 51
253.573927
  0
ARC
  5
60
  8
0
 62
     7
 10
62.599235
 20
118.903003
 30
0.0
 40
17.934445999999991
 50
253.998591
 51
257.00247899999999
  0
ARC
  5
61
  8
0
 62
     7
 10
40.545096000000001
 20
124.09213799999991
 30
0.0
 40
0.8659639999999998
 50
2.094408
 51
87.870056999999989
  0
LINE
  5
62
  8
0
 62
     7
 10
39.760300000000001
 20
138.37700000000001
 30
0.0
 11
37.549900000000001
 21
137.78399999999991
 31
0.0
  0
LINE
  5
63
  8
0
 62
     7
 10
37.549900000000001
 20
137.78399999999991
 30
0.0
 11
39.760300000000001
 21
137.19200000000001
 31
0.0
  0
LINE
  5
64
  8
0
 62
     7
 10
39.760300000000001
 20
137.19200000000001
 30
0.0
 11
39.760300000000001
 21
138.37700000000001
 31
0.0
  0
LINE
  5
65
  8
0
 62
     7
 10
91.173100000000005
 20
137.20699999999991
 30
0.0
 11
93.383499999999998
 21
137.79900000000001
 31
0.0
  0
LINE
  5
66
  8
0
 62
     7
 10
93.383499999999998
 20
137.79900000000001
 30
0.0
 11
91.173100000000005
 21
138.39099999999991
 31
0.0
  0
LINE
  5
67
  8
0
 62
     7
 10
91.173100000000005
 20
138.39099999999991
 30
0.0
 11
91.173100000000005
 21
137.20699999999991
 31
0.0
  0
LINE
  5
68
  8
0
 62
     7
 10
37.549900000000001
 20
137.792
 30
0.0
 11
93.383499999999998
 21
137.792
 31
0.0
  0
LINE
  5
69
  8
0
 62
     7
 10
93.383499999999998
 20
127.7979999999999
 30
0.0
 11
93.383499999999998
 21
138.50200000000001
 31
0.0
  0
LINE
  5
6A
  8
0
 62
     7
 10
37.549900000000001
 20
127.7979999999999
 30
0.0
 11
37.549900000000001
 21
138.50200000000001
 31
0.0
  0
LINE
  5
6B
  8
0
 62
     7
 10
142.3709999999999
 20
84.193799999999996
 30
0.0
 11
140.16099999999989
 21
83.601600000000005
 31
0.0
  0
LINE
  5
6C
  8
0
 62
     7
 10
140.16099999999989
 20
83.601600000000005
 30
0.0
 11
142.3709999999999
 21
83.009399999999999
 31
0.0
  0
LINE
  5
6D
  8
0
 62
     7
 10
142.3709999999999
 20
83.009399999999999
 30
0.0
 11
142.3709999999999
 21
84.193799999999996
 31
0.0
  0
LINE
  5
6E
  8
0
 62
     7
 10
165.86699999999999
 20
83.023899999999998
 30
0.0
 11
168.078
 21
83.616100000000003
 31
0.0
  0
LINE
  5
6F
  8
0
 62
     7
 10
168.078
 20
83.616100000000003
 30
0.0
 11
165.86699999999999
 21
84.208299999999994
 31
0.0
  0
LINE
  5
70
  8
0
 62
     7
 10
165.86699999999999
 20
84.208299999999994
 30
0.0
 11
165.86699999999999
 21
83.023899999999998
 31
0.0
  0
LINE
  5
71
  8
0
 62
     7
 10
140.16099999999989
 20
83.608900000000006
 30
0.0
 11
168.078
 21
83.608900000000006
 31
0.0
  0
LINE
  5
72
  8
0
 62
     7
 10
168.078
 20
123.706
 30
0.0
 11
168.078
 21
82.898799999999994
 31
0.0
  0
LINE
  5
73
  8
0
 62
     7
 10
140.16099999999989
 20
89.562399999999997
 30
0.0
 11
140.16099999999989
 21
82.898799999999994
 31
0.0
  0
LINE
  5
74
  8
0
 62
     7
 10
177.52799999999991
 20
125.247
 30
0.0
 11
176.93599999999989
 21
127.45699999999999
 31
0.0
  0
LINE
  5
75
  8
0
 62
     7
 10
176.93599999999989
 20
127.45699999999999
 30
0.0
 11
176.34399999999999
 21
125.247
 31
0.0
  0
LINE
  5
76
  8
0
 62
     7
 10
176.34399999999999
 20
125.247
 30
0.0
 11
177.52799999999991
 21
125.247
 31
0.0
  0
LINE
  5
77
  8
0
 62
     7
 10
176.358
 20
97.167500000000004
 30
0.0
 11
176.95099999999991
 21
94.956699999999998
 31
0.0
  0
LINE
  5
78
  8
0
 62
     7
 10
176.95099999999991
 20
94.956699999999998
 30
0.0
 11
177.54300000000001
 21
97.167500000000004
 31
0.0
  0
LINE
  5
79
  8
0
 62
     7
 10
177.54300000000001
 20
97.167500000000004
 30
0.0
 11
176.358
 21
97.167500000000004
 31
0.0
  0
LINE
  5
7A
  8
0
 62
     7
 10
176.9429999999999
 20
127.45699999999999
 30
0.0
 11
176.9429999999999
 21
94.956699999999998
 31
0.0
  0
LINE
  5
7B
  8
0
 62
     7
 10
177.65299999999991
 20
127.45699999999999
 30
0.0
 11
169.77999999999989
 21
127.45699999999999
 31
0.0
  0
LINE
  5
7C
  8
0
 62
     7
 10
177.65299999999991
 20
94.956699999999998
 30
0.0
 11
147.99199999999999
 21
94.956699999999998
 31
0.0
  0
LINE
  5
7D
  8
0
 62
     7
 10
105.47499999999989
 20
129.66800000000001
 30
0.0
 11
106.06699999999999
 21
127.45699999999999
 31
0.0
  0
LINE
  5
7E
  8
0
 62
     7
 10
106.06699999999999
 20
127.45699999999999
 30
0.0
 11
106.65899999999991
 21
129.66800000000001
 31
0.0
  0
LINE
  5
7F
  8
0
 62
     7
 10
106.65899999999991
 20
129.66800000000001
 30
0.0
 11
105.47499999999989
 21
129.66800000000001
 31
0.0
  0
LINE
  5
80
  8
0
 62
     7
 10
106.6449999999999
 20
122.747
 30
0.0
 11
106.05200000000001
 21
124.9579999999999
 31
0.0
  0
LINE
  5
81
  8
0
 62
     7
 10
106.05200000000001
 20
124.9579999999999
 30
0.0
 11
105.45999999999989
 21
122.747
 31
0.0
  0
LINE
  5
82
  8
0
 62
     7
 10
105.45999999999989
 20
122.747
 30
0.0
 11
106.6449999999999
 21
122.747
 31
0.0
  0
LINE
  5
83
  8
0
 62
     7
 10
106.0599999999999
 20
120.53700000000001
 30
0.0
 11
106.0599999999999
 21
131.65000000000001
 31
0.0
  0
LINE
  5
84
  8
0
 62
     7
 10
105.34999999999989
 20
124.9579999999999
 30
0.0
 11
111.246
 21
124.9579999999999
 31
0.0
  0
LINE
  5
85
  8
0
 62
     7
 10
105.34999999999989
 20
127.45699999999999
 30
0.0
 11
111.246
 21
127.45699999999999
 31
0.0
  0
LINE
  5
86
  8
0
 62
     7
 10
135.21299999999999
 20
105.001
 30
0.0
 11
135.80500000000001
 21
102.79000000000001
 31
0.0
  0
LINE
  5
87
  8
0
 62
     7
 10
135.80500000000001
 20
102.79000000000001
 30
0.0
 11
136.39699999999999
 21
105.001
 31
0.0
  0
LINE
  5
88
  8
0
 62
     7
 10
136.39699999999999
 20
105.001
 30
0.0
 11
135.21299999999999
 21
105.001
 31
0.0
  0
LINE
  5
89
  8
0
 62
     7
 10
136.3829999999999
 20
125.247
 30
0.0
 11
135.78999999999991
 21
127.45699999999999
 31
0.0
  0
LINE
  5
8A
  8
0
 62
     7
 10
135.78999999999991
 20
127.45699999999999
 30
0.0
 11
135.19799999999989
 21
125.247
 31
0.0
  0
LINE
  5
8B
  8
0
 62
     7
 10
135.19799999999989
 20
125.247
 30
0.0
 11
136.3829999999999
 21
125.247
 31
0.0
  0
LINE
  5
8C
  8
0
 62
     7
 10
135.79799999999989
 20
102.79000000000001
 30
0.0
 11
135.79799999999989
 21
127.45699999999999
 31
0.0
  0
LINE
  5
8D
  8
0
 62
     7
 10
143.99399999999989
 20
101.12299999999991
 30
0.0
 11
136.32699999999991
 21
101.12299999999991
 31
0.0
  0
LINE
  5
8E
  8
0
 62
     7
 10
143.99399999999989
 20
101.12299999999991
 30
0.0
 11
146.41099999999989
 21
102.79000000000001
 31
0.0
  0
LINE
  5
8F
  8
0
 62
     7
 10
136.32699999999991
 20
101.12299999999991
 30
0.0
 11
133.911
 21
102.79000000000001
 31
0.0
  0
LINE
  5
90
  8
0
 62
     7
 10
143.99399999999989
 20
94.957400000000007
 30
0.0
 11
143.99399999999989
 21
96.511899999999983
 31
0.0
  0
LINE
  5
91
  8
0
 62
     7
 10
143.99399999999989
 20
99.259699999999995
 30
0.0
 11
143.99399999999989
 21
101.12299999999991
 31
0.0
  0
LINE
  5
92
  8
0
 62
     7
 10
136.32699999999991
 20
94.957400000000007
 30
0.0
 11
136.32699999999991
 21
101.12299999999991
 31
0.0
  0
LINE
  5
93
  8
0
 62
     7
 10
146.41099999999989
 20
102.79000000000001
 30
0.0
 11
133.911
 21
102.79000000000001
 31
0.0
  0
LINE
  5
94
  8
0
 62
     7
 10
162.74399999999989
 20
128.5689999999999
 30
0.0
 11
162.74399999999989
 21
138.50200000000001
 31
0.0
  0
LINE
  5
95
  8
0
 62
     7
 10
117.577
 20
128.69799999999989
 30
0.0
 11
117.577
 21
138.50200000000001
 31
0.0
  0
LINE
  5
96
  8
0
 62
     7
 10
164.95500000000001
 20
138.37700000000001
 30
0.0
 11
162.74399999999989
 21
137.78399999999991
 31
0.0
  0
LINE
  5
97
  8
0
 62
     7
 10
162.74399999999989
 20
137.78399999999991
 30
0.0
 11
164.95500000000001
 21
137.19200000000001
 31
0.0
  0
LINE
  5
98
  8
0
 62
     7
 10
164.95500000000001
 20
137.19200000000001
 30
0.0
 11
164.95500000000001
 21
138.37700000000001
 31
0.0
  0
LINE
  5
99
  8
0
 62
     7
 10
114.4549999999999
 20
138.37700000000001
 30
0.0
 11
112.244
 21
137.78399999999991
 31
0.0
  0
LINE
  5
9A
  8
0
 62
     7
 10
112.244
 20
137.78399999999991
 30
0.0
 11
114.4549999999999
 21
137.19200000000001
 31
0.0
  0
LINE
  5
9B
  8
0
 62
     7
 10
114.4549999999999
 20
137.19200000000001
 30
0.0
 11
114.4549999999999
 21
138.37700000000001
 31
0.0
  0
LINE
  5
9C
  8
0
 62
     7
 10
115.366
 20
137.20699999999991
 30
0.0
 11
117.577
 21
137.79900000000001
 31
0.0
  0
LINE
  5
9D
  8
0
 62
     7
 10
117.577
 20
137.79900000000001
 30
0.0
 11
115.366
 21
138.39099999999991
 31
0.0
  0
LINE
  5
9E
  8
0
 62
     7
 10
115.366
 20
138.39099999999991
 30
0.0
 11
115.366
 21
137.20699999999991
 31
0.0
  0
LINE
  5
9F
  8
0
 62
     7
 10
160.5329999999999
 20
137.20699999999991
 30
0.0
 11
162.74399999999989
 21
137.79900000000001
 31
0.0
  0
LINE
  5
A0
  8
0
 62
     7
 10
162.74399999999989
 20
137.79900000000001
 30
0.0
 11
160.5329999999999
 21
138.39099999999991
 31
0.0
  0
LINE
  5
A1
  8
0
 62
     7
 10
160.5329999999999
 20
138.39099999999991
 30
0.0
 11
160.5329999999999
 21
137.20699999999991
 31
0.0
  0
LINE
  5
A2
  8
0
 62
     7
 10
165.86699999999999
 20
137.20699999999991
 30
0.0
 11
168.078
 21
137.79900000000001
 31
0.0
  0
LINE
  5
A3
  8
0
 62
     7
 10
168.078
 20
137.79900000000001
 30
0.0
 11
165.86699999999999
 21
138.39099999999991
 31
0.0
  0
LINE
  5
A4
  8
0
 62
     7
 10
165.86699999999999
 20
138.39099999999991
 30
0.0
 11
165.86699999999999
 21
137.20699999999991
 31
0.0
  0
LINE
  5
A5
  8
0
 62
     7
 10
112.244
 20
137.792
 30
0.0
 11
168.078
 21
137.792
 31
0.0
  0
LINE
  5
A6
  8
0
 62
     7
 10
114.4549999999999
 20
149.08000000000001
 30
0.0
 11
112.244
 21
148.48799999999989
 31
0.0
  0
LINE
  5
A7
  8
0
 62
     7
 10
112.244
 20
148.48799999999989
 30
0.0
 11
114.4549999999999
 21
147.89500000000001
 31
0.0
  0
LINE
  5
A8
  8
0
 62
     7
 10
114.4549999999999
 20
147.89500000000001
 30
0.0
 11
114.4549999999999
 21
149.08000000000001
 31
0.0
  0
LINE
  5
A9
  8
0
 62
     7
 10
165.86699999999999
 20
147.91
 30
0.0
 11
168.078
 21
148.50200000000001
 31
0.0
  0
LINE
  5
AA
  8
0
 62
     7
 10
168.078
 20
148.50200000000001
 30
0.0
 11
165.86699999999999
 21
149.09399999999991
 31
0.0
  0
LINE
  5
AB
  8
0
 62
     7
 10
165.86699999999999
 20
149.09399999999991
 30
0.0
 11
165.86699999999999
 21
147.91
 31
0.0
  0
LINE
  5
AC
  8
0
 62
     7
 10
112.244
 20
148.49499999999989
 30
0.0
 11
168.078
 21
148.49499999999989
 31
0.0
  0
LINE
  5
AD
  8
0
 62
     7
 10
168.078
 20
127.7979999999999
 30
0.0
 11
168.078
 21
149.20500000000001
 31
0.0
  0
LINE
  5
AE
  8
0
 62
     7
 10
112.244
 20
127.7979999999999
 30
0.0
 11
112.244
 21
149.20500000000001
 31
0.0
  0
LINE
  5
AF
  8
0
 62
     7
 10
146.41099999999989
 20
95.790499999999994
 30
0.0
 11
146.41099999999989
 21
94.956699999999998
 31
0.0
  0
LINE
  5
B0
  8
0
 62
     7
 10
163.61600000000001
 20
119.771
 30
0.0
 11
161.91300000000001
 21
119.95699999999999
 31
0.0
  0
LINE
  5
B1
  8
0
 62
     7
 10
164.20799999999991
 20
123.9589999999999
 30
0.0
 11
162.6989999999999
 21
124.1239999999999
 31
0.0
  0
LINE
  5
B2
  8
0
 62
     7
 10
165.16099999999989
 20
118.50700000000001
 30
0.0
 11
165.16099999999989
 21
124.9579999999999
 31
0.0
  0
LINE
  5
B3
  8
0
 62
     7
 10
166.41099999999989
 20
118.50700000000001
 30
0.0
 11
166.41099999999989
 21
124.9579999999999
 31
0.0
  0
LINE
  5
B4
  8
0
 62
     7
 10
146.41099999999989
 20
94.956699999999998
 30
0.0
 11
133.911
 21
94.956699999999998
 31
0.0
  0
LINE
  5
B5
  8
0
  6
AIGENLINE001
 62
     7
 10
140.16099999999989
 20
91.238100000000003
 30
0.0
 11
140.16099999999989
 21
131.1689999999999
 31
0.0
  0
LINE
  5
B6
  8
0
 62
     7
 10
165.578
 20
127.45699999999999
 30
0.0
 11
114.744
 21
127.45699999999999
 31
0.0
  0
ARC
  5
B7
  8
0
 62
     7
 10
165.482043
 20
124.861699
 30
0.0
 40
2.59735
 50
2.1138789999999998
 51
87.886111
  0
ARC
  5
B8
  8
0
 62
     7
 10
114.839885
 20
124.86136999999989
 30
0.0
 40
2.597677
 50
92.112960000000001
 51
177.8791149999999
  0
LINE
  5
B9
  8
0
 62
     7
 10
168.078
 20
124.9579999999999
 30
0.0
 11
166.41099999999989
 21
124.9579999999999
 31
0.0
  0
LINE
  5
BA
  8
0
 62
     7
 10
165.16099999999989
 20
124.9579999999999
 30
0.0
 11
165.05000000000001
 21
124.9579999999999
 31
0.0
  0
LINE
  5
BB
  8
0
 62
     7
 10
115.27200000000001
 20
124.9579999999999
 30
0.0
 11
112.244
 21
124.9579999999999
 31
0.0
  0
ARC
  5
BC
  8
0
 62
     7
 10
58.357135999999997
 20
100.5939869999999
 30
0.0
 40
0.8596739999999998
 50
1.3543089999999991
 51
75.977130999999986
  0
LINE
  5
BD
  8
0
 62
     7
 10
59.2166
 20
100.6139999999999
 30
0.0
 11
59.2166
 21
94.956699999999998
 31
0.0
  0
ARC
  5
BE
  8
0
  6
AIGENLINE002
 62
     7
 10
65.387077000000005
 20
121.87751299999999
 30
0.0
 40
2.1643659999999989
 50
2.1178069999999991
 51
87.891658999999976
  0
ARC
  5
BF
  8
0
  6
AIGENLINE002
 62
     7
 10
65.546631999999988
 20
121.87702899999999
 30
0.0
 40
2.16486
 50
92.115909000000002
 51
177.86984799999991
  0
ARC
  5
C0
  8
0
  6
AIGENLINE002
 62
     7
 10
65.466787999999994
 20
121.957409
 30
0.0
 40
2.08352
 50
179.997602
 51
269.99765099999991
  0
ARC
  5
C1
  8
0
  6
AIGENLINE002
 62
     7
 10
65.466529000000008
 20
121.957324
 30
0.0
 40
2.0834349999999988
 50
270.00475699999993
 51
0.004727
  0
LINE
  5
C2
  8
0
  6
AIGENLINE001
 62
     7
 10
69.055300000000003
 20
121.95699999999999
 30
0.0
 11
61.8752
 21
121.95699999999999
 31
0.0
  0
LINE
  5
C3
  8
0
 62
     7
 10
71.716700000000003
 20
94.956699999999998
 30
0.0
 11
59.2166
 21
94.956699999999998
 31
0.0
  0
LINE
  5
C4
  8
0
  6
AIGENLINE001
 62
     7
 10
65.466700000000003
 20
91.238100000000003
 30
0.0
 11
65.466700000000003
 21
131.1689999999999
 31
0.0
  0
LINE
  5
C5
  8
0
 62
     7
 10
90.883399999999995
 20
127.45699999999999
 30
0.0
 11
40.049799999999991
 21
127.45699999999999
 31
0.0
  0
ARC
  5
C6
  8
0
 62
     7
 10
90.787926999999996
 20
124.86167399999989
 30
0.0
 40
2.5973619999999991
 50
2.1144059999999998
 51
87.893480000000025
  0
ARC
  5
C7
  8
0
 62
     7
 10
40.145623000000001
 20
124.861535
 30
0.0
 40
2.5975130000000002
 50
92.113396999999992
 51
177.8826249999999
  0
LINE
  5
C8
  8
0
 62
     7
 10
93.383499999999998
 20
124.9579999999999
 30
0.0
 11
37.549900000000001
 21
124.9579999999999
 31
0.0
  0
LINE
  5
C9
  8
0
 62
     7
 10
122.74299999999999
 20
208.87700000000001
 30
0.0
 11
121.5989999999999
 21
206.89500000000001
 31
0.0
  0
LINE
  5
CA
  8
0
 62
     7
 10
121.5989999999999
 20
206.89500000000001
 30
0.0
 11
123.581
 21
208.03999999999999
 31
0.0
  0
LINE
  5
CB
  8
0
 62
     7
 10
123.581
 20
208.03999999999999
 30
0.0
 11
122.74299999999999
 21
208.87700000000001
 31
0.0
  0
LINE
  5
CC
  8
0
 62
     7
 10
157.57799999999989
 20
242.03700000000001
 30
0.0
 11
158.72200000000001
 21
244.01900000000001
 31
0.0
  0
LINE
  5
CD
  8
0
 62
     7
 10
158.72200000000001
 20
244.01900000000001
 30
0.0
 11
156.74000000000001
 21
242.87499999999989
 31
0.0
  0
LINE
  5
CE
  8
0
 62
     7
 10
156.74000000000001
 20
242.87499999999989
 30
0.0
 11
157.57799999999989
 21
242.03700000000001
 31
0.0
  0
LINE
  5
CF
  8
0
 62
     7
 10
121.5989999999999
 20
206.89500000000001
 30
0.0
 11
158.72200000000001
 21
244.01900000000001
 31
0.0
  0
LINE
  5
D0
  8
0
  6
AIGENLINE001
 62
     7
 10
140.16099999999989
 20
194.01300000000001
 30
0.0
 11
140.16099999999989
 21
257.28899999999999
 31
0.0
  0
LINE
  5
D1
  8
0
  6
AIGENLINE001
 62
     7
 10
171.863
 20
225.45699999999999
 30
0.0
 11
108.2
 21
225.45699999999999
 31
0.0
  0
ARC
  5
D2
  8
0
 62
     7
 10
140.1608019999999
 20
225.45725400000001
 30
0.0
 40
26.250075999999989
 50
0.00001
 51
89.999980000000008
  0
ARC
  5
D3
  8
0
 62
     7
 10
140.16063899999989
 20
225.45708200000001
 30
0.0
 40
26.250247999999999
 50
89.999623999999983
 51
179.999594
  0
ARC
  5
D4
  8
0
 62
     7
 10
140.16071599999989
 20
225.4573399999999
 30
0.0
 40
26.250325
 50
180.00019800000001
 51
270.00020799999987
  0
ARC
  5
D5
  8
0
 62
     7
 10
140.16071599999989
 20
225.457177
 30
0.0
 40
26.250162
 50
270.00020799999987
 51
0.000178
  0
LINE
  5
D6
  8
0
 62
     7
 10
93.383499999999998
 20
218.393
 30
0.0
 11
93.383499999999998
 21
175.3899999999999
 31
0.0
  0
LINE
  5
D7
  8
0
 62
     7
 10
91.173100000000005
 20
175.5149999999999
 30
0.0
 11
93.383499999999998
 21
176.107
 31
0.0
  0
LINE
  5
D8
  8
0
 62
     7
 10
93.383499999999998
 20
176.107
 30
0.0
 11
91.173100000000005
 21
176.69900000000001
 31
0.0
  0
LINE
  5
D9
  8
0
 62
     7
 10
91.173100000000005
 20
176.69900000000001
 30
0.0
 11
91.173100000000005
 21
175.5149999999999
 31
0.0
  0
LINE
  5
DA
  8
0
 62
     7
 10
39.760300000000001
 20
176.68499999999989
 30
0.0
 11
37.549900000000001
 21
176.0929999999999
 31
0.0
  0
LINE
  5
DB
  8
0
 62
     7
 10
37.549900000000001
 20
176.0929999999999
 30
0.0
 11
39.760300000000001
 21
175.5
 31
0.0
  0
LINE
  5
DC
  8
0
 62
     7
 10
39.760300000000001
 20
175.5
 30
0.0
 11
39.760300000000001
 21
176.68499999999989
 31
0.0
  0
LINE
  5
DD
  8
0
 62
     7
 10
93.383499999999998
 20
176.09999999999991
 30
0.0
 11
37.549900000000001
 21
176.09999999999991
 31
0.0
  0
LINE
  5
DE
  8
0
 62
     7
 10
37.549900000000001
 20
218.393
 30
0.0
 11
37.549900000000001
 21
175.3899999999999
 31
0.0
  0
LINE
  5
DF
  8
0
 62
     7
 10
85.839600000000004
 20
184.45699999999999
 30
0.0
 11
88.050100000000015
 21
185.05000000000001
 31
0.0
  0
LINE
  5
E0
  8
0
 62
     7
 10
88.050100000000015
 20
185.05000000000001
 30
0.0
 11
85.839600000000004
 21
185.64199999999991
 31
0.0
  0
LINE
  5
E1
  8
0
 62
     7
 10
85.839600000000004
 20
185.64199999999991
 30
0.0
 11
85.839600000000004
 21
184.45699999999999
 31
0.0
  0
LINE
  5
E2
  8
0
 62
     7
 10
45.093499999999999
 20
185.62700000000001
 30
0.0
 11
42.883099999999999
 21
185.03499999999991
 31
0.0
  0
LINE
  5
E3
  8
0
 62
     7
 10
42.883099999999999
 20
185.03499999999991
 30
0.0
 11
45.093499999999999
 21
184.4429999999999
 31
0.0
  0
LINE
  5
E4
  8
0
 62
     7
 10
45.093499999999999
 20
184.4429999999999
 30
0.0
 11
45.093499999999999
 21
185.62700000000001
 31
0.0
  0
LINE
  5
E5
  8
0
 62
     7
 10
88.050100000000015
 20
185.04199999999989
 30
0.0
 11
42.883099999999999
 21
185.04199999999989
 31
0.0
  0
LINE
  5
E6
  8
0
 62
     7
 10
88.050100000000015
 20
218.988
 30
0.0
 11
88.050100000000015
 21
184.33199999999999
 31
0.0
  0
LINE
  5
E7
  8
0
 62
     7
 10
42.883099999999999
 20
218.988
 30
0.0
 11
42.883099999999999
 21
184.33199999999999
 31
0.0
  0
LINE
  5
E8
  8
0
 62
     7
 10
78.662199999999999
 20
231.91399999999999
 30
0.0
 11
71.923400000000001
 21
231.91399999999999
 31
0.0
  0
LINE
  5
E9
  8
0
 62
     7
 10
69.321399999999997
 20
230.15000000000001
 30
0.0
 11
68.177099999999996
 21
228.16800000000001
 31
0.0
  0
LINE
  5
EA
  8
0
 62
     7
 10
68.177099999999996
 20
228.16800000000001
 30
0.0
 11
70.159099999999995
 21
229.31200000000001
 31
0.0
  0
LINE
  5
EB
  8
0
 62
     7
 10
70.159099999999995
 20
229.31200000000001
 30
0.0
 11
69.321399999999997
 21
230.15000000000001
 31
0.0
  0
LINE
  5
EC
  8
0
 62
     7
 10
61.611800000000002
 20
220.76499999999999
 30
0.0
 11
62.756100000000004
 21
222.74700000000001
 31
0.0
  0
LINE
  5
ED
  8
0
 62
     7
 10
62.756100000000004
 20
222.74700000000001
 30
0.0
 11
60.774099999999997
 21
221.60299999999989
 31
0.0
  0
LINE
  5
EE
  8
0
 62
     7
 10
60.774099999999997
 20
221.60299999999989
 30
0.0
 11
61.611800000000002
 21
220.76499999999999
 31
0.0
  0
LINE
  5
EF
  8
0
 62
     7
 10
56.75
 20
216.7409999999999
 30
0.0
 11
71.923400000000001
 21
231.91399999999999
 31
0.0
  0
LINE
  5
F0
  8
0
  6
AIGENLINE001
 62
     7
 10
65.466700000000003
 20
194.01300000000001
 30
0.0
 11
65.466700000000003
 21
257.28899999999999
 31
0.0
  0
LINE
  5
F1
  8
0
  6
AIGENLINE001
 62
     7
 10
97.168999999999997
 20
225.45699999999999
 30
0.0
 11
33.506
 21
225.45699999999999
 31
0.0
  0
ARC
  5
F2
  8
0
 62
     7
 10
65.466787999999994
 20
225.45717200000001
 30
0.0
 40
3.8332969999999991
 50
0.001297
 51
90.001266999999999
  0
ARC
  5
F3
  8
0
 62
     7
 10
65.466616999999999
 20
225.45717200000001
 30
0.0
 40
3.8332969999999991
 50
89.998712999999995
 51
179.99868299999989
  0
ARC
  5
F4
  8
0
 62
     7
 10
65.466701
 20
225.457258
 30
0.0
 40
3.8333809999999988
 50
179.99996999999991
 51
270.00002000000001
  0
ARC
  5
F5
  8
0
 62
     7
 10
65.466701
 20
225.45725999999999
 30
0.0
 40
3.8333829999999991
 50
270.00002000000001
 51
359.99998999999991
  0
ARC
  5
F6
  8
0
 62
     7
 10
65.466701
 20
225.457258
 30
0.0
 40
6.249960999999999
 50
0.00001
 51
89.999980000000008
  0
ARC
  5
F7
  8
0
 62
     7
 10
65.466616999999999
 20
225.45717200000001
 30
0.0
 40
6.2500470000000004
 50
89.999209999999977
 51
179.99918099999991
  0
ARC
  5
F8
  8
0
 62
     7
 10
65.466701
 20
225.457258
 30
0.0
 40
6.2501309999999988
 50
179.99996999999991
 51
270.00002000000001
  0
ARC
  5
F9
  8
0
 62
     7
 10
65.466615000000004
 20
225.45717400000001
 30
0.0
 40
6.2500470000000004
 50
270.000809
 51
0.00078
  0
ARC
  5
FA
  8
0
 62
     7
 10
65.466697999999994
 20
225.45725499999989
 30
0.0
 40
22.583437
 50
0.00001
 51
89.999980000000008
  0
ARC
  5
FB
  8
0
 62
     7
 10
65.466619999999992
 20
225.45716899999999
 30
0.0
 40
22.583522999999989
 50
89.999780999999984
 51
179.99975199999989
  0
ARC
  5
FC
  8
0
 62
     7
 10
65.466697999999994
 20
225.45725499999989
 30
0.0
 40
22.583601000000002
 50
179.99996999999991
 51
270.00002000000001
  0
ARC
  5
FD
  8
0
 62
     7
 10
65.466611999999984
 20
225.457177
 30
0.0
 40
22.583522999999989
 50
270.00023799999991
 51
0.000209
  0
ARC
  5
FE
  8
0
 62
     7
 10
65.466696999999996
 20
225.45725400000001
 30
0.0
 40
27.916823999999998
 50
0.00001
 51
89.999980000000008
  0
ARC
  5
FF
  8
0
 62
     7
 10
65.466706999999985
 20
225.45725400000001
 30
0.0
 40
27.916823999999998
 50
90.0
 51
179.99996999999991
  0
ARC
  5
100
  8
0
 62
     7
 10
65.466782999999992
 20
225.457168
 30
0.0
 40
27.916899999999998
 50
179.9997929999999
 51
269.99984299999988
  0
ARC
  5
101
  8
0
 62
     7
 10
65.466611
 20
225.45717799999991
 30
0.0
 40
27.916910000000001
 50
270.00019700000001
 51
0.000167
  0
LINE
  5
102
  8
0
 62
     7
 10
147.06200000000001
 20
101.428
 30
0.0
 11
144.93100000000001
 21
99.451200000000014
 31
0.0
  0
LINE
  5
103
  8
0
 62
     7
 10
143.99399999999989
 20
99.259699999999995
 30
0.0
 11
144.42500000000001
 21
99.259699999999995
 31
0.0
  0
LINE
  5
104
  8
_________2
 62
     7
 10
210.24000000000001
 20
148.93100000000001
 30
0.0
 11
188.49000000000001
 21
148.93100000000001
 31
0.0
  0
LINE
  5
105
  8
_________2
 62
     7
 10
105.2389999999999
 20
17.428499999999989
 30
0.0
 11
105.2389999999999
 21
0.4482100000000001
 31
0.0
  0
LINE
  5
106
  8
_________2
 62
     7
 10
105.2389999999999
 20
297.44999999999987
 30
0.0
 11
105.2389999999999
 21
280.42999999999989
 31
0.0
  0
LINE
  5
107
  8
_________2
 62
     7
 10
21.988499999999991
 20
148.93100000000001
 30
0.0
 11
0.238058
 21
148.93100000000001
 31
0.0
  0
LINE
  5
108
  8
_________2
 62
     7
 10
81.679900000000004
 20
51.324300000000001
 30
0.0
 11
79.493700000000004
 21
51.324300000000001
 31
0.0
  0
LINE
  5
109
  8
_________2
 62
     7
 10
82.172600000000017
 20
51.324300000000001
 30
0.0
 11
81.920400000000001
 21
51.324300000000001
 31
0.0
  0
LINE
  5
10A
  8
_________2
 62
     7
 10
82.665199999999984
 20
51.324300000000001
 30
0.0
 11
85.590100000000007
 21
51.324300000000001
 31
0.0
  0
LINE
  5
10B
  8
_________2
 62
     7
 10
82.172600000000017
 20
51.324300000000001
 30
0.0
 11
82.424800000000005
 21
51.324300000000001
 31
0.0
  0
LINE
  5
10C
  8
_________2
 62
     7
 10
75.776399999999995
 20
51.324300000000001
 30
0.0
 11
73.589399999999998
 21
51.324300000000001
 31
0.0
  0
LINE
  5
10D
  8
_________2
 62
     7
 10
76.2684
 20
51.324300000000001
 30
0.0
 11
76.016900000000007
 21
51.324300000000001
 31
0.0
  0
LINE
  5
10E
  8
_________2
 62
     7
 10
76.2684
 20
51.817
 30
0.0
 11
76.2684
 21
54.003900000000002
 31
0.0
  0
LINE
  5
10F
  8
_________2
 62
     7
 10
76.2684
 20
51.324300000000001
 30
0.0
 11
76.2684
 21
51.576500000000003
 31
0.0
  0
LINE
  5
110
  8
_________2
 62
     7
 10
76.76100000000001
 20
51.324300000000001
 30
0.0
 11
78.947999999999993
 21
51.324300000000001
 31
0.0
  0
LINE
  5
111
  8
_________2
 62
     7
 10
76.2684
 20
51.324300000000001
 30
0.0
 11
76.520499999999998
 21
51.324300000000001
 31
0.0
  0
LINE
  5
112
  8
_________2
 62
     7
 10
76.2684
 20
50.832399999999993
 30
0.0
 11
76.2684
 21
48.645400000000002
 31
0.0
  0
LINE
  5
113
  8
_________2
 62
     7
 10
76.2684
 20
51.324300000000001
 30
0.0
 11
76.2684
 21
51.072800000000001
 31
0.0
  0
LINE
  5
114
  8
_________2
 62
     7
 10
79.979399999999984
 20
50.104799999999997
 30
0.0
 11
85.157399999999996
 21
49.240000000000002
 31
0.0
  0
LINE
  5
115
  8
_________2
 62
     7
 10
79.979399999999984
 20
52.543900000000001
 30
0.0
 11
85.157399999999996
 21
53.409300000000002
 31
0.0
  0
LINE
  5
116
  8
_________2
 62
     7
 10
85.157399999999996
 20
49.240000000000002
 30
0.0
 11
85.157399999999996
 21
53.409300000000002
 31
0.0
  0
LINE
  5
117
  8
_________2
 62
     7
 10
79.979399999999984
 20
50.104799999999997
 30
0.0
 11
79.979399999999984
 21
52.543900000000001
 31
0.0
  0
ARC
  5
118
  8
_________2
 62
     7
 10
76.222110000000001
 20
51.277366999999991
 30
0.0
 40
1.2673709999999989
 50
2.1232950000000002
 51
87.909056000000007
  0
ARC
  5
119
  8
_________2
 62
     7
 10
76.315273000000005
 20
51.277400999999998
 30
0.0
 40
1.267363
 50
92.121785999999986
 51
177.878185
  0
ARC
  5
11A
  8
_________2
 62
     7
 10
76.315273000000005
 20
51.371245999999992
 30
0.0
 40
1.267363
 50
182.12181499999991
 51
267.87821400000001
  0
ARC
  5
11B
  8
_________2
 62
     7
 10
76.221461000000005
 20
51.371928999999987
 30
0.0
 40
1.2680439999999991
 50
272.11916400000001
 51
357.84848499999993
  0
ARC
  5
11C
  8
_________2
 62
     7
 10
76.268349999999984
 20
51.324323
 30
0.0
 40
2.0849849999999992
 50
0.00001
 51
89.999980000000008
  0
ARC
  5
11D
  8
_________2
 62
     7
 10
76.348388
 20
51.245001999999992
 30
0.0
 40
2.1657860000000002
 50
92.117855000000034
 51
177.90105299999991
  0
ARC
  5
11E
  8
_________2
 62
     7
 10
76.348354
 20
51.404327000000002
 30
0.0
 40
2.1657779999999991
 50
182.11700400000001
 51
267.88302499999992
  0
ARC
  5
11F
  8
_________2
 62
     7
 10
76.188378999999983
 20
51.405009999999997
 30
0.0
 40
2.1664590000000001
 50
272.11546800000002
 51
357.86560400000002
  0
TEXT
  5
120
  8
_________2
 62
     7
 10
109.5439999999999
 20
23.199100000000001
 30
0.0
 40
3.0923400000000001
  1
図番
 41
0.5
  0
LINE
  5
121
  8
_________2
 62
     7
 10
108.4889999999999
 20
27.4283
 30
0.0
 11
188.49000000000001
 21
27.4283
 31
0.0
  0
TEXT
  5
122
  8
_________2
 62
     7
 10
109.5439999999999
 20
33.198900000000002
 30
0.0
 40
3.0923400000000001
  1
品番
 41
0.5
  0
TEXT
  5
123
  8
_________2
 62
     7
 10
109.5439999999999
 20
53.337699999999998
 30
0.0
 40
3.0923400000000001
  1
名称
 41
0.5
  0
TEXT
  5
124
  8
_________2
 62
     7
 10
96.784058333333334
 20
48.341500000000011
 30
0.0
 40
3.6545800000000002
  1
mm
 41
0.5
 72
     1
 11
98.306799999999996
 21
48.341500000000011
 31
0.0
  0
TEXT
  5
125
  8
_________2
 62
     7
 10
90.582099999999997
 20
53.337699999999998
 30
0.0
 40
3.0923400000000001
  1
単位
 41
0.5
  0
TEXT
  5
126
  8
_________2
 62
     7
 10
90.582099999999997
 20
40.930399999999999
 30
0.0
 40
3.0923400000000001
  1
尺度
 41
0.5
  0
TEXT
  5
127
  8
_________2
 62
     7
 10
95.487658666666675
 20
34.73749999999999
 30
0.0
 40
3.6545800000000002
  1
1 ： 6
 41
0.5
 72
     1
 11
98.898600000000002
 21
34.73749999999999
 31
0.0
  0
TEXT
  5
128
  8
_________2
 62
     7
 10
137.17386250000001
 20
30.627400000000002
 30
0.0
 40
3.9357000000000002
  1
DV047334S-00
 41
0.5
 72
     1
 11
148.489
 21
30.627400000000002
 31
0.0
  0
TEXT
  5
129
  8
_________2
 62
     7
 10
139.7976625
 20
20.626999999999988
 30
0.0
 40
3.9357000000000002
  1
DV047334S
 41
0.5
 72
     1
 11
148.489
 21
20.626999999999988
 31
0.0
  0
TEXT
  5
12A
  8
_________2
 62
     7
 10
29.525700000000001
 20
22.226900000000001
 30
0.0
 40
3.9357000000000002
  1
実容量：2.8L、重量：3.6kg、オーバーフロー付
 41
0.5
  0
TEXT
  5
12B
  8
_________2
 62
     7
 10
114.11799999999999
 20
45.7453
 30
0.0
 40
3.9357000000000002
  1
バリ カウンター式手洗器
 41
0.5
  0
TEXT
  5
12C
  8
_________2
 62
     7
 10
44.364200333333329
 20
35.122599999999991
 30
0.0
 40
3.6545800000000002
  1
早川
 41
0.5
 72
     1
 11
46.252400000000002
 21
35.122599999999991
 31
0.0
  0
TEXT
  5
12D
  8
_________2
 62
     7
 10
25.72929066666666
 20
35.122599999999991
 30
0.0
 40
3.6545800000000002
  1
石原
 41
0.5
 72
     1
 11
27.6784
 21
35.122599999999991
 31
0.0
  0
TEXT
  5
12E
  8
_________2
 62
     7
 10
72.724699999999999
 20
34.73749999999999
 30
0.0
 40
3.6545800000000002
  1
13.12.05
 41
0.5
  0
TEXT
  5
12F
  8
_________2
 62
     7
 10
71.531999999999996
 20
40.930399999999999
 30
0.0
 40
3.0923400000000001
  1
日付
 41
0.5
  0
TEXT
  5
130
  8
_________2
 62
     7
 10
34.578299999999992
 20
40.930399999999999
 30
0.0
 40
3.0923400000000001
  1
検図
 41
0.5
  0
TEXT
  5
131
  8
_________2
 62
     7
 10
22.960000000000001
 20
26.730999999999991
 30
0.0
 40
3.0923400000000001
  1
備考
 41
0.5
  0
TEXT
  5
132
  8
_________2
 62
     7
 10
22.960000000000001
 20
40.930399999999999
 30
0.0
 40
3.0923400000000001
  1
製図
 41
0.5
  0
TEXT
  5
133
  8
_________2
 62
     7
 10
28.727365333333339
 20
49.456400000000002
 30
0.0
 40
4.4979399999999989
  1
セラトレーディング株式会社
 41
0.5
 72
     1
 11
46.119399999999992
 21
49.456400000000002
 31
0.0
  0
LINE
  5
134
  8
_________2
 62
     7
 10
188.49000000000001
 20
17.428499999999989
 30
0.0
 11
21.988499999999991
 21
17.428499999999989
 31
0.0
  0
LINE
  5
135
  8
_________2
 62
     7
 10
21.988499999999991
 20
17.428499999999989
 30
0.0
 11
21.988499999999991
 21
280.42999999999989
 31
0.0
  0
LINE
  5
136
  8
_________2
 62
     7
 10
21.988499999999991
 20
280.42999999999989
 30
0.0
 11
188.49000000000001
 21
280.42999999999989
 31
0.0
  0
LINE
  5
137
  8
_________2
 62
     7
 10
188.49000000000001
 20
280.42999999999989
 30
0.0
 11
188.49000000000001
 21
17.428499999999989
 31
0.0
  0
LINE
  5
138
  8
_________2
 62
     7
 10
70.488799999999998
 20
30.9285
 30
0.0
 11
70.488799999999998
 21
57.428400000000011
 31
0.0
  0
LINE
  5
139
  8
_________2
 62
     7
 10
89.488600000000005
 20
30.9285
 30
0.0
 11
89.488600000000005
 21
57.428400000000011
 31
0.0
  0
LINE
  5
13A
  8
_________2
 62
     7
 10
108.4889999999999
 20
17.428499999999989
 30
0.0
 11
108.4889999999999
 21
57.428400000000011
 31
0.0
  0
LINE
  5
13B
  8
_________2
 62
     7
 10
33.488300000000002
 20
30.9285
 30
0.0
 11
33.488300000000002
 21
44.928800000000003
 31
0.0
  0
LINE
  5
13C
  8
_________2
 62
     7
 10
21.988499999999991
 20
30.9285
 30
0.0
 11
108.4889999999999
 21
30.9285
 31
0.0
  0
LINE
  5
13D
  8
_________2
 62
     7
 10
21.988499999999991
 20
44.928800000000003
 30
0.0
 11
108.4889999999999
 21
44.928800000000003
 31
0.0
  0
LINE
  5
13E
  8
_________2
 62
     7
 10
108.4889999999999
 20
37.428100000000001
 30
0.0
 11
188.49000000000001
 21
37.428100000000001
 31
0.0
  0
LINE
  5
13F
  8
_________2
 62
     7
 10
21.988499999999991
 20
57.428400000000011
 30
0.0
 11
188.49000000000001
 21
57.428400000000011
 31
0.0
  0
ENDSEC
  0
EOF
