  0
SECTION
  2
HEADER
  9
$ACADVER
  1
AC1009
  9
$INSBASE
 10
0.0
 20
0.0
 30
0.0
  9
$EXTMIN
 10
0.238402
 20
0.447865
 30
0.0
  9
$EXTMAX
 10
210.24000000000001
 20
297.44999999999987
 30
0.0
  9
$LIMMIN
 10
0.0
 20
0.0
  9
$LIMMAX
 10
12.0
 20
9.0
  9
$ORTHOMODE
 70
     0
  9
$REGENMODE
 70
     1
  9
$FILLMODE
 70
     1
  9
$QTEXTMODE
 70
     0
  9
$MIRRTEXT
 70
     1
  9
$DRAGMODE
 70
     2
  9
$LTSCALE
 40
1.0
  9
$OSMODE
 70
    37
  9
$ATTMODE
 70
     1
  9
$TEXTSIZE
 40
0.0
  9
$TRACEWID
 40
0.05
  9
$TEXTSTYLE
  7
STANDARD
  9
$CLAYER
  8
0
  9
$CELTYPE
  6
CONTINUOUS
  9
$CECOLOR
 62
   256
  9
$DIMSCALE
 40
1.0
  9
$DIMASZ
 40
0.18
  9
$DIMEXO
 40
0.0625
  9
$DIMDLI
 40
0.38
  9
$DIMRND
 40
0.0
  9
$DIMDLE
 40
0.0
  9
$DIMEXE
 40
0.18
  9
$DIMTP
 40
0.0
  9
$DIMTM
 40
0.0
  9
$DIMTXT
 40
0.18
  9
$DIMCEN
 40
0.09
  9
$DIMTSZ
 40
0.0
  9
$DIMTOL
 70
     0
  9
$DIMLIM
 70
     0
  9
$DIMTIH
 70
     1
  9
$DIMTOH
 70
     1
  9
$DIMSE1
 70
     0
  9
$DIMSE2
 70
     0
  9
$DIMTAD
 70
     0
  9
$DIMZIN
 70
     0
  9
$DIMBLK
  1

  9
$DIMASO
 70
     1
  9
$DIMSHO
 70
     1
  9
$DIMPOST
  1

  9
$DIMAPOST
  1

  9
$DIMALT
 70
     0
  9
$DIMALTD
 70
     2
  9
$DIMALTF
 40
25.399999999999999
  9
$DIMLFAC
 40
1.0
  9
$DIMTOFL
 70
     0
  9
$DIMTVP
 40
0.0
  9
$DIMTIX
 70
     0
  9
$DIMSOXD
 70
     0
  9
$DIMSAH
 70
     0
  9
$DIMBLK1
  1

  9
$DIMBLK2
  1

  9
$DIMSTYLE
  2
STANDARD
  9
$DIMCLRD
 70
     0
  9
$DIMCLRE
 70
     0
  9
$DIMCLRT
 70
     0
  9
$DIMTFAC
 40
1.0
  9
$DIMGAP
 40
0.09
  9
$LUNITS
 70
     2
  9
$LUPREC
 70
     4
  9
$SKETCHINC
 40
0.1
  9
$FILLETRAD
 40
0.0
  9
$AUNITS
 70
     0
  9
$AUPREC
 70
     0
  9
$MENU
  1
.
  9
$ELEVATION
 40
0.0
  9
$PELEVATION
 40
0.0
  9
$THICKNESS
 40
0.0
  9
$LIMCHECK
 70
     0
  9
$BLIPMODE
 70
     0
  9
$CHAMFERA
 40
0.0
  9
$CHAMFERB
 40
0.0
  9
$SKPOLY
 70
     0
  9
$TDCREATE
 40
2444972.375
  9
$TDUPDATE
 40
2456863.2476976621
  9
$TDINDWG
 40
0.0000124074
  9
$TDUSRTIMER
 40
0.0000124074
  9
$USRTIMER
 70
     1
  9
$ANGBASE
 50
0.0
  9
$ANGDIR
 70
     0
  9
$PDMODE
 70
     0
  9
$PDSIZE
 40
0.0
  9
$PLINEWID
 40
0.0
  9
$COORDS
 70
     1
  9
$SPLFRAME
 70
     0
  9
$SPLINETYPE
 70
     6
  9
$SPLINESEGS
 70
     8
  9
$ATTDIA
 70
     0
  9
$ATTREQ
 70
     1
  9
$HANDLING
 70
     1
  9
$HANDSEED
  5
21B
  9
$SURFTAB1
 70
     6
  9
$SURFTAB2
 70
     6
  9
$SURFTYPE
 70
     6
  9
$SURFU
 70
     6
  9
$SURFV
 70
     6
  9
$UCSNAME
  2

  9
$UCSORG
 10
0.0
 20
0.0
 30
0.0
  9
$UCSXDIR
 10
1.0
 20
0.0
 30
0.0
  9
$UCSYDIR
 10
0.0
 20
1.0
 30
0.0
  9
$PUCSNAME
  2

  9
$PUCSORG
 10
0.0
 20
0.0
 30
0.0
  9
$PUCSXDIR
 10
1.0
 20
0.0
 30
0.0
  9
$PUCSYDIR
 10
0.0
 20
1.0
 30
0.0
  9
$USERI1
 70
     0
  9
$USERI2
 70
     0
  9
$USERI3
 70
     0
  9
$USERI4
 70
     0
  9
$USERI5
 70
     0
  9
$USERR1
 40
0.0
  9
$USERR2
 40
0.0
  9
$USERR3
 40
0.0
  9
$USERR4
 40
0.0
  9
$USERR5
 40
0.0
  9
$WORLDVIEW
 70
     1
  9
$SHADEDGE
 70
     3
  9
$SHADEDIF
 70
    70
  9
$TILEMODE
 70
     1
  9
$MAXACTVP
 70
    48
  9
$PLIMCHECK
 70
     0
  9
$PEXTMIN
 10
1.0000000000000000E+020
 20
1.0000000000000000E+020
 30
1.0000000000000000E+020
  9
$PEXTMAX
 10
-1.0000000000000000E+020
 20
-1.0000000000000000E+020
 30
-1.0000000000000000E+020
  9
$PLIMMIN
 10
0.0
 20
0.0
  9
$PLIMMAX
 10
12.0
 20
9.0
  9
$UNITMODE
 70
     0
  9
$VISRETAIN
 70
     1
  9
$PLINEGEN
 70
     0
  9
$PSLTSCALE
 70
     1
  0
ENDSEC
  0
SECTION
  2
TABLES
  0
TABLE
  2
VPORT
 70
     2
  0
VPORT
  2
*ACTIVE
 70
     0
 10
0.0
 20
0.0
 11
1.0
 21
1.0
 12
206.979821461158
 22
148.72499999999999
 13
0.0
 23
0.0
 14
1.0
 24
1.0
 15
0.0
 25
0.0
 16
0.0
 26
0.0
 36
1.0
 17
0.0
 27
0.0
 37
0.0
 40
299.9048830811555
 41
2.2894736842105261
 42
50.0
 43
0.0
 44
0.0
 50
0.0
 51
0.0
 71
     0
 72
   100
 73
     1
 74
     1
 75
     0
 76
     0
 77
     0
 78
     0
  0
ENDTAB
  0
TABLE
  2
LTYPE
 70
     3
  0
LTYPE
  2
CONTINUOUS
 70
     0
  3
Solid line
 72
    65
 73
     0
 40
0.0
  0
LTYPE
  2
AIGENLINE001
 70
     0
  3
generate AI->DXF Converter
 72
    65
 73
     4
 40
5.8561449999999988
 49
3.5278
 49
-0.776115
 49
0.776115
 49
-0.776115
  0
LTYPE
  2
AIGENLINE002
 70
     0
  3
generate AI->DXF Converter
 72
    65
 73
     2
 40
1.5522299999999991
 49
0.776115
 49
-0.776115
  0
ENDTAB
  0
TABLE
  2
LAYER
 70
     2
  0
LAYER
  2
0
 70
     0
 62
     7
  6
CONTINUOUS
  0
LAYER
  2
_________2
 70
     0
 62
     7
  6
CONTINUOUS
  0
ENDTAB
  0
TABLE
  2
STYLE
 70
     1
  0
STYLE
  2
STANDARD
 70
     0
 40
0.0
 41
0.0
 50
0.0
 71
     0
 42
0.0
  3
TXT
  4
EXTFONT.SHX
  0
ENDTAB
  0
TABLE
  2
VIEW
 70
     0
  0
ENDTAB
  0
TABLE
  2
UCS
 70
     0
  0
ENDTAB
  0
TABLE
  2
APPID
 70
     1
  0
APPID
  2
ACAD
 70
     0
  0
ENDTAB
  0
TABLE
  2
DIMSTYLE
 70
     1
  0
DIMSTYLE
  2
STANDARD
 70
     0
  3

  4

  5

  6

  7

 40
1.0
 41
0.18
 42
0.0625
 43
0.38
 44
0.18
 45
0.0
 46
0.0
 47
0.0
 48
0.0
140
0.18
141
0.09
142
0.0
143
25.399999999999999
144
1.0
145
0.0
146
1.0
147
0.09
 71
     0
 72
     0
 73
     1
 74
     1
 75
     0
 76
     0
 77
     0
 78
     0
170
     0
171
     2
172
     0
173
     0
174
     0
175
     0
176
     0
177
     0
178
     0
  0
ENDTAB
  0
ENDSEC
  0
SECTION
  2
BLOCKS
  0
BLOCK
  8
0
  2
$MODEL_SPACE
 70
     0
 10
0.0
 20
0.0
 30
0.0
  3
$MODEL_SPACE
  1

  0
ENDBLK
  5
1A
  8
0
  0
BLOCK
 67
     1
  8
0
  2
$PAPER_SPACE
 70
     0
 10
0.0
 20
0.0
 30
0.0
  3
$PAPER_SPACE
  1

  0
ENDBLK
  5
17
 67
     1
  8
0
  0
ENDSEC
  0
SECTION
  2
ENTITIES
  0
TEXT
  5
23
  8
0
 62
     7
 10
78.937273333333323
 20
229.85199999999989
 30
0.0
 40
3.660169999999999
  1
%%c35
 41
0.5
 72
     2
 11
83.817499999999995
 21
229.85199999999989
 31
0.0
  0
TEXT
  5
24
  8
0
 62
     7
 10
71.944673333333327
 20
201.41399999999999
 30
0.0
 40
3.660169999999999
  1
%%c46
 41
0.5
 72
     2
 11
76.8249
 21
201.41399999999999
 31
0.0
  0
TEXT
  5
25
  8
0
 62
     7
 10
131.93154666666661
 20
155.50700000000001
 30
0.0
 40
3.660169999999999
  1
カウンター開口寸法
 41
0.5
 72
     1
 11
141.69200000000001
 21
155.50700000000001
 31
0.0
  0
TEXT
  5
26
  8
0
 62
     7
 10
155.40840791666659
 20
99.292100000000005
 30
0.0
 40
3.660169999999999
  1
180
 41
0.5
 72
     1
 11
157.39099999999991
 21
99.292100000000005
 31
0.0
  0
TEXT
  5
27
  8
0
 62
     7
 10
29.267800000000001
 20
213.40640791666661
 30
0.0
 40
3.660169999999999
  1
180
 50
90.0
 41
0.5
 72
     1
 11
29.267800000000001
 21
215.38900000000001
 31
0.0
  0
TEXT
  5
28
  8
0
 62
     7
 10
131.28999999999991
 20
212.40640791666661
 30
0.0
 40
3.660169999999999
  1
160
 50
90.0
 41
0.5
 72
     1
 11
131.28999999999991
 21
214.38900000000001
 31
0.0
  0
TEXT
  5
29
  8
0
 62
     7
 10
140.31739374999989
 20
136.57699999999991
 30
0.0
 40
3.660169999999999
  1
470
 41
0.5
 72
     1
 11
142.6049999999999
 21
136.57699999999991
 31
0.0
  0
TEXT
  5
2A
  8
0
 62
     7
 10
139.25188666666659
 20
164.76900000000001
 30
0.0
 40
3.660169999999999
  1
535
 41
0.5
 72
     1
 11
141.69200000000001
 21
164.76900000000001
 31
0.0
  0
TEXT
  5
2B
  8
0
 62
     7
 10
117.73592916666659
 20
171.249
 30
0.0
 40
3.660169999999999
  1
85
 41
0.5
 72
     1
 11
119.261
 21
171.249
 31
0.0
  0
TEXT
  5
2C
  8
0
 62
     7
 10
162.73892916666659
 20
171.249
 30
0.0
 40
3.660169999999999
  1
85
 41
0.5
 72
     1
 11
164.26400000000001
 21
171.249
 31
0.0
  0
TEXT
  5
2D
  8
0
 62
     7
 10
139.25188666666659
 20
171.249
 30
0.0
 40
3.660169999999999
  1
365
 41
0.5
 72
     1
 11
141.69200000000001
 21
171.249
 31
0.0
  0
TEXT
  5
2E
  8
0
 62
     7
 10
62.229093749999997
 20
162.8609999999999
 30
0.0
 40
3.660169999999999
  1
580
 41
0.5
 72
     1
 11
64.5167
 21
162.8609999999999
 31
0.0
  0
TEXT
  5
2F
  8
0
 62
     7
 10
67.328014999999994
 20
232.04199999999989
 30
0.0
 40
3.660169999999999
  1
100
 41
0.5
 72
     1
 11
69.158100000000005
 21
232.04199999999989
 31
0.0
  0
TEXT
  5
30
  8
0
 62
     7
 10
57.357515000000006
 20
232.04199999999989
 30
0.0
 40
3.660169999999999
  1
100
 41
0.5
 72
     1
 11
59.187600000000003
 21
232.04199999999989
 31
0.0
  0
TEXT
  5
31
  8
0
 62
     7
 10
62.229093749999997
 20
170.66900000000001
 30
0.0
 40
3.660169999999999
  1
480
 41
0.5
 72
     1
 11
64.5167
 21
170.66900000000001
 31
0.0
  0
TEXT
  5
32
  8
0
 62
     7
 10
181.01599999999991
 20
197.6693937499999
 30
0.0
 40
3.660169999999999
  1
430
 50
90.0
 41
0.5
 72
     1
 11
181.01599999999991
 21
199.95699999999999
 31
0.0
  0
TEXT
  5
33
  8
0
 62
     7
 10
174.47200000000001
 20
182.27192916666661
 30
0.0
 40
3.660169999999999
  1
85
 50
90.0
 41
0.5
 72
     1
 11
174.47200000000001
 21
183.797
 31
0.0
  0
TEXT
  5
34
  8
0
 62
     7
 10
174.47200000000001
 20
216.6439291666666
 30
0.0
 40
3.660169999999999
  1
85
 50
90.0
 41
0.5
 72
     1
 11
174.47200000000001
 21
218.16900000000001
 31
0.0
  0
TEXT
  5
35
  8
0
 62
     7
 10
174.572
 20
197.64139374999999
 30
0.0
 40
3.660169999999999
  1
260
 50
90.0
 41
0.5
 72
     1
 11
174.572
 21
199.929
 31
0.0
  0
TEXT
  5
36
  8
0
 62
     7
 10
106.623
 20
198.0623937499999
 30
0.0
 40
3.660169999999999
  1
470
 50
90.0
 41
0.5
 72
     1
 11
106.623
 21
200.34999999999991
 31
0.0
  0
TEXT
  5
37
  8
0
 62
     7
 10
99.730599999999995
 20
178.54343625000001
 30
0.0
 40
3.660169999999999
  1
50
 50
90.0
 41
0.5
 72
     1
 11
99.730599999999995
 21
179.916
 31
0.0
  0
TEXT
  5
38
  8
0
 62
     7
 10
173.214
 20
114.0128866666666
 30
0.0
 40
3.660169999999999
  1
225
 50
90.0
 41
0.5
 72
     1
 11
173.214
 21
116.4529999999999
 31
0.0
  0
TEXT
  5
39
  8
0
 62
     7
 10
104.7789999999999
 20
114.0128866666666
 30
0.0
 40
3.660169999999999
  1
225
 50
90.0
 41
0.5
 72
     1
 11
104.7789999999999
 21
116.4529999999999
 31
0.0
  0
TEXT
  5
3A
  8
0
 62
     7
 10
98.436300000000003
 20
131.71787249999991
 30
0.0
 40
3.660169999999999
  1
20
 50
90.0
 41
0.5
 72
     2
 11
98.436300000000003
 21
134.46299999999991
 31
0.0
  0
TEXT
  5
3B
  8
0
 62
     7
 10
54.6661
 20
131.84890083333329
 30
0.0
 40
3.660169999999999
  1
10
 50
90.0
 41
0.5
 72
     2
 11
54.6661
 21
133.98400000000001
 31
0.0
  0
TEXT
  5
3C
  8
0
 62
     7
 10
99.930800000000005
 20
218.94543624999989
 30
0.0
 40
3.660169999999999
  1
80
 50
90.0
 41
0.5
 72
     1
 11
99.930800000000005
 21
220.3179999999999
 31
0.0
  0
TEXT
  5
3D
  8
0
 62
     7
 10
99.930800000000005
 20
213.07843625000001
 30
0.0
 40
3.660169999999999
  1
40
 50
90.0
 41
0.5
 72
     1
 11
99.930800000000005
 21
214.45099999999991
 31
0.0
  0
TEXT
  5
3E
  8
0
 62
     7
 10
99.930800000000005
 20
195.34690083333331
 30
0.0
 40
3.660169999999999
  1
300
 50
90.0
 41
0.5
 72
     1
 11
99.930800000000005
 21
197.482
 31
0.0
  0
ARC
  5
3F
  8
0
 62
     7
 10
162.94608700000001
 20
120.3038879999999
 30
0.0
 40
1.0394699999999999
 50
272.12929100000002
 51
357.850979
  0
LINE
  5
40
  8
0
 62
     7
 10
163.98500000000001
 20
120.2649999999999
 30
0.0
 11
163.98500000000001
 21
126.265
 31
0.0
  0
ARC
  5
41
  8
0
 62
     7
 10
72.963982000000001
 20
119.781026
 30
0.0
 40
0.516069
 50
189.70226400000001
 51
268.48721699999987
  0
ARC
  5
42
  8
0
 62
     7
 10
89.978164000000007
 20
120.303883
 30
0.0
 40
1.0394639999999991
 50
272.12901799999997
 51
357.85125199999987
  0
LINE
  5
43
  8
0
 62
     7
 10
90.016800000000003
 20
119.2649999999999
 30
0.0
 11
72.950400000000002
 21
119.2649999999999
 31
0.0
  0
LINE
  5
44
  8
0
 62
     7
 10
71.516499999999994
 20
126.265
 30
0.0
 11
72.455299999999994
 21
119.694
 31
0.0
  0
LINE
  5
45
  8
0
 62
     7
 10
155.48500000000001
 20
125.363
 30
0.0
 11
155.48500000000001
 21
120.1449999999999
 31
0.0
  0
LINE
  5
46
  8
0
 62
     7
 10
91.016900000000007
 20
120.2649999999999
 30
0.0
 11
91.016900000000007
 21
126.265
 31
0.0
  0
ARC
  5
47
  8
0
 62
     7
 10
56.06944
 20
119.781026
 30
0.0
 40
0.516069
 50
271.51280299999991
 51
350.29775599999999
  0
ARC
  5
48
  8
0
 62
     7
 10
39.055258000000002
 20
120.303883
 30
0.0
 40
1.0394639999999991
 50
182.14876799999999
 51
267.87100199999998
  0
LINE
  5
49
  8
0
 62
     7
 10
175.94
 20
185.679
 30
0.0
 11
175.3479999999999
 21
187.88900000000001
 31
0.0
  0
LINE
  5
4A
  8
0
 62
     7
 10
175.3479999999999
 20
187.88900000000001
 30
0.0
 11
174.75499999999991
 21
185.679
 31
0.0
  0
LINE
  5
4B
  8
0
 62
     7
 10
174.75499999999991
 20
185.679
 30
0.0
 11
175.94
 21
185.679
 31
0.0
  0
LINE
  5
4C
  8
0
 62
     7
 10
175.94
 20
211.67899999999989
 30
0.0
 11
175.3479999999999
 21
213.8889999999999
 31
0.0
  0
LINE
  5
4D
  8
0
 62
     7
 10
175.3479999999999
 20
213.8889999999999
 30
0.0
 11
174.75499999999991
 21
211.67899999999989
 31
0.0
  0
LINE
  5
4E
  8
0
 62
     7
 10
174.75499999999991
 20
211.67899999999989
 30
0.0
 11
175.94
 21
211.67899999999989
 31
0.0
  0
LINE
  5
4F
  8
0
 62
     7
 10
175.94
 20
220.17899999999989
 30
0.0
 11
175.3479999999999
 21
222.38900000000001
 31
0.0
  0
LINE
  5
50
  8
0
 62
     7
 10
175.3479999999999
 20
222.38900000000001
 30
0.0
 11
174.75499999999991
 21
220.17899999999989
 31
0.0
  0
LINE
  5
51
  8
0
 62
     7
 10
174.75499999999991
 20
220.17899999999989
 30
0.0
 11
175.94
 21
220.17899999999989
 31
0.0
  0
LINE
  5
52
  8
0
 62
     7
 10
174.77000000000001
 20
216.09899999999999
 30
0.0
 11
175.36199999999991
 21
213.8889999999999
 31
0.0
  0
LINE
  5
53
  8
0
 62
     7
 10
175.36199999999991
 20
213.8889999999999
 30
0.0
 11
175.95400000000001
 21
216.09899999999999
 31
0.0
  0
LINE
  5
54
  8
0
 62
     7
 10
175.95400000000001
 20
216.09899999999999
 30
0.0
 11
174.77000000000001
 21
216.09899999999999
 31
0.0
  0
LINE
  5
55
  8
0
 62
     7
 10
174.77000000000001
 20
190.09899999999999
 30
0.0
 11
175.36199999999991
 21
187.88900000000001
 31
0.0
  0
LINE
  5
56
  8
0
 62
     7
 10
175.36199999999991
 20
187.88900000000001
 30
0.0
 11
175.95400000000001
 21
190.09899999999999
 31
0.0
  0
LINE
  5
57
  8
0
 62
     7
 10
175.95400000000001
 20
190.09899999999999
 30
0.0
 11
174.77000000000001
 21
190.09899999999999
 31
0.0
  0
LINE
  5
58
  8
0
 62
     7
 10
174.77000000000001
 20
181.59899999999999
 30
0.0
 11
175.36199999999991
 21
179.38900000000001
 31
0.0
  0
LINE
  5
59
  8
0
 62
     7
 10
175.36199999999991
 20
179.38900000000001
 30
0.0
 11
175.95400000000001
 21
181.59899999999999
 31
0.0
  0
LINE
  5
5A
  8
0
 62
     7
 10
175.95400000000001
 20
181.59899999999999
 30
0.0
 11
174.77000000000001
 21
181.59899999999999
 31
0.0
  0
LINE
  5
5B
  8
0
 62
     7
 10
175.3549999999999
 20
222.38900000000001
 30
0.0
 11
175.3549999999999
 21
179.38900000000001
 31
0.0
  0
LINE
  5
5C
  8
0
 62
     7
 10
182.18499999999989
 20
220.17899999999989
 30
0.0
 11
181.5929999999999
 21
222.38900000000001
 31
0.0
  0
LINE
  5
5D
  8
0
 62
     7
 10
181.5929999999999
 20
222.38900000000001
 30
0.0
 11
181.00099999999989
 21
220.17899999999989
 31
0.0
  0
LINE
  5
5E
  8
0
 62
     7
 10
181.00099999999989
 20
220.17899999999989
 30
0.0
 11
182.18499999999989
 21
220.17899999999989
 31
0.0
  0
LINE
  5
5F
  8
0
 62
     7
 10
181.0149999999999
 20
181.59899999999999
 30
0.0
 11
181.607
 21
179.38900000000001
 31
0.0
  0
LINE
  5
60
  8
0
 62
     7
 10
181.607
 20
179.38900000000001
 30
0.0
 11
182.1999999999999
 21
181.59899999999999
 31
0.0
  0
LINE
  5
61
  8
0
 62
     7
 10
182.1999999999999
 20
181.59899999999999
 30
0.0
 11
181.0149999999999
 21
181.59899999999999
 31
0.0
  0
LINE
  5
62
  8
0
 62
     7
 10
181.59999999999999
 20
222.38900000000001
 30
0.0
 11
181.59999999999999
 21
179.38900000000001
 31
0.0
  0
LINE
  5
63
  8
0
 62
     7
 10
182.423
 20
222.38900000000001
 30
0.0
 11
161.74100000000001
 21
222.38900000000001
 31
0.0
  0
LINE
  5
64
  8
0
 62
     7
 10
176.17799999999991
 20
213.8889999999999
 30
0.0
 11
169.80799999999999
 21
213.8889999999999
 31
0.0
  0
LINE
  5
65
  8
0
 62
     7
 10
176.17799999999991
 20
187.88900000000001
 30
0.0
 11
169.64400000000001
 21
187.88900000000001
 31
0.0
  0
LINE
  5
66
  8
0
 62
     7
 10
182.423
 20
179.38900000000001
 30
0.0
 11
161.74100000000001
 21
179.38900000000001
 31
0.0
  0
LINE
  5
67
  8
0
 62
     7
 10
166.23099999999991
 20
163.26099999999991
 30
0.0
 11
168.44200000000001
 21
163.85299999999989
 31
0.0
  0
LINE
  5
68
  8
0
 62
     7
 10
168.44200000000001
 20
163.85299999999989
 30
0.0
 11
166.23099999999991
 21
164.446
 31
0.0
  0
LINE
  5
69
  8
0
 62
     7
 10
166.23099999999991
 20
164.446
 30
0.0
 11
166.23099999999991
 21
163.26099999999991
 31
0.0
  0
LINE
  5
6A
  8
0
 62
     7
 10
117.152
 20
164.4309999999999
 30
0.0
 11
114.94199999999999
 21
163.839
 31
0.0
  0
LINE
  5
6B
  8
0
 62
     7
 10
114.94199999999999
 20
163.839
 30
0.0
 11
117.152
 21
163.24700000000001
 31
0.0
  0
LINE
  5
6C
  8
0
 62
     7
 10
117.152
 20
163.24700000000001
 30
0.0
 11
117.152
 21
164.4309999999999
 31
0.0
  0
LINE
  5
6D
  8
0
 62
     7
 10
168.44200000000001
 20
163.84599999999989
 30
0.0
 11
114.94199999999999
 21
163.84599999999989
 31
0.0
  0
LINE
  5
6E
  8
0
 62
     7
 10
162.15299999999991
 20
170.91200000000001
 30
0.0
 11
159.94200000000001
 21
170.31999999999999
 31
0.0
  0
LINE
  5
6F
  8
0
 62
     7
 10
159.94200000000001
 20
170.31999999999999
 30
0.0
 11
162.15299999999991
 21
169.72799999999989
 31
0.0
  0
LINE
  5
70
  8
0
 62
     7
 10
162.15299999999991
 20
169.72799999999989
 30
0.0
 11
162.15299999999991
 21
170.91200000000001
 31
0.0
  0
LINE
  5
71
  8
0
 62
     7
 10
125.652
 20
170.91200000000001
 30
0.0
 11
123.44199999999999
 21
170.31999999999999
 31
0.0
  0
LINE
  5
72
  8
0
 62
     7
 10
123.44199999999999
 20
170.31999999999999
 30
0.0
 11
125.652
 21
169.72799999999989
 31
0.0
  0
LINE
  5
73
  8
0
 62
     7
 10
125.652
 20
169.72799999999989
 30
0.0
 11
125.652
 21
170.91200000000001
 31
0.0
  0
LINE
  5
74
  8
0
 62
     7
 10
117.152
 20
170.91200000000001
 30
0.0
 11
114.94199999999999
 21
170.31999999999999
 31
0.0
  0
LINE
  5
75
  8
0
 62
     7
 10
114.94199999999999
 20
170.31999999999999
 30
0.0
 11
117.152
 21
169.72799999999989
 31
0.0
  0
LINE
  5
76
  8
0
 62
     7
 10
117.152
 20
169.72799999999989
 30
0.0
 11
117.152
 21
170.91200000000001
 31
0.0
  0
LINE
  5
77
  8
0
 62
     7
 10
121.23099999999999
 20
169.74199999999999
 30
0.0
 11
123.44199999999999
 21
170.33500000000001
 31
0.0
  0
LINE
  5
78
  8
0
 62
     7
 10
123.44199999999999
 20
170.33500000000001
 30
0.0
 11
121.23099999999999
 21
170.92699999999999
 31
0.0
  0
LINE
  5
79
  8
0
 62
     7
 10
121.23099999999999
 20
170.92699999999999
 30
0.0
 11
121.23099999999999
 21
169.74199999999999
 31
0.0
  0
LINE
  5
7A
  8
0
 62
     7
 10
157.732
 20
169.74199999999999
 30
0.0
 11
159.94200000000001
 21
170.33500000000001
 31
0.0
  0
LINE
  5
7B
  8
0
 62
     7
 10
159.94200000000001
 20
170.33500000000001
 30
0.0
 11
157.732
 21
170.92699999999999
 31
0.0
  0
LINE
  5
7C
  8
0
 62
     7
 10
157.732
 20
170.92699999999999
 30
0.0
 11
157.732
 21
169.74199999999999
 31
0.0
  0
LINE
  5
7D
  8
0
 62
     7
 10
166.232
 20
169.74199999999999
 30
0.0
 11
168.44200000000001
 21
170.33500000000001
 31
0.0
  0
LINE
  5
7E
  8
0
 62
     7
 10
168.44200000000001
 20
170.33500000000001
 30
0.0
 11
166.232
 21
170.92699999999999
 31
0.0
  0
LINE
  5
7F
  8
0
 62
     7
 10
166.232
 20
170.92699999999999
 30
0.0
 11
166.232
 21
169.74199999999999
 31
0.0
  0
LINE
  5
80
  8
0
 62
     7
 10
114.94199999999999
 20
170.327
 30
0.0
 11
168.44200000000001
 21
170.327
 31
0.0
  0
LINE
  5
81
  8
0
 62
     7
 10
168.44200000000001
 20
186.203
 30
0.0
 11
168.44200000000001
 21
162.98400000000001
 31
0.0
  0
LINE
  5
82
  8
0
 62
     7
 10
159.94200000000001
 20
178.2649999999999
 30
0.0
 11
159.94200000000001
 21
169.465
 31
0.0
  0
LINE
  5
83
  8
0
 62
     7
 10
123.44199999999999
 20
177.74799999999991
 30
0.0
 11
123.44199999999999
 21
169.465
 31
0.0
  0
LINE
  5
84
  8
0
 62
     7
 10
114.94199999999999
 20
186.203
 30
0.0
 11
114.94199999999999
 21
162.98400000000001
 31
0.0
  0
LINE
  5
85
  8
0
  6
AIGENLINE001
 62
     7
 10
141.69200000000001
 20
225.54699999999991
 30
0.0
 11
141.69200000000001
 21
176.71199999999999
 31
0.0
  0
LINE
  5
86
  8
0
 62
     7
 10
168.149
 20
187.59599999999989
 30
0.0
 11
160.23500000000001
 21
179.68199999999999
 31
0.0
  0
ARC
  5
87
  8
0
 62
     7
 10
159.52252799999999
 20
180.4022919999999
 30
0.0
 40
1.0135000000000001
 50
270.30244199999993
 51
314.67944699999998
  0
LINE
  5
88
  8
0
 62
     7
 10
168.44200000000001
 20
188.30299999999991
 30
0.0
 11
168.44200000000001
 21
213.47499999999991
 31
0.0
  0
ARC
  5
89
  8
0
 62
     7
 10
167.42891900000001
 20
188.30862500000001
 30
0.0
 40
1.0132149999999991
 50
315.31383799999992
 51
359.68455699999993
  0
LINE
  5
8A
  8
0
 62
     7
 10
160.23500000000001
 20
222.09599999999989
 30
0.0
 11
168.149
 21
214.18199999999999
 31
0.0
  0
ARC
  5
8B
  8
0
 62
     7
 10
167.42866000000001
 20
213.469458
 30
0.0
 40
1.013472999999999
 50
0.3018
 51
44.680069000000003
  0
ARC
  5
8C
  8
0
 62
     7
 10
159.52262500000001
 20
221.37578599999989
 30
0.0
 40
1.013264999999999
 50
45.315117000000001
 51
89.702994000000004
  0
LINE
  5
8D
  8
0
 62
     7
 10
123.85599999999999
 20
179.38900000000001
 30
0.0
 11
159.52799999999991
 21
179.38900000000001
 31
0.0
  0
LINE
  5
8E
  8
0
 62
     7
 10
115.2349999999999
 20
187.59599999999989
 30
0.0
 11
123.1489999999999
 21
179.68199999999999
 31
0.0
  0
ARC
  5
8F
  8
0
 62
     7
 10
123.86046899999999
 20
180.39908699999989
 30
0.0
 40
1.010289999999999
 50
225.24619200000001
 51
269.75222300000001
  0
LINE
  5
90
  8
0
 62
     7
 10
114.94199999999999
 20
188.30299999999991
 30
0.0
 11
114.94199999999999
 21
213.47499999999991
 31
0.0
  0
ARC
  5
91
  8
0
 62
     7
 10
115.95447799999999
 20
188.30838499999999
 30
0.0
 40
1.012634
 50
180.302041
 51
224.69960299999991
  0
LINE
  5
92
  8
0
 62
     7
 10
123.1489999999999
 20
222.09599999999989
 30
0.0
 11
115.2349999999999
 21
214.18199999999999
 31
0.0
  0
ARC
  5
93
  8
0
 62
     7
 10
115.95507000000001
 20
213.469561
 30
0.0
 40
1.013225
 50
135.31418400000001
 51
179.70390800000001
  0
LINE
  5
94
  8
0
 62
     7
 10
123.85599999999999
 20
222.38900000000001
 30
0.0
 11
159.52799999999991
 21
222.38900000000001
 31
0.0
  0
ARC
  5
95
  8
0
 62
     7
 10
123.86144899999999
 20
221.37639100000001
 30
0.0
 40
1.012661
 50
90.302644000000001
 51
134.69894099999991
  0
LINE
  5
96
  8
0
 62
     7
 10
150.69499999999991
 20
99.140799999999999
 30
0.0
 11
148.48500000000001
 21
98.548599999999993
 31
0.0
  0
LINE
  5
97
  8
0
 62
     7
 10
148.48500000000001
 20
98.548599999999993
 30
0.0
 11
150.69499999999991
 21
97.956400000000002
 31
0.0
  0
LINE
  5
98
  8
0
 62
     7
 10
150.69499999999991
 20
97.956400000000002
 30
0.0
 11
150.69499999999991
 21
99.140799999999999
 31
0.0
  0
LINE
  5
99
  8
0
 62
     7
 10
164.274
 20
97.9709
 30
0.0
 11
166.48500000000001
 21
98.563100000000006
 31
0.0
  0
LINE
  5
9A
  8
0
 62
     7
 10
166.48500000000001
 20
98.563100000000006
 30
0.0
 11
164.274
 21
99.155299999999997
 31
0.0
  0
LINE
  5
9B
  8
0
 62
     7
 10
164.274
 20
99.155299999999997
 30
0.0
 11
164.274
 21
97.9709
 31
0.0
  0
LINE
  5
9C
  8
0
 62
     7
 10
148.48500000000001
 20
98.555800000000005
 30
0.0
 11
166.48500000000001
 21
98.555800000000005
 31
0.0
  0
LINE
  5
9D
  8
0
  6
AIGENLINE001
 62
     7
 10
158.48500000000001
 20
131.02899999999991
 30
0.0
 11
158.48500000000001
 21
123.72799999999989
 31
0.0
  0
LINE
  5
9E
  8
0
 62
     7
 10
166.48500000000001
 20
125.63200000000001
 30
0.0
 11
166.48500000000001
 21
98.1417
 31
0.0
  0
LINE
  5
9F
  8
0
 62
     7
 10
148.48500000000001
 20
103.113
 30
0.0
 11
148.48500000000001
 21
98.1417
 31
0.0
  0
LINE
  5
A0
  8
0
 62
     7
 10
173.29099999999991
 20
107.97499999999989
 30
0.0
 11
173.8829999999999
 21
105.7649999999999
 31
0.0
  0
LINE
  5
A1
  8
0
 62
     7
 10
173.8829999999999
 20
105.7649999999999
 30
0.0
 11
174.476
 21
107.97499999999989
 31
0.0
  0
LINE
  5
A2
  8
0
 62
     7
 10
174.476
 20
107.97499999999989
 30
0.0
 11
173.29099999999991
 21
107.97499999999989
 31
0.0
  0
LINE
  5
A3
  8
0
 62
     7
 10
174.4609999999999
 20
126.05500000000001
 30
0.0
 11
173.869
 21
128.2649999999999
 31
0.0
  0
LINE
  5
A4
  8
0
 62
     7
 10
173.869
 20
128.2649999999999
 30
0.0
 11
173.27699999999999
 21
126.05500000000001
 31
0.0
  0
LINE
  5
A5
  8
0
 62
     7
 10
173.27699999999999
 20
126.05500000000001
 30
0.0
 11
174.4609999999999
 21
126.05500000000001
 31
0.0
  0
LINE
  5
A6
  8
0
 62
     7
 10
173.87599999999989
 20
105.7649999999999
 30
0.0
 11
173.87599999999989
 21
128.2649999999999
 31
0.0
  0
LINE
  5
A7
  8
0
 62
     7
 10
174.37899999999999
 20
105.7649999999999
 30
0.0
 11
152.97799999999989
 21
105.7649999999999
 31
0.0
  0
LINE
  5
A8
  8
0
 62
     7
 10
174.37899999999999
 20
128.2649999999999
 30
0.0
 11
167.00399999999999
 21
128.2649999999999
 31
0.0
  0
LINE
  5
A9
  8
0
 62
     7
 10
44.397199999999998
 20
224.3889999999999
 30
0.0
 11
29.837599999999998
 21
224.3889999999999
 31
0.0
  0
LINE
  5
AA
  8
0
 62
     7
 10
58.511200000000002
 20
206.38900000000001
 30
0.0
 11
29.837599999999998
 21
206.38900000000001
 31
0.0
  0
LINE
  5
AB
  8
0
 62
     7
 10
29.617799999999999
 20
208.59999999999991
 30
0.0
 11
30.210100000000001
 21
206.38900000000001
 31
0.0
  0
LINE
  5
AC
  8
0
 62
     7
 10
30.210100000000001
 20
206.38900000000001
 30
0.0
 11
30.802299999999999
 21
208.59999999999991
 31
0.0
  0
LINE
  5
AD
  8
0
 62
     7
 10
30.802299999999999
 20
208.59999999999991
 30
0.0
 11
29.617799999999999
 21
208.59999999999991
 31
0.0
  0
LINE
  5
AE
  8
0
 62
     7
 10
30.787800000000001
 20
222.17899999999989
 30
0.0
 11
30.195599999999999
 21
224.3889999999999
 31
0.0
  0
LINE
  5
AF
  8
0
 62
     7
 10
30.195599999999999
 20
224.3889999999999
 30
0.0
 11
29.603400000000001
 21
222.17899999999989
 31
0.0
  0
LINE
  5
B0
  8
0
 62
     7
 10
29.603400000000001
 20
222.17899999999989
 30
0.0
 11
30.787800000000001
 21
222.17899999999989
 31
0.0
  0
LINE
  5
B1
  8
0
 62
     7
 10
30.2028
 20
206.38900000000001
 30
0.0
 11
30.2028
 21
224.3889999999999
 31
0.0
  0
LINE
  5
B2
  8
0
 62
     7
 10
135.68700000000001
 20
206.38900000000001
 30
0.0
 11
131.86000000000001
 21
206.38900000000001
 31
0.0
  0
LINE
  5
B3
  8
0
 62
     7
 10
131.6399999999999
 20
208.59899999999999
 30
0.0
 11
132.23199999999991
 21
206.38900000000001
 31
0.0
  0
LINE
  5
B4
  8
0
 62
     7
 10
132.23199999999991
 20
206.38900000000001
 30
0.0
 11
132.8239999999999
 21
208.59899999999999
 31
0.0
  0
LINE
  5
B5
  8
0
 62
     7
 10
132.8239999999999
 20
208.59899999999999
 30
0.0
 11
131.6399999999999
 21
208.59899999999999
 31
0.0
  0
LINE
  5
B6
  8
0
 62
     7
 10
132.81
 20
220.17799999999991
 30
0.0
 11
132.2179999999999
 21
222.38900000000001
 31
0.0
  0
LINE
  5
B7
  8
0
 62
     7
 10
132.2179999999999
 20
222.38900000000001
 30
0.0
 11
131.62599999999989
 21
220.17799999999991
 31
0.0
  0
LINE
  5
B8
  8
0
 62
     7
 10
131.62599999999989
 20
220.17799999999991
 30
0.0
 11
132.81
 21
220.17799999999991
 31
0.0
  0
LINE
  5
B9
  8
0
 62
     7
 10
132.22499999999991
 20
206.38900000000001
 30
0.0
 11
132.22499999999991
 21
222.38900000000001
 31
0.0
  0
LINE
  5
BA
  8
0
 62
     7
 10
166.48500000000001
 20
128.959
 30
0.0
 11
166.48500000000001
 21
136.00700000000001
 31
0.0
  0
LINE
  5
BB
  8
0
 62
     7
 10
119.4849999999999
 20
128.959
 30
0.0
 11
119.4849999999999
 21
136.00700000000001
 31
0.0
  0
LINE
  5
BC
  8
0
 62
     7
 10
121.69499999999989
 20
136.227
 30
0.0
 11
119.4849999999999
 21
135.63499999999991
 31
0.0
  0
LINE
  5
BD
  8
0
 62
     7
 10
119.4849999999999
 20
135.63499999999991
 30
0.0
 11
121.69499999999989
 21
135.04199999999989
 31
0.0
  0
LINE
  5
BE
  8
0
 62
     7
 10
121.69499999999989
 20
135.04199999999989
 30
0.0
 11
121.69499999999989
 21
136.227
 31
0.0
  0
LINE
  5
BF
  8
0
 62
     7
 10
164.274
 20
135.05699999999999
 30
0.0
 11
166.48500000000001
 21
135.64899999999989
 31
0.0
  0
LINE
  5
C0
  8
0
 62
     7
 10
166.48500000000001
 20
135.64899999999989
 30
0.0
 11
164.274
 21
136.24100000000001
 31
0.0
  0
LINE
  5
C1
  8
0
 62
     7
 10
164.274
 20
136.24100000000001
 30
0.0
 11
164.274
 21
135.05699999999999
 31
0.0
  0
LINE
  5
C2
  8
0
 62
     7
 10
119.4849999999999
 20
135.64199999999991
 30
0.0
 11
166.48500000000001
 21
135.64199999999991
 31
0.0
  0
LINE
  5
C3
  8
0
 62
     7
 10
122.4849999999999
 20
119.2649999999999
 30
0.0
 11
162.98500000000001
 21
119.2649999999999
 31
0.0
  0
LINE
  5
C4
  8
0
 62
     7
 10
144.05600000000001
 20
109.265
 30
0.0
 11
152.17500000000001
 21
109.265
 31
0.0
  0
LINE
  5
C5
  8
0
 62
     7
 10
145.13499999999991
 20
105.7649999999999
 30
0.0
 11
151.73500000000001
 21
105.7649999999999
 31
0.0
  0
ARC
  5
C6
  8
0
 62
     7
 10
145.150171
 20
106.18005100000001
 30
0.0
 40
0.41522
 50
182.1140769999999
 51
267.93532399999998
  0
ARC
  5
C7
  8
0
 62
     7
 10
144.31961799999991
 20
106.149455
 30
0.0
 40
0.415896
 50
2.105388
 51
87.845272999999978
  0
LINE
  5
C8
  8
0
  6
AIGENLINE002
 62
     7
 10
165.69799999999989
 20
128.17500000000001
 30
0.0
 11
164.75999999999991
 21
127.5179999999999
 31
0.0
  0
LINE
  5
C9
  8
0
  6
AIGENLINE002
 62
     7
 10
154.929
 20
127.2739999999999
 30
0.0
 11
164.59399999999999
 21
127.46299999999989
 31
0.0
  0
ARC
  5
CA
  8
0
  6
AIGENLINE002
 62
     7
 10
164.58631099999999
 20
127.76690600000001
 30
0.0
 40
0.303855
 50
271.37035099999991
 51
304.8578
  0
LINE
  5
CB
  8
0
  6
AIGENLINE002
 62
     7
 10
154.03700000000001
 20
122.7829999999999
 30
0.0
 11
154.441
 21
126.824
 31
0.0
  0
ARC
  5
CC
  8
0
  6
AIGENLINE002
 62
     7
 10
154.95402200000001
 20
126.7567189999999
 30
0.0
 40
0.5175600000000001
 50
92.810304000000016
 51
172.56137200000001
  0
LINE
  5
CD
  8
0
 62
     7
 10
154.16499999999991
 20
111.0659999999999
 30
0.0
 11
154.94
 21
118.815
 31
0.0
  0
ARC
  5
CE
  8
0
 62
     7
 10
155.453104
 20
118.74798799999991
 30
0.0
 40
0.517385
 50
91.729444000000001
 51
172.61217500000001
  0
LINE
  5
CF
  8
0
 62
     7
 10
152.23500000000001
 20
106.265
 30
0.0
 11
152.23500000000001
 21
108.82899999999989
 31
0.0
  0
ARC
  5
D0
  8
0
 62
     7
 10
152.74824499999991
 20
108.819255
 30
0.0
 40
0.5134330000000001
 50
107.818451
 51
178.891514
  0
ARC
  5
D1
  8
0
 62
     7
 10
152.11172500000001
 20
111.334312
 30
0.0
 40
2.0706269999999991
 50
271.75013899999988
 51
352.54791499999988
  0
ARC
  5
D2
  8
0
 62
     7
 10
151.715406
 20
106.284629
 30
0.0
 40
0.519887
 50
272.12435899999991
 51
357.79667699999987
  0
ARC
  5
D3
  8
0
 62
     7
 10
125.773292
 20
118.76106
 30
0.0
 40
0.50408
 50
44.698650000000001
 51
89.802419999999998
  0
LINE
  5
D4
  8
0
 62
     7
 10
121.985
 20
119.765
 30
0.0
 11
121.985
 21
126.265
 31
0.0
  0
ARC
  5
D5
  8
0
 62
     7
 10
122.50425199999999
 20
119.7846629999999
 30
0.0
 40
0.519898
 50
182.12700299999989
 51
267.83355299999999
  0
LINE
  5
D6
  8
0
  6
AIGENLINE001
 62
     7
 10
148.48500000000001
 20
103.648
 30
0.0
 11
148.48500000000001
 21
113.532
 31
0.0
  0
ARC
  5
D7
  8
0
  6
AIGENLINE002
 62
     7
 10
165.98729
 20
127.75673499999991
 30
0.0
 40
0.5084310000000001
 50
90.251196999999991
 51
124.6681939999999
  0
ARC
  5
D8
  8
0
 62
     7
 10
165.965407
 20
127.745634
 30
0.0
 40
0.519898
 50
2.1269830000000001
 51
87.833532999999989
  0
LINE
  5
D9
  8
0
 62
     7
 10
166.48500000000001
 20
126.265
 30
0.0
 11
166.48500000000001
 21
127.7649999999999
 31
0.0
  0
LINE
  5
DA
  8
0
 62
     7
 10
119.985
 20
128.2649999999999
 30
0.0
 11
165.98500000000001
 21
128.2649999999999
 31
0.0
  0
LINE
  5
DB
  8
0
 62
     7
 10
119.4849999999999
 20
126.265
 30
0.0
 11
119.4849999999999
 21
127.7649999999999
 31
0.0
  0
ARC
  5
DC
  8
0
 62
     7
 10
68.181381000000002
 20
130.10089799999989
 30
0.0
 40
21.253332999999991
 50
317.40809200000001
 51
328.838189
  0
ARC
  5
DD
  8
0
 62
     7
 10
70.089894000000001
 20
128.51788500000001
 30
0.0
 40
18.777384999999988
 50
291.03451100000001
 51
317.0229359999999
  0
ARC
  5
DE
  8
0
 62
     7
 10
68.428656000000004
 20
132.41871399999999
 30
0.0
 40
23.015039999999988
 50
282.18319400000001
 51
291.408973
  0
ARC
  5
DF
  8
0
 62
     7
 10
66.857590000000002
 20
138.946506
 30
0.0
 40
29.727786999999999
 50
276.74037599999991
 51
282.48785099999992
  0
ARC
  5
E0
  8
0
 62
     7
 10
65.705192999999994
 20
147.49075999999999
 30
0.0
 40
38.348503999999998
 50
274.5788839999999
 51
276.95192300000002
  0
ARC
  5
E1
  8
0
 62
     7
 10
86.739436999999995
 20
118.75830000000001
 30
0.0
 40
0.506844
 50
90.311235000000011
 51
137.11592999999991
  0
LINE
  5
E2
  8
0
 62
     7
 10
130.48500000000001
 20
125.363
 30
0.0
 11
130.48500000000001
 21
120.1449999999999
 31
0.0
  0
LINE
  5
E3
  8
0
 62
     7
 10
82.516800000000003
 20
125.363
 30
0.0
 11
82.516800000000003
 21
120.1449999999999
 31
0.0
  0
LINE
  5
E4
  8
0
 62
     7
 10
93.5167
 20
126.265
 30
0.0
 11
93.5167
 21
128.2649999999999
 31
0.0
  0
ARC
  5
E5
  8
0
 62
     7
 10
60.852041
 20
130.10089799999989
 30
0.0
 40
21.253332999999991
 50
211.16183099999989
 51
222.59192799999991
  0
ARC
  5
E6
  8
0
 62
     7
 10
58.908583999999991
 20
128.4785479999999
 30
0.0
 40
18.725003000000001
 50
222.9619129999999
 51
247.5756559999999
  0
ARC
  5
E7
  8
0
 62
     7
 10
60.404237999999999
 20
131.82499899999991
 30
0.0
 40
22.389198
 50
247.30436499999999
 51
256.83085499999987
  0
ARC
  5
E8
  8
0
 62
     7
 10
62.074481999999989
 20
138.30968100000001
 30
0.0
 40
29.084250000000001
 50
256.53745199999997
 51
263.59848899999997
  0
ARC
  5
E9
  8
0
 62
     7
 10
63.384636
 20
148.06373199999999
 30
0.0
 40
38.924151000000002
 50
263.28281399999997
 51
265.40570099999991
  0
ARC
  5
EA
  8
0
 62
     7
 10
144.93275
 20
134.46898499999989
 30
0.0
 40
24.27362999999999
 50
219.235727
 51
228.84337199999999
  0
ARC
  5
EB
  8
0
 62
     7
 10
148.25220699999991
 20
138.066295
 30
0.0
 40
29.166990999999989
 50
228.58445800000001
 51
238.60406499999991
  0
ARC
  5
EC
  8
0
 62
     7
 10
149.68838400000001
 20
140.1697969999999
 30
0.0
 40
31.710955999999999
 50
238.3690269999999
 51
249.542147
  0
ARC
  5
ED
  8
0
 62
     7
 10
147.2828879999999
 20
134.01955799999999
 30
0.0
 40
25.108066000000001
 50
249.779833
 51
255.145689
  0
ARC
  5
EE
  8
0
 62
     7
 10
145.45092299999999
 20
127.35741299999989
 30
0.0
 40
18.19902699999999
 50
255.34346400000001
 51
260.20108900000002
  0
ARC
  5
EF
  8
0
 62
     7
 10
144.368865
 20
121.30894499999999
 30
0.0
 40
12.054698999999999
 50
260.37636600000002
 51
266.66662699999989
  0
ARC
  5
F0
  8
0
 62
     7
 10
144.063142
 20
117.08381299999991
 30
0.0
 40
7.8191660000000001
 50
267.10285599999997
 51
269.94914099999988
  0
ARC
  5
F1
  8
0
 62
     7
 10
147.47686399999989
 20
138.13928799999991
 30
0.0
 40
30.920759
 50
217.618728
 51
234.04904500000001
  0
ARC
  5
F2
  8
0
 62
     7
 10
149.84250800000001
 20
141.17445699999999
 30
0.0
 40
34.766894999999991
 50
233.829679
 51
244.13540399999991
  0
ARC
  5
F3
  8
0
 62
     7
 10
152.27259399999991
 20
145.873187
 30
0.0
 40
40.05529099999999
 50
243.93964399999999
 51
252.14274399999999
  0
ARC
  5
F4
  8
0
 62
     7
 10
154.231595
 20
151.50560699999991
 30
0.0
 40
46.017285999999999
 50
251.97159500000001
 51
257.58113900000001
  0
ARC
  5
F5
  8
0
 62
     7
 10
119.98482199999999
 20
127.76492999999989
 30
0.0
 40
0.5002310000000002
 50
90.0
 51
179.99996999999991
  0
LINE
  5
F6
  8
0
 62
     7
 10
119.4849999999999
 20
126.265
 30
0.0
 11
166.48500000000001
 21
126.265
 31
0.0
  0
LINE
  5
F7
  8
0
 62
     7
 10
104.7979999999999
 20
107.97499999999989
 30
0.0
 11
105.39
 21
105.7649999999999
 31
0.0
  0
LINE
  5
F8
  8
0
 62
     7
 10
105.39
 20
105.7649999999999
 30
0.0
 11
105.982
 21
107.97499999999989
 31
0.0
  0
LINE
  5
F9
  8
0
 62
     7
 10
105.982
 20
107.97499999999989
 30
0.0
 11
104.7979999999999
 21
107.97499999999989
 31
0.0
  0
LINE
  5
FA
  8
0
 62
     7
 10
105.9679999999999
 20
126.05500000000001
 30
0.0
 11
105.376
 21
128.2649999999999
 31
0.0
  0
LINE
  5
FB
  8
0
 62
     7
 10
105.376
 20
128.2649999999999
 30
0.0
 11
104.7829999999999
 21
126.05500000000001
 31
0.0
  0
LINE
  5
FC
  8
0
 62
     7
 10
104.7829999999999
 20
126.05500000000001
 30
0.0
 11
105.9679999999999
 21
126.05500000000001
 31
0.0
  0
LINE
  5
FD
  8
0
 62
     7
 10
105.383
 20
105.7649999999999
 30
0.0
 11
105.383
 21
128.2649999999999
 31
0.0
  0
LINE
  5
FE
  8
0
 62
     7
 10
106.045
 20
105.7649999999999
 30
0.0
 11
69.948599999999999
 21
105.7649999999999
 31
0.0
  0
LINE
  5
FF
  8
0
 62
     7
 10
106.045
 20
128.2649999999999
 30
0.0
 11
94.739699999999985
 21
128.2649999999999
 31
0.0
  0
LINE
  5
100
  8
0
 62
     7
 10
98.551400000000001
 20
130.47599999999991
 30
0.0
 11
99.143600000000021
 21
128.2649999999999
 31
0.0
  0
LINE
  5
101
  8
0
 62
     7
 10
99.143600000000021
 20
128.2649999999999
 30
0.0
 11
99.736000000000004
 21
130.47599999999991
 31
0.0
  0
LINE
  5
102
  8
0
 62
     7
 10
99.736000000000004
 20
130.47599999999991
 30
0.0
 11
98.551400000000001
 21
130.47599999999991
 31
0.0
  0
LINE
  5
103
  8
0
 62
     7
 10
99.721299999999985
 20
124.0539999999999
 30
0.0
 11
99.129099999999994
 21
126.265
 31
0.0
  0
LINE
  5
104
  8
0
 62
     7
 10
99.129099999999994
 20
126.265
 30
0.0
 11
98.53670000000001
 21
124.0539999999999
 31
0.0
  0
LINE
  5
105
  8
0
 62
     7
 10
98.53670000000001
 20
124.0539999999999
 30
0.0
 11
99.721299999999985
 21
124.0539999999999
 31
0.0
  0
LINE
  5
106
  8
0
 62
     7
 10
99.136300000000006
 20
123.08199999999999
 30
0.0
 11
99.136300000000006
 21
134.46299999999991
 31
0.0
  0
LINE
  5
107
  8
0
 62
     7
 10
99.798199999999994
 20
126.265
 30
0.0
 11
94.739699999999985
 21
126.265
 31
0.0
  0
LINE
  5
108
  8
0
 62
     7
 10
39.01659999999999
 20
119.2649999999999
 30
0.0
 11
56.083100000000002
 21
119.2649999999999
 31
0.0
  0
ARC
  5
109
  8
0
 62
     7
 10
42.293984999999999
 20
118.75830000000001
 30
0.0
 40
0.506844
 50
42.884050999999999
 51
89.688744999999997
  0
LINE
  5
10A
  8
0
 62
     7
 10
55.951099999999997
 20
125.05500000000001
 30
0.0
 11
55.358899999999998
 21
127.265
 31
0.0
  0
LINE
  5
10B
  8
0
 62
     7
 10
55.358899999999998
 20
127.265
 30
0.0
 11
54.766500000000001
 21
125.05500000000001
 31
0.0
  0
LINE
  5
10C
  8
0
 62
     7
 10
54.766500000000001
 20
125.05500000000001
 30
0.0
 11
55.951099999999997
 21
125.05500000000001
 31
0.0
  0
LINE
  5
10D
  8
0
 62
     7
 10
54.781199999999998
 20
130.47599999999991
 30
0.0
 11
55.373399999999997
 21
128.2649999999999
 31
0.0
  0
LINE
  5
10E
  8
0
 62
     7
 10
55.373399999999997
 20
128.2649999999999
 30
0.0
 11
55.965800000000002
 21
130.47599999999991
 31
0.0
  0
LINE
  5
10F
  8
0
 62
     7
 10
55.965800000000002
 20
130.47599999999991
 30
0.0
 11
54.781199999999998
 21
130.47599999999991
 31
0.0
  0
LINE
  5
110
  8
0
 62
     7
 10
55.366100000000003
 20
133.98400000000001
 30
0.0
 11
55.366100000000003
 21
124.224
 31
0.0
  0
LINE
  5
111
  8
0
  6
AIGENLINE002
 62
     7
 10
53.416499999999999
 20
127.265
 30
0.0
 11
75.616500000000002
 21
127.265
 31
0.0
  0
LINE
  5
112
  8
0
 62
     7
 10
46.5167
 20
125.363
 30
0.0
 11
46.5167
 21
120.1449999999999
 31
0.0
  0
LINE
  5
113
  8
0
 62
     7
 10
68.267099999999999
 20
108.765
 30
0.0
 11
68.267099999999999
 21
106.265
 31
0.0
  0
ARC
  5
114
  8
0
 62
     7
 10
68.786237999999983
 20
108.7454649999999
 30
0.0
 40
0.519543
 50
92.127295000000004
 51
177.83317500000001
  0
LINE
  5
115
  8
0
 62
     7
 10
61.266899999999993
 20
105.7649999999999
 30
0.0
 11
67.766800000000003
 21
105.7649999999999
 31
0.0
  0
ARC
  5
116
  8
0
 62
     7
 10
67.747557999999998
 20
106.28463499999999
 30
0.0
 40
0.5198920000000001
 50
272.12490400000002
 51
357.796131
  0
LINE
  5
117
  8
0
 62
     7
 10
68.766599999999997
 20
126.265
 30
0.0
 11
66.8125
 21
107.014
 31
0.0
  0
LINE
  5
118
  8
0
 62
     7
 10
62.718699999999991
 20
106.5649999999999
 30
0.0
 11
66.315100000000001
 21
106.5649999999999
 31
0.0
  0
ARC
  5
119
  8
0
 62
     7
 10
66.299528000000009
 20
107.08232199999991
 30
0.0
 40
0.517499
 50
271.72018300000002
 51
352.44687299999993
  0
LINE
  5
11A
  8
0
 62
     7
 10
60.266800000000003
 20
126.265
 30
0.0
 11
62.221200000000003
 21
107.014
 31
0.0
  0
ARC
  5
11B
  8
0
 62
     7
 10
62.734152999999999
 20
107.082227
 30
0.0
 40
0.5174020000000001
 50
187.54394500000001
 51
268.289039
  0
LINE
  5
11C
  8
0
 62
     7
 10
60.766999999999989
 20
108.765
 30
0.0
 11
60.766999999999989
 21
106.265
 31
0.0
  0
ARC
  5
11D
  8
0
 62
     7
 10
61.285907999999999
 20
106.2839759999999
 30
0.0
 40
0.5192230000000001
 50
182.13401799999991
 51
267.90551299999998
  0
ARC
  5
11E
  8
0
 62
     7
 10
60.248192000000003
 20
108.74576999999989
 30
0.0
 40
0.5192140000000001
 50
2.1344500000000002
 51
87.944513999999984
  0
LINE
  5
11F
  8
0
 62
     7
 10
57.516899999999993
 20
126.265
 30
0.0
 11
56.578099999999999
 21
119.694
 31
0.0
  0
LINE
  5
120
  8
0
 62
     7
 10
38.016500000000001
 20
120.2649999999999
 30
0.0
 11
38.016500000000001
 21
126.265
 31
0.0
  0
LINE
  5
121
  8
0
  6
AIGENLINE001
 62
     7
 10
64.5167
 20
130.26400000000001
 30
0.0
 11
64.5167
 21
103.8629999999999
 31
0.0
  0
LINE
  5
122
  8
0
 62
     7
 10
35.5167
 20
126.265
 30
0.0
 11
35.5167
 21
128.2649999999999
 31
0.0
  0
LINE
  5
123
  8
0
 62
     7
 10
35.5167
 20
126.265
 30
0.0
 11
93.5167
 21
126.265
 31
0.0
  0
LINE
  5
124
  8
0
 62
     7
 10
35.5167
 20
128.2649999999999
 30
0.0
 11
93.5167
 21
128.2649999999999
 31
0.0
  0
LINE
  5
125
  8
0
 62
     7
 10
70.179100000000005
 20
200.73699999999991
 30
0.0
 11
76.845799999999997
 21
200.73699999999991
 31
0.0
  0
LINE
  5
126
  8
0
 62
     7
 10
77.279499999999985
 20
229.15199999999999
 30
0.0
 11
83.817499999999995
 21
229.15199999999999
 31
0.0
  0
LINE
  5
127
  8
0
 62
     7
 10
67.292299999999997
 20
202.78599999999989
 30
0.0
 11
66.147999999999996
 21
204.768
 31
0.0
  0
LINE
  5
128
  8
0
 62
     7
 10
66.147999999999996
 20
204.768
 30
0.0
 11
68.129900000000006
 21
203.624
 31
0.0
  0
LINE
  5
129
  8
0
 62
     7
 10
68.129900000000006
 20
203.624
 30
0.0
 11
67.292299999999997
 21
202.78599999999989
 31
0.0
  0
LINE
  5
12A
  8
0
 62
     7
 10
61.746099999999998
 20
209.99700000000001
 30
0.0
 11
62.890399999999993
 21
208.0149999999999
 31
0.0
  0
LINE
  5
12B
  8
0
 62
     7
 10
62.890399999999993
 20
208.0149999999999
 30
0.0
 11
60.908499999999989
 21
209.15899999999999
 31
0.0
  0
LINE
  5
12C
  8
0
 62
     7
 10
60.908499999999989
 20
209.15899999999999
 30
0.0
 11
61.746099999999998
 21
209.99700000000001
 31
0.0
  0
LINE
  5
12D
  8
0
 62
     7
 10
60.048699999999997
 20
210.86699999999999
 30
0.0
 11
70.179100000000005
 21
200.73699999999991
 31
0.0
  0
LINE
  5
12E
  8
0
 62
     7
 10
62.130099999999999
 20
213.17500000000001
 30
0.0
 11
63.2744
 21
215.1569999999999
 31
0.0
  0
LINE
  5
12F
  8
0
 62
     7
 10
63.2744
 20
215.1569999999999
 30
0.0
 11
61.292400000000001
 21
214.01300000000001
 31
0.0
  0
LINE
  5
130
  8
0
 62
     7
 10
61.292400000000001
 20
214.01300000000001
 30
0.0
 11
62.130099999999999
 21
213.17500000000001
 31
0.0
  0
LINE
  5
131
  8
0
 62
     7
 10
66.903300000000002
 20
219.60299999999989
 30
0.0
 11
65.759
 21
217.6209999999999
 31
0.0
  0
LINE
  5
132
  8
0
 62
     7
 10
65.759
 20
217.6209999999999
 30
0.0
 11
67.741
 21
218.76499999999999
 31
0.0
  0
LINE
  5
133
  8
0
 62
     7
 10
67.741
 20
218.76499999999999
 30
0.0
 11
66.903300000000002
 21
219.60299999999989
 31
0.0
  0
LINE
  5
134
  8
0
 62
     7
 10
77.279499999999985
 20
229.15199999999999
 30
0.0
 11
61.145000000000003
 21
213.017
 31
0.0
  0
LINE
  5
135
  8
0
 62
     7
 10
88.516799999999989
 20
169.089
 30
0.0
 11
88.516799999999989
 21
187.79099999999991
 31
0.0
  0
LINE
  5
136
  8
0
 62
     7
 10
40.516300000000001
 20
169.089
 30
0.0
 11
40.516300000000001
 21
187.79099999999991
 31
0.0
  0
LINE
  5
137
  8
0
 62
     7
 10
42.726700000000001
 20
170.48199999999991
 30
0.0
 11
40.516300000000001
 21
169.8899999999999
 31
0.0
  0
LINE
  5
138
  8
0
 62
     7
 10
40.516300000000001
 20
169.8899999999999
 30
0.0
 11
42.726700000000001
 21
169.298
 31
0.0
  0
LINE
  5
139
  8
0
 62
     7
 10
42.726700000000001
 20
169.298
 30
0.0
 11
42.726700000000001
 21
170.48199999999991
 31
0.0
  0
LINE
  5
13A
  8
0
 62
     7
 10
86.305999999999983
 20
169.31200000000001
 30
0.0
 11
88.516599999999997
 21
169.904
 31
0.0
  0
LINE
  5
13B
  8
0
 62
     7
 10
88.516599999999997
 20
169.904
 30
0.0
 11
86.305999999999983
 21
170.49700000000001
 31
0.0
  0
LINE
  5
13C
  8
0
 62
     7
 10
86.305999999999983
 20
170.49700000000001
 30
0.0
 11
86.305999999999983
 21
169.31200000000001
 31
0.0
  0
LINE
  5
13D
  8
0
 62
     7
 10
40.516300000000001
 20
169.89699999999999
 30
0.0
 11
88.516799999999989
 21
169.89699999999999
 31
0.0
  0
LINE
  5
13E
  8
0
 62
     7
 10
35.5167
 20
161.4189999999999
 30
0.0
 11
35.5167
 21
185.99799999999999
 31
0.0
  0
LINE
  5
13F
  8
0
 62
     7
 10
93.5167
 20
161.4189999999999
 30
0.0
 11
93.5167
 21
185.99799999999999
 31
0.0
  0
LINE
  5
140
  8
0
 62
     7
 10
37.7271
 20
162.8129999999999
 30
0.0
 11
35.5167
 21
162.221
 31
0.0
  0
LINE
  5
141
  8
0
 62
     7
 10
35.5167
 20
162.221
 30
0.0
 11
37.7271
 21
161.62899999999999
 31
0.0
  0
LINE
  5
142
  8
0
 62
     7
 10
37.7271
 20
161.62899999999999
 30
0.0
 11
37.7271
 21
162.8129999999999
 31
0.0
  0
LINE
  5
143
  8
0
 62
     7
 10
91.305899999999994
 20
161.643
 30
0.0
 11
93.516499999999994
 21
162.23599999999999
 31
0.0
  0
LINE
  5
144
  8
0
 62
     7
 10
93.516499999999994
 20
162.23599999999999
 30
0.0
 11
91.305899999999994
 21
162.828
 31
0.0
  0
LINE
  5
145
  8
0
 62
     7
 10
91.305899999999994
 20
162.828
 30
0.0
 11
91.305899999999994
 21
161.643
 31
0.0
  0
LINE
  5
146
  8
0
 62
     7
 10
35.5167
 20
162.22799999999989
 30
0.0
 11
93.5167
 21
162.22799999999989
 31
0.0
  0
LINE
  5
147
  8
0
 62
     7
 10
62.306199999999997
 20
230.33299999999991
 30
0.0
 11
64.5167
 21
230.92500000000001
 31
0.0
  0
LINE
  5
148
  8
0
 62
     7
 10
64.5167
 20
230.92500000000001
 30
0.0
 11
62.306199999999997
 21
231.518
 31
0.0
  0
LINE
  5
149
  8
0
 62
     7
 10
62.306199999999997
 20
231.518
 30
0.0
 11
62.306199999999997
 21
230.33299999999991
 31
0.0
  0
LINE
  5
14A
  8
0
 62
     7
 10
72.306100000000001
 20
230.33299999999991
 30
0.0
 11
74.5167
 21
230.92500000000001
 31
0.0
  0
LINE
  5
14B
  8
0
 62
     7
 10
74.5167
 20
230.92500000000001
 30
0.0
 11
72.306100000000001
 21
231.518
 31
0.0
  0
LINE
  5
14C
  8
0
 62
     7
 10
72.306100000000001
 20
231.518
 30
0.0
 11
72.306100000000001
 21
230.33299999999991
 31
0.0
  0
LINE
  5
14D
  8
0
 62
     7
 10
66.727099999999993
 20
231.5029999999999
 30
0.0
 11
64.5167
 21
230.91099999999989
 31
0.0
  0
LINE
  5
14E
  8
0
 62
     7
 10
64.5167
 20
230.91099999999989
 30
0.0
 11
66.727099999999993
 21
230.3179999999999
 31
0.0
  0
LINE
  5
14F
  8
0
 62
     7
 10
66.727099999999993
 20
230.3179999999999
 30
0.0
 11
66.727099999999993
 21
231.5029999999999
 31
0.0
  0
LINE
  5
150
  8
0
 62
     7
 10
56.72699999999999
 20
231.5029999999999
 30
0.0
 11
54.516599999999997
 21
230.91099999999989
 31
0.0
  0
LINE
  5
151
  8
0
 62
     7
 10
54.516599999999997
 20
230.91099999999989
 30
0.0
 11
56.72699999999999
 21
230.3179999999999
 31
0.0
  0
LINE
  5
152
  8
0
 62
     7
 10
56.72699999999999
 20
230.3179999999999
 30
0.0
 11
56.72699999999999
 21
231.5029999999999
 31
0.0
  0
LINE
  5
153
  8
0
 62
     7
 10
74.516900000000007
 20
230.91800000000001
 30
0.0
 11
54.516599999999997
 21
230.91800000000001
 31
0.0
  0
LINE
  5
154
  8
0
 62
     7
 10
54.516599999999997
 20
220.095
 30
0.0
 11
54.516599999999997
 21
231.65299999999991
 31
0.0
  0
LINE
  5
155
  8
0
 62
     7
 10
64.5167
 20
227.10900000000001
 30
0.0
 11
64.5167
 21
231.65299999999991
 31
0.0
  0
LINE
  5
156
  8
0
 62
     7
 10
74.516900000000007
 20
220.095
 30
0.0
 11
74.516900000000007
 21
231.65299999999991
 31
0.0
  0
LINE
  5
157
  8
0
 62
     7
 10
101.0809999999999
 20
180.17799999999991
 30
0.0
 11
100.4889999999999
 21
182.38900000000001
 31
0.0
  0
LINE
  5
158
  8
0
 62
     7
 10
100.4889999999999
 20
182.38900000000001
 30
0.0
 11
99.896199999999993
 21
180.17799999999991
 31
0.0
  0
LINE
  5
159
  8
0
 62
     7
 10
99.896199999999993
 20
180.17799999999991
 30
0.0
 11
101.0809999999999
 21
180.17799999999991
 31
0.0
  0
LINE
  5
15A
  8
0
 62
     7
 10
101.0809999999999
 20
210.179
 30
0.0
 11
100.4889999999999
 21
212.38900000000001
 31
0.0
  0
LINE
  5
15B
  8
0
 62
     7
 10
100.4889999999999
 20
212.38900000000001
 30
0.0
 11
99.896199999999993
 21
210.179
 31
0.0
  0
LINE
  5
15C
  8
0
 62
     7
 10
99.896199999999993
 20
210.179
 30
0.0
 11
101.0809999999999
 21
210.179
 31
0.0
  0
LINE
  5
15D
  8
0
 62
     7
 10
101.0809999999999
 20
222.17899999999989
 30
0.0
 11
100.4889999999999
 21
224.3889999999999
 31
0.0
  0
LINE
  5
15E
  8
0
 62
     7
 10
100.4889999999999
 20
224.3889999999999
 30
0.0
 11
99.896199999999993
 21
222.17899999999989
 31
0.0
  0
LINE
  5
15F
  8
0
 62
     7
 10
99.896199999999993
 20
222.17899999999989
 30
0.0
 11
101.0809999999999
 21
222.17899999999989
 31
0.0
  0
LINE
  5
160
  8
0
 62
     7
 10
99.910799999999995
 20
218.59899999999999
 30
0.0
 11
100.5029999999999
 21
216.38900000000001
 31
0.0
  0
LINE
  5
161
  8
0
 62
     7
 10
100.5029999999999
 20
216.38900000000001
 30
0.0
 11
101.095
 21
218.59899999999999
 31
0.0
  0
LINE
  5
162
  8
0
 62
     7
 10
101.095
 20
218.59899999999999
 30
0.0
 11
99.910799999999995
 21
218.59899999999999
 31
0.0
  0
LINE
  5
163
  8
0
 62
     7
 10
99.910799999999995
 20
184.59899999999999
 30
0.0
 11
100.5029999999999
 21
182.38900000000001
 31
0.0
  0
LINE
  5
164
  8
0
 62
     7
 10
100.5029999999999
 20
182.38900000000001
 30
0.0
 11
101.095
 21
184.59899999999999
 31
0.0
  0
LINE
  5
165
  8
0
 62
     7
 10
101.095
 20
184.59899999999999
 30
0.0
 11
99.910799999999995
 21
184.59899999999999
 31
0.0
  0
LINE
  5
166
  8
0
 62
     7
 10
99.910799999999995
 20
179.59899999999999
 30
0.0
 11
100.5029999999999
 21
177.38900000000001
 31
0.0
  0
LINE
  5
167
  8
0
 62
     7
 10
100.5029999999999
 20
177.38900000000001
 30
0.0
 11
101.095
 21
179.59899999999999
 31
0.0
  0
LINE
  5
168
  8
0
 62
     7
 10
101.095
 20
179.59899999999999
 30
0.0
 11
99.910799999999995
 21
179.59899999999999
 31
0.0
  0
LINE
  5
169
  8
0
 62
     7
 10
100.496
 20
224.3889999999999
 30
0.0
 11
100.496
 21
177.38900000000001
 31
0.0
  0
LINE
  5
16A
  8
0
 62
     7
 10
107.922
 20
222.17899999999989
 30
0.0
 11
107.3299999999999
 21
224.3889999999999
 31
0.0
  0
LINE
  5
16B
  8
0
 62
     7
 10
107.3299999999999
 20
224.3889999999999
 30
0.0
 11
106.7379999999999
 21
222.17899999999989
 31
0.0
  0
LINE
  5
16C
  8
0
 62
     7
 10
106.7379999999999
 20
222.17899999999989
 30
0.0
 11
107.922
 21
222.17899999999989
 31
0.0
  0
LINE
  5
16D
  8
0
 62
     7
 10
106.752
 20
179.59899999999999
 30
0.0
 11
107.345
 21
177.38900000000001
 31
0.0
  0
LINE
  5
16E
  8
0
 62
     7
 10
107.345
 20
177.38900000000001
 30
0.0
 11
107.937
 21
179.59899999999999
 31
0.0
  0
LINE
  5
16F
  8
0
 62
     7
 10
107.937
 20
179.59899999999999
 30
0.0
 11
106.752
 21
179.59899999999999
 31
0.0
  0
LINE
  5
170
  8
0
 62
     7
 10
107.337
 20
224.3889999999999
 30
0.0
 11
107.337
 21
177.38900000000001
 31
0.0
  0
LINE
  5
171
  8
0
 62
     7
 10
108.07299999999989
 20
177.38900000000001
 30
0.0
 11
85.233599999999996
 21
177.38900000000001
 31
0.0
  0
LINE
  5
172
  8
0
 62
     7
 10
101.23099999999999
 20
182.38900000000001
 30
0.0
 11
83.014899999999983
 21
182.38900000000001
 31
0.0
  0
LINE
  5
173
  8
0
 62
     7
 10
101.23099999999999
 20
212.38900000000001
 30
0.0
 11
83.158199999999994
 21
212.38900000000001
 31
0.0
  0
LINE
  5
174
  8
0
 62
     7
 10
101.23099999999999
 20
216.38900000000001
 30
0.0
 11
78.434600000000003
 21
216.38900000000001
 31
0.0
  0
LINE
  5
175
  8
0
 62
     7
 10
108.07299999999989
 20
224.3889999999999
 30
0.0
 11
85.233599999999996
 21
224.3889999999999
 31
0.0
  0
LINE
  5
176
  8
0
 62
     7
 10
83.102400000000003
 20
177.38900000000001
 30
0.0
 11
64.5167
 21
177.38900000000001
 31
0.0
  0
LINE
  5
177
  8
0
 62
     7
 10
83.809399999999997
 20
177.68199999999999
 30
0.0
 11
93.223799999999997
 21
187.09599999999989
 31
0.0
  0
ARC
  5
178
  8
0
 62
     7
 10
83.097086000000004
 20
178.4015489999999
 30
0.0
 40
1.012646999999999
 50
270.30234799999999
 51
314.699277
  0
LINE
  5
179
  8
0
 62
     7
 10
83.063800000000001
 20
179.482
 30
0.0
 11
91.423800000000014
 21
187.84200000000001
 31
0.0
  0
ARC
  5
17A
  8
0
 62
     7
 10
82.351551000000001
 20
180.20165
 30
0.0
 40
1.0126749999999991
 50
270.30298099999987
 51
314.698644
  0
LINE
  5
17B
  8
0
 62
     7
 10
81.809100000000001
 20
182.68199999999999
 30
0.0
 11
88.223600000000005
 21
189.09599999999989
 31
0.0
  0
ARC
  5
17C
  8
0
 62
     7
 10
81.096851000000001
 20
183.40144799999999
 30
0.0
 40
1.012646999999999
 50
270.30234799999999
 51
314.699277
  0
LINE
  5
17D
  8
0
 62
     7
 10
93.5167
 20
213.97499999999991
 30
0.0
 11
93.5167
 21
187.803
 31
0.0
  0
ARC
  5
17E
  8
0
 62
     7
 10
92.503464000000008
 20
187.8083959999999
 30
0.0
 40
1.013225
 50
315.31420400000002
 51
359.70392799999991
  0
LINE
  5
17F
  8
0
 62
     7
 10
88.516400000000004
 20
205.92899999999989
 30
0.0
 11
88.516400000000004
 21
189.803
 31
0.0
  0
ARC
  5
180
  8
0
 62
     7
 10
87.504710000000003
 20
189.80801700000001
 30
0.0
 40
1.0117329999999991
 50
315.27960899999988
 51
359.71878599999991
  0
LINE
  5
181
  8
0
 62
     7
 10
91.716600000000014
 20
213.22900000000001
 30
0.0
 11
91.716600000000014
 21
188.54900000000001
 31
0.0
  0
ARC
  5
182
  8
0
 62
     7
 10
90.703401000000014
 20
188.55426199999999
 30
0.0
 40
1.0132149999999991
 50
315.31383799999992
 51
359.68455699999993
  0
LINE
  5
183
  8
0
 62
     7
 10
81.797399999999996
 20
212.148
 30
0.0
 11
88.167400000000015
 21
206.6879999999999
 31
0.0
  0
ARC
  5
184
  8
0
 62
     7
 10
87.502201999999997
 20
205.92265
 30
0.0
 40
1.0142489999999991
 50
0.356232
 51
49.012571000000001
  0
ARC
  5
185
  8
0
 62
     7
 10
81.145023999999992
 20
211.38368999999989
 30
0.0
 40
1.0052069999999991
 50
49.532575999999999
 51
89.908092000000025
  0
LINE
  5
186
  8
0
 62
     7
 10
83.063800000000001
 20
222.29599999999999
 30
0.0
 11
91.423800000000014
 21
213.93599999999989
 31
0.0
  0
ARC
  5
187
  8
0
 62
     7
 10
90.703142
 20
213.2238209999999
 30
0.0
 40
1.013472999999999
 50
0.3018
 51
44.680069000000003
  0
LINE
  5
188
  8
0
 62
     7
 10
83.809399999999997
 20
224.09599999999989
 30
0.0
 11
93.223799999999997
 21
214.68199999999999
 31
0.0
  0
ARC
  5
189
  8
0
 62
     7
 10
92.503999999999991
 20
213.9696669999999
 30
0.0
 40
1.0126879999999989
 50
0.303288
 51
44.698316999999989
  0
ARC
  5
18A
  8
0
 62
     7
 10
82.351308999999986
 20
221.57594800000001
 30
0.0
 40
1.013264999999999
 50
45.315117000000001
 51
89.702994000000004
  0
ARC
  5
18B
  8
0
 62
     7
 10
83.098444999999998
 20
223.38076199999989
 30
0.0
 40
1.008518
 50
45.177084999999998
 51
89.773633999999987
  0
LINE
  5
18C
  8
0
 62
     7
 10
45.930999999999997
 20
177.38900000000001
 30
0.0
 11
64.5167
 21
177.38900000000001
 31
0.0
  0
LINE
  5
18D
  8
0
 62
     7
 10
45.223700000000001
 20
177.68199999999999
 30
0.0
 11
35.809600000000003
 21
187.09599999999989
 31
0.0
  0
ARC
  5
18E
  8
0
 62
     7
 10
45.935019999999987
 20
178.39920900000001
 30
0.0
 40
1.0103009999999999
 50
225.24655899999991
 51
269.77159199999988
  0
LINE
  5
18F
  8
0
 62
     7
 10
46.676499999999997
 20
179.18899999999999
 30
0.0
 11
82.356899999999996
 21
179.18899999999999
 31
0.0
  0
LINE
  5
190
  8
0
 62
     7
 10
45.969199999999987
 20
179.482
 30
0.0
 11
37.609299999999998
 21
187.84200000000001
 31
0.0
  0
ARC
  5
191
  8
0
 62
     7
 10
46.681752000000003
 20
180.20220099999989
 30
0.0
 40
1.013225
 50
225.31421399999999
 51
269.70393799999999
  0
LINE
  5
192
  8
0
 62
     7
 10
47.930900000000001
 20
182.38900000000001
 30
0.0
 11
81.102199999999996
 21
182.38900000000001
 31
0.0
  0
LINE
  5
193
  8
0
 62
     7
 10
47.223899999999993
 20
182.68199999999999
 30
0.0
 11
40.8095
 21
189.09599999999989
 31
0.0
  0
ARC
  5
194
  8
0
 62
     7
 10
47.936478000000001
 20
183.40205399999999
 30
0.0
 40
1.013255
 50
225.314772
 51
269.68364300000002
  0
LINE
  5
195
  8
0
 62
     7
 10
35.51639999999999
 20
213.97499999999991
 30
0.0
 11
35.51639999999999
 21
187.803
 31
0.0
  0
ARC
  5
196
  8
0
 62
     7
 10
36.529035999999998
 20
187.80850799999999
 30
0.0
 40
1.012646999999999
 50
180.302559
 51
224.72698999999989
  0
LINE
  5
197
  8
0
 62
     7
 10
40.516599999999997
 20
205.92899999999989
 30
0.0
 11
40.516599999999997
 21
189.803
 31
0.0
  0
ARC
  5
198
  8
0
 62
     7
 10
41.529265999999993
 20
189.80838899999989
 30
0.0
 40
1.012634
 50
180.302041
 51
224.69960299999991
  0
LINE
  5
199
  8
0
 62
     7
 10
37.316499999999998
 20
213.22900000000001
 30
0.0
 11
37.316499999999998
 21
188.54900000000001
 31
0.0
  0
ARC
  5
19A
  8
0
 62
     7
 10
38.329096
 20
188.554022
 30
0.0
 40
1.012634
 50
180.302041
 51
224.69960299999991
  0
LINE
  5
19B
  8
0
 62
     7
 10
47.235700000000001
 20
212.148
 30
0.0
 11
40.865600000000001
 21
206.6879999999999
 31
0.0
  0
ARC
  5
19C
  8
0
 62
     7
 10
41.527295999999993
 20
205.92399499999991
 30
0.0
 40
1.0106619999999999
 50
130.86948799999999
 51
179.71875199999999
  0
LINE
  5
19D
  8
0
 62
     7
 10
47.886400000000002
 20
212.38900000000001
 30
0.0
 11
81.146600000000007
 21
212.38900000000001
 31
0.0
  0
ARC
  5
19E
  8
0
 62
     7
 10
47.891162999999992
 20
211.37527299999991
 30
0.0
 40
1.013633999999999
 50
90.266928000000007
 51
130.2923649999999
  0
LINE
  5
19F
  8
0
 62
     7
 10
45.969199999999987
 20
222.29599999999999
 30
0.0
 11
37.609299999999998
 21
213.93599999999989
 31
0.0
  0
ARC
  5
1A0
  8
0
 62
     7
 10
38.331171999999988
 20
213.22330899999989
 30
0.0
 40
1.0147129999999991
 50
135.34845699999991
 51
179.669634
  0
LINE
  5
1A1
  8
0
 62
     7
 10
45.223700000000001
 20
224.09599999999989
 30
0.0
 11
35.809600000000003
 21
214.68199999999999
 31
0.0
  0
ARC
  5
1A2
  8
0
 62
     7
 10
36.530777999999998
 20
213.9686109999999
 30
0.0
 40
1.0143949999999999
 50
135.313141
 51
179.63755800000001
  0
LINE
  5
1A3
  8
0
 62
     7
 10
46.676499999999997
 20
222.589
 30
0.0
 11
82.356600000000014
 21
222.589
 31
0.0
  0
ARC
  5
1A4
  8
0
 62
     7
 10
46.68186
 20
221.57572599999989
 30
0.0
 40
1.013487
 50
90.302106000000009
 51
134.679743
  0
LINE
  5
1A5
  8
0
 62
     7
 10
45.930999999999997
 20
224.3889999999999
 30
0.0
 11
83.102400000000003
 21
224.3889999999999
 31
0.0
  0
ARC
  5
1A6
  8
0
 62
     7
 10
45.936345000000003
 20
223.3766259999999
 30
0.0
 40
1.012661
 50
90.302844999999976
 51
134.72664399999999
  0
LINE
  5
1A7
  8
0
  6
AIGENLINE001
 62
     7
 10
136.387
 20
206.38900000000001
 30
0.0
 11
147.17099999999991
 21
206.38900000000001
 31
0.0
  0
ARC
  5
1A8
  8
0
  6
AIGENLINE002
 62
     7
 10
141.69216
 20
206.38853399999999
 30
0.0
 40
3.7500110000000002
 50
0.00001
 51
89.999980000000008
  0
ARC
  5
1A9
  8
0
  6
AIGENLINE002
 62
     7
 10
141.692162
 20
206.38853399999999
 30
0.0
 40
3.7500110000000002
 50
90.0
 51
179.99996999999991
  0
ARC
  5
1AA
  8
0
  6
AIGENLINE002
 62
     7
 10
141.69216
 20
206.38853399999999
 30
0.0
 40
3.750008999999999
 50
179.99996999999991
 51
270.00002000000001
  0
ARC
  5
1AB
  8
0
  6
AIGENLINE002
 62
     7
 10
141.69216
 20
206.38853499999999
 30
0.0
 40
3.7500110000000002
 50
270.00002000000001
 51
359.99998999999991
  0
ARC
  5
1AC
  8
0
  6
AIGENLINE002
 62
     7
 10
141.69216099999991
 20
206.38853399999999
 30
0.0
 40
2.2999610000000001
 50
0.00001
 51
89.999980000000008
  0
ARC
  5
1AD
  8
0
  6
AIGENLINE002
 62
     7
 10
141.69216099999991
 20
206.38853399999999
 30
0.0
 40
2.2999610000000001
 50
90.0
 51
179.99996999999991
  0
ARC
  5
1AE
  8
0
  6
AIGENLINE002
 62
     7
 10
141.69216099999991
 20
206.38853399999999
 30
0.0
 40
2.29996
 50
179.99996999999991
 51
270.00002000000001
  0
ARC
  5
1AF
  8
0
  6
AIGENLINE002
 62
     7
 10
141.69216099999991
 20
206.38853499999999
 30
0.0
 40
2.2999610000000001
 50
270.00002000000001
 51
359.99998999999991
  0
LINE
  5
1B0
  8
0
  6
AIGENLINE001
 62
     7
 10
59.211199999999998
 20
206.38900000000001
 30
0.0
 11
69.995099999999994
 21
206.38900000000001
 31
0.0
  0
ARC
  5
1B1
  8
0
 62
     7
 10
64.516710000000003
 20
206.38870600000001
 30
0.0
 40
3.7500110000000002
 50
0.00001
 51
89.999980000000008
  0
ARC
  5
1B2
  8
0
 62
     7
 10
64.516711999999984
 20
206.38870600000001
 30
0.0
 40
3.7500110000000002
 50
90.0
 51
179.99996999999991
  0
ARC
  5
1B3
  8
0
 62
     7
 10
64.516710000000003
 20
206.38870600000001
 30
0.0
 40
3.750008999999999
 50
179.99996999999991
 51
270.00002000000001
  0
ARC
  5
1B4
  8
0
 62
     7
 10
64.516710000000003
 20
206.38870800000001
 30
0.0
 40
3.7500110000000002
 50
270.00002000000001
 51
359.99998999999991
  0
ARC
  5
1B5
  8
0
 62
     7
 10
64.516711000000001
 20
206.38870700000001
 30
0.0
 40
2.2999610000000001
 50
0.00001
 51
89.999980000000008
  0
ARC
  5
1B6
  8
0
 62
     7
 10
64.516711000000001
 20
206.38870700000001
 30
0.0
 40
2.2999610000000001
 50
90.0
 51
179.99996999999991
  0
ARC
  5
1B7
  8
0
 62
     7
 10
64.516711000000001
 20
206.38870700000001
 30
0.0
 40
2.29996
 50
179.99996999999991
 51
270.00002000000001
  0
ARC
  5
1B8
  8
0
 62
     7
 10
64.516711000000001
 20
206.38870700000001
 30
0.0
 40
2.2999610000000001
 50
270.00002000000001
 51
359.99998999999991
  0
ARC
  5
1B9
  8
0
  6
AIGENLINE002
 62
     7
 10
74.449968999999996
 20
216.32177899999999
 30
0.0
 40
1.8182469999999999
 50
2.1193779999999989
 51
87.891891999999999
  0
ARC
  5
1BA
  8
0
  6
AIGENLINE002
 62
     7
 10
74.516681000000005
 20
216.38884899999999
 30
0.0
 40
1.7499480000000001
 50
89.994360000000015
 51
179.99432999999991
  0
ARC
  5
1BB
  8
0
  6
AIGENLINE002
 62
     7
 10
74.516852999999998
 20
216.3890209999999
 30
0.0
 40
1.7501189999999991
 50
179.99996999999991
 51
270.00002000000001
  0
ARC
  5
1BC
  8
0
  6
AIGENLINE002
 62
     7
 10
74.449232999999992
 20
216.45664099999999
 30
0.0
 40
1.818997
 50
272.13043699999997
 51
357.869573
  0
LINE
  5
1BD
  8
0
  6
AIGENLINE001
 62
     7
 10
74.516900000000007
 20
219.25699999999989
 30
0.0
 11
74.516900000000007
 21
213.77699999999999
 31
0.0
  0
LINE
  5
1BE
  8
0
  6
AIGENLINE001
 62
     7
 10
71.698400000000007
 20
216.38900000000001
 30
0.0
 11
77.443799999999996
 21
216.38900000000001
 31
0.0
  0
LINE
  5
1BF
  8
0
  6
AIGENLINE001
 62
     7
 10
61.69830000000001
 20
216.38900000000001
 30
0.0
 11
67.443700000000007
 21
216.38900000000001
 31
0.0
  0
LINE
  5
1C0
  8
0
  6
AIGENLINE001
 62
     7
 10
51.698099999999997
 20
216.38900000000001
 30
0.0
 11
57.4435
 21
216.38900000000001
 31
0.0
  0
ARC
  5
1C1
  8
0
  6
AIGENLINE002
 62
     7
 10
54.516741000000003
 20
216.38884899999999
 30
0.0
 40
1.7499480000000001
 50
0.00565
 51
90.005619999999993
  0
ARC
  5
1C2
  8
0
  6
AIGENLINE002
 62
     7
 10
54.51656899999999
 20
216.3890209999999
 30
0.0
 40
1.7497750000000001
 50
90.0
 51
179.99996999999991
  0
ARC
  5
1C3
  8
0
  6
AIGENLINE002
 62
     7
 10
54.516741000000003
 20
216.38884899999999
 30
0.0
 40
1.7499469999999999
 50
179.99432999999991
 51
269.99437999999992
  0
ARC
  5
1C4
  8
0
  6
AIGENLINE002
 62
     7
 10
54.51656899999999
 20
216.3890209999999
 30
0.0
 40
1.7501199999999999
 50
270.00002000000001
 51
359.99998999999991
  0
LINE
  5
1C5
  8
0
  6
AIGENLINE001
 62
     7
 10
54.516599999999997
 20
219.25699999999989
 30
0.0
 11
54.516599999999997
 21
213.77699999999999
 31
0.0
  0
ARC
  5
1C6
  8
0
 62
     7
 10
64.516882999999993
 20
216.38884899999999
 30
0.0
 40
1.7499480000000001
 50
0.00565
 51
90.005619999999993
  0
ARC
  5
1C7
  8
0
 62
     7
 10
64.584306999999995
 20
216.321068
 30
0.0
 40
1.818984999999999
 50
92.129664000000005
 51
177.859027
  0
ARC
  5
1C8
  8
0
 62
     7
 10
64.583922999999984
 20
216.45623299999991
 30
0.0
 40
1.8185739999999999
 50
182.11807699999989
 51
267.8819529999999
  0
ARC
  5
1C9
  8
0
 62
     7
 10
64.516711000000001
 20
216.3890209999999
 30
0.0
 40
1.7501199999999999
 50
270.00002000000001
 51
359.99998999999991
  0
LINE
  5
1CA
  8
0
  6
AIGENLINE001
 62
     7
 10
64.5167
 20
226.50599999999989
 30
0.0
 11
64.5167
 21
175.6809999999999
 31
0.0
  0
LINE
  5
1CB
  8
_________2
 62
     7
 10
210.24000000000001
 20
148.93100000000001
 30
0.0
 11
188.489
 21
148.93100000000001
 31
0.0
  0
LINE
  5
1CC
  8
_________2
 62
     7
 10
105.2389999999999
 20
17.4282
 30
0.0
 11
105.2389999999999
 21
0.447865
 31
0.0
  0
LINE
  5
1CD
  8
_________2
 62
     7
 10
105.2389999999999
 20
297.44999999999987
 30
0.0
 11
105.2389999999999
 21
280.42999999999989
 31
0.0
  0
LINE
  5
1CE
  8
_________2
 62
     7
 10
21.988499999999991
 20
148.93100000000001
 30
0.0
 11
0.238402
 21
148.93100000000001
 31
0.0
  0
LINE
  5
1CF
  8
_________2
 62
     7
 10
81.679900000000004
 20
51.323999999999998
 30
0.0
 11
79.493700000000004
 21
51.323999999999998
 31
0.0
  0
LINE
  5
1D0
  8
_________2
 62
     7
 10
82.172600000000017
 20
51.323999999999998
 30
0.0
 11
81.920400000000001
 21
51.323999999999998
 31
0.0
  0
LINE
  5
1D1
  8
_________2
 62
     7
 10
82.665199999999984
 20
51.323999999999998
 30
0.0
 11
85.590100000000007
 21
51.323999999999998
 31
0.0
  0
LINE
  5
1D2
  8
_________2
 62
     7
 10
82.172600000000017
 20
51.323999999999998
 30
0.0
 11
82.424400000000006
 21
51.323999999999998
 31
0.0
  0
LINE
  5
1D3
  8
_________2
 62
     7
 10
75.77600000000001
 20
51.323999999999998
 30
0.0
 11
73.589399999999998
 21
51.323999999999998
 31
0.0
  0
LINE
  5
1D4
  8
_________2
 62
     7
 10
76.2684
 20
51.323999999999998
 30
0.0
 11
76.016499999999994
 21
51.323999999999998
 31
0.0
  0
LINE
  5
1D5
  8
_________2
 62
     7
 10
76.2684
 20
51.816600000000001
 30
0.0
 11
76.2684
 21
54.003599999999999
 31
0.0
  0
LINE
  5
1D6
  8
_________2
 62
     7
 10
76.2684
 20
51.323999999999998
 30
0.0
 11
76.2684
 21
51.5762
 31
0.0
  0
LINE
  5
1D7
  8
_________2
 62
     7
 10
76.76100000000001
 20
51.323999999999998
 30
0.0
 11
78.947999999999993
 21
51.323999999999998
 31
0.0
  0
LINE
  5
1D8
  8
_________2
 62
     7
 10
76.2684
 20
51.323999999999998
 30
0.0
 11
76.520499999999998
 21
51.323999999999998
 31
0.0
  0
LINE
  5
1D9
  8
_________2
 62
     7
 10
76.2684
 20
50.832000000000001
 30
0.0
 11
76.2684
 21
48.645099999999999
 31
0.0
  0
LINE
  5
1DA
  8
_________2
 62
     7
 10
76.2684
 20
51.323999999999998
 30
0.0
 11
76.2684
 21
51.072499999999998
 31
0.0
  0
LINE
  5
1DB
  8
_________2
 62
     7
 10
79.979399999999984
 20
50.104399999999998
 30
0.0
 11
85.157399999999996
 21
49.239699999999999
 31
0.0
  0
LINE
  5
1DC
  8
_________2
 62
     7
 10
79.979399999999984
 20
52.543599999999998
 30
0.0
 11
85.157399999999996
 21
53.408999999999999
 31
0.0
  0
LINE
  5
1DD
  8
_________2
 62
     7
 10
85.157399999999996
 20
49.239699999999999
 30
0.0
 11
85.157399999999996
 21
53.408999999999999
 31
0.0
  0
LINE
  5
1DE
  8
_________2
 62
     7
 10
79.979399999999984
 20
50.104399999999998
 30
0.0
 11
79.979399999999984
 21
52.543599999999998
 31
0.0
  0
ARC
  5
1DF
  8
_________2
 62
     7
 10
76.221776000000006
 20
51.277046999999989
 30
0.0
 40
1.2673589999999999
 50
2.122214
 51
87.893958999999995
  0
ARC
  5
1E0
  8
_________2
 62
     7
 10
76.315273000000005
 20
51.277056000000002
 30
0.0
 40
1.267363
 50
92.121785999999986
 51
177.878185
  0
ARC
  5
1E1
  8
_________2
 62
     7
 10
76.315273000000005
 20
51.370902000000001
 30
0.0
 40
1.267363
 50
182.12181499999991
 51
267.87821400000001
  0
ARC
  5
1E2
  8
_________2
 62
     7
 10
76.221451999999999
 20
51.371234999999999
 30
0.0
 40
1.267695999999999
 50
272.12015300000002
 51
357.863674
  0
ARC
  5
1E3
  8
_________2
 62
     7
 10
76.268349999999984
 20
51.323979000000001
 30
0.0
 40
2.0849849999999992
 50
0.00001
 51
89.999980000000008
  0
ARC
  5
1E4
  8
_________2
 62
     7
 10
76.268523000000002
 20
51.324151000000001
 30
0.0
 40
2.084813
 50
90.004733999999999
 51
180.00474399999999
  0
ARC
  5
1E5
  8
_________2
 62
     7
 10
76.348021000000003
 20
51.404007
 30
0.0
 40
2.1657899999999999
 50
182.117637
 51
267.891862
  0
ARC
  5
1E6
  8
_________2
 62
     7
 10
76.188378999999983
 20
51.404665999999992
 30
0.0
 40
2.1664590000000001
 50
272.11546800000002
 51
357.86560400000002
  0
TEXT
  5
1E7
  8
_________2
 62
     7
 10
109.5439999999999
 20
23.198699999999992
 30
0.0
 40
3.660169999999999
  1
図番
 41
0.5
  0
LINE
  5
1E8
  8
_________2
 62
     7
 10
108.4889999999999
 20
27.428000000000001
 30
0.0
 11
188.49000000000001
 21
27.428000000000001
 31
0.0
  0
TEXT
  5
1E9
  8
_________2
 62
     7
 10
109.5439999999999
 20
33.198500000000003
 30
0.0
 40
3.660169999999999
  1
品番
 41
0.5
  0
TEXT
  5
1EA
  8
_________2
 62
     7
 10
109.5439999999999
 20
53.337299999999999
 30
0.0
 40
3.660169999999999
  1
名称
 41
0.5
  0
TEXT
  5
1EB
  8
_________2
 62
     7
 10
96.504445833333335
 20
48.341200000000001
 30
0.0
 40
4.3256500000000004
  1
mm
 41
0.5
 72
     1
 11
98.306799999999996
 21
48.341200000000001
 31
0.0
  0
TEXT
  5
1EC
  8
_________2
 62
     7
 10
90.582099999999997
 20
53.337299999999999
 30
0.0
 40
3.660169999999999
  1
単位
 41
0.5
  0
TEXT
  5
1ED
  8
_________2
 62
     7
 10
90.582099999999997
 20
40.930100000000003
 30
0.0
 40
3.660169999999999
  1
尺度
 41
0.5
  0
TEXT
  5
1EE
  8
_________2
 62
     7
 10
94.320620416666657
 20
34.737099999999998
 30
0.0
 40
4.3256500000000004
  1
1 ： 10
 41
0.5
 72
     1
 11
98.898600000000002
 21
34.737099999999998
 31
0.0
  0
TEXT
  5
1EF
  8
_________2
 62
     7
 10
135.09612874999999
 20
30.627099999999999
 30
0.0
 40
4.6583899999999989
  1
DV047658R-00
 41
0.5
 72
     1
 11
148.489
 21
30.627099999999999
 31
0.0
  0
TEXT
  5
1F0
  8
_________2
 62
     7
 10
138.20172208333329
 20
20.6266
 30
0.0
 40
4.6583899999999989
  1
DV047658R
 41
0.5
 72
     1
 11
148.489
 21
20.6266
 31
0.0
  0
TEXT
  5
1F1
  8
_________2
 62
     7
 10
29.525700000000001
 20
22.226500000000001
 30
0.0
 40
4.6583899999999989
  1
実容量：10.6L、重量：13kg、オーバーフロー付
 41
0.5
  0
TEXT
  5
1F2
  8
_________2
 62
     7
 10
114.117
 20
45.74499999999999
 30
0.0
 40
4.6583899999999989
  1
1930 カウンター式洗面器
 41
0.5
  0
TEXT
  5
1F3
  8
_________2
 62
     7
 10
44.01748083333333
 20
35.122300000000003
 30
0.0
 40
4.3256500000000004
  1
早川
 41
0.5
 72
     1
 11
46.252400000000002
 21
35.122300000000003
 31
0.0
  0
TEXT
  5
1F4
  8
_________2
 62
     7
 10
25.37108666666666
 20
35.122300000000003
 30
0.0
 40
4.3256500000000004
  1
石原
 41
0.5
 72
     1
 11
27.678100000000001
 21
35.122300000000003
 31
0.0
  0
TEXT
  5
1F5
  8
_________2
 62
     7
 10
72.724400000000003
 20
34.737099999999998
 30
0.0
 40
4.3256500000000004
  1
14.07.18
 41
0.5
  0
TEXT
  5
1F6
  8
_________2
 62
     7
 10
71.531999999999996
 20
40.930100000000003
 30
0.0
 40
3.660169999999999
  1
日付
 41
0.5
  0
TEXT
  5
1F7
  8
_________2
 62
     7
 10
34.578299999999992
 20
40.930100000000003
 30
0.0
 40
3.660169999999999
  1
検図
 41
0.5
  0
TEXT
  5
1F8
  8
_________2
 62
     7
 10
22.960000000000001
 20
26.730699999999999
 30
0.0
 40
3.660169999999999
  1
備考
 41
0.5
  0
TEXT
  5
1F9
  8
_________2
 62
     7
 10
22.960000000000001
 20
40.930100000000003
 30
0.0
 40
3.660169999999999
  1
製図
 41
0.5
  0
TEXT
  5
1FA
  8
_________2
 62
     7
 10
25.533730666666681
 20
49.456000000000003
 30
0.0
 40
5.3238799999999991
  1
セラトレーディング株式会社
 41
0.5
 72
     1
 11
46.119399999999992
 21
49.456000000000003
 31
0.0
  0
LINE
  5
1FB
  8
_________2
 62
     7
 10
188.49000000000001
 20
17.4282
 30
0.0
 11
21.988499999999991
 21
17.4282
 31
0.0
  0
LINE
  5
1FC
  8
_________2
 62
     7
 10
21.988499999999991
 20
17.4282
 30
0.0
 11
21.988499999999991
 21
280.42999999999989
 31
0.0
  0
LINE
  5
1FD
  8
_________2
 62
     7
 10
21.988499999999991
 20
280.42999999999989
 30
0.0
 11
188.49000000000001
 21
280.42999999999989
 31
0.0
  0
LINE
  5
1FE
  8
_________2
 62
     7
 10
188.49000000000001
 20
280.42999999999989
 30
0.0
 11
188.49000000000001
 21
17.4282
 31
0.0
  0
LINE
  5
1FF
  8
_________2
 62
     7
 10
70.488500000000002
 20
30.9282
 30
0.0
 11
70.488500000000002
 21
57.427999999999997
 31
0.0
  0
LINE
  5
200
  8
_________2
 62
     7
 10
89.488600000000005
 20
30.9282
 30
0.0
 11
89.488600000000005
 21
57.427999999999997
 31
0.0
  0
LINE
  5
201
  8
_________2
 62
     7
 10
108.4889999999999
 20
17.4282
 30
0.0
 11
108.4889999999999
 21
57.427999999999997
 31
0.0
  0
LINE
  5
202
  8
_________2
 62
     7
 10
33.488300000000002
 20
30.9282
 30
0.0
 11
33.488300000000002
 21
44.928499999999993
 31
0.0
  0
LINE
  5
203
  8
_________2
 62
     7
 10
21.988499999999991
 20
30.9282
 30
0.0
 11
108.4889999999999
 21
30.9282
 31
0.0
  0
LINE
  5
204
  8
_________2
 62
     7
 10
21.988499999999991
 20
44.928499999999993
 30
0.0
 11
108.4889999999999
 21
44.928499999999993
 31
0.0
  0
LINE
  5
205
  8
_________2
 62
     7
 10
108.4889999999999
 20
37.427799999999991
 30
0.0
 11
188.49000000000001
 21
37.427799999999991
 31
0.0
  0
LINE
  5
206
  8
_________2
 62
     7
 10
21.988499999999991
 20
57.427999999999997
 30
0.0
 11
188.49000000000001
 21
57.427999999999997
 31
0.0
  0
ENDSEC
  0
EOF
