  0
SECTION
  2
HEADER
  9
$ACADVER
  1
AC1009
  9
$INSBASE
 10
0.0
 20
0.0
 30
0.0
  9
$EXTMIN
 10
0.238058
 20
0.4482100000000001
 30
0.0
  9
$EXTMAX
 10
210.24000000000001
 20
297.44999999999987
 30
0.0
  9
$LIMMIN
 10
0.0
 20
0.0
  9
$LIMMAX
 10
12.0
 20
9.0
  9
$ORTHOMODE
 70
     0
  9
$REGENMODE
 70
     1
  9
$FILLMODE
 70
     1
  9
$QTEXTMODE
 70
     0
  9
$MIRRTEXT
 70
     1
  9
$DRAGMODE
 70
     2
  9
$LTSCALE
 40
1.0
  9
$OSMODE
 70
    37
  9
$ATTMODE
 70
     1
  9
$TEXTSIZE
 40
0.0
  9
$TRACEWID
 40
0.05
  9
$TEXTSTYLE
  7
STANDARD
  9
$CLAYER
  8
0
  9
$CELTYPE
  6
CONTINUOUS
  9
$CECOLOR
 62
   256
  9
$DIMSCALE
 40
1.0
  9
$DIMASZ
 40
0.18
  9
$DIMEXO
 40
0.0625
  9
$DIMDLI
 40
0.38
  9
$DIMRND
 40
0.0
  9
$DIMDLE
 40
0.0
  9
$DIMEXE
 40
0.18
  9
$DIMTP
 40
0.0
  9
$DIMTM
 40
0.0
  9
$DIMTXT
 40
0.18
  9
$DIMCEN
 40
0.09
  9
$DIMTSZ
 40
0.0
  9
$DIMTOL
 70
     0
  9
$DIMLIM
 70
     0
  9
$DIMTIH
 70
     1
  9
$DIMTOH
 70
     1
  9
$DIMSE1
 70
     0
  9
$DIMSE2
 70
     0
  9
$DIMTAD
 70
     0
  9
$DIMZIN
 70
     0
  9
$DIMBLK
  1

  9
$DIMASO
 70
     1
  9
$DIMSHO
 70
     1
  9
$DIMPOST
  1

  9
$DIMAPOST
  1

  9
$DIMALT
 70
     0
  9
$DIMALTD
 70
     2
  9
$DIMALTF
 40
25.399999999999999
  9
$DIMLFAC
 40
1.0
  9
$DIMTOFL
 70
     0
  9
$DIMTVP
 40
0.0
  9
$DIMTIX
 70
     0
  9
$DIMSOXD
 70
     0
  9
$DIMSAH
 70
     0
  9
$DIMBLK1
  1

  9
$DIMBLK2
  1

  9
$DIMSTYLE
  2
STANDARD
  9
$DIMCLRD
 70
     0
  9
$DIMCLRE
 70
     0
  9
$DIMCLRT
 70
     0
  9
$DIMTFAC
 40
1.0
  9
$DIMGAP
 40
0.09
  9
$LUNITS
 70
     2
  9
$LUPREC
 70
     4
  9
$SKETCHINC
 40
0.1
  9
$FILLETRAD
 40
0.0
  9
$AUNITS
 70
     0
  9
$AUPREC
 70
     0
  9
$MENU
  1
.
  9
$ELEVATION
 40
0.0
  9
$PELEVATION
 40
0.0
  9
$THICKNESS
 40
0.0
  9
$LIMCHECK
 70
     0
  9
$BLIPMODE
 70
     0
  9
$CHAMFERA
 40
0.0
  9
$CHAMFERB
 40
0.0
  9
$SKPOLY
 70
     0
  9
$TDCREATE
 40
2444972.375
  9
$TDUPDATE
 40
2454458.2903479398
  9
$TDINDWG
 40
0.0000072454
  9
$TDUSRTIMER
 40
0.0000072454
  9
$USRTIMER
 70
     1
  9
$ANGBASE
 50
0.0
  9
$ANGDIR
 70
     0
  9
$PDMODE
 70
     0
  9
$PDSIZE
 40
0.0
  9
$PLINEWID
 40
0.0
  9
$COORDS
 70
     1
  9
$SPLFRAME
 70
     0
  9
$SPLINETYPE
 70
     6
  9
$SPLINESEGS
 70
     8
  9
$ATTDIA
 70
     0
  9
$ATTREQ
 70
     1
  9
$HANDLING
 70
     1
  9
$HANDSEED
  5
218
  9
$SURFTAB1
 70
     6
  9
$SURFTAB2
 70
     6
  9
$SURFTYPE
 70
     6
  9
$SURFU
 70
     6
  9
$SURFV
 70
     6
  9
$UCSNAME
  2

  9
$UCSORG
 10
0.0
 20
0.0
 30
0.0
  9
$UCSXDIR
 10
1.0
 20
0.0
 30
0.0
  9
$UCSYDIR
 10
0.0
 20
1.0
 30
0.0
  9
$PUCSNAME
  2

  9
$PUCSORG
 10
0.0
 20
0.0
 30
0.0
  9
$PUCSXDIR
 10
1.0
 20
0.0
 30
0.0
  9
$PUCSYDIR
 10
0.0
 20
1.0
 30
0.0
  9
$USERI1
 70
     0
  9
$USERI2
 70
     0
  9
$USERI3
 70
     0
  9
$USERI4
 70
     0
  9
$USERI5
 70
     0
  9
$USERR1
 40
0.0
  9
$USERR2
 40
0.0
  9
$USERR3
 40
0.0
  9
$USERR4
 40
0.0
  9
$USERR5
 40
0.0
  9
$WORLDVIEW
 70
     1
  9
$SHADEDGE
 70
     3
  9
$SHADEDIF
 70
    70
  9
$TILEMODE
 70
     1
  9
$MAXACTVP
 70
    48
  9
$PLIMCHECK
 70
     0
  9
$PEXTMIN
 10
1.0000000000000000E+020
 20
1.0000000000000000E+020
 30
1.0000000000000000E+020
  9
$PEXTMAX
 10
-1.0000000000000000E+020
 20
-1.0000000000000000E+020
 30
-1.0000000000000000E+020
  9
$PLIMMIN
 10
0.0
 20
0.0
  9
$PLIMMAX
 10
12.0
 20
9.0
  9
$UNITMODE
 70
     0
  9
$VISRETAIN
 70
     1
  9
$PLINEGEN
 70
     0
  9
$PSLTSCALE
 70
     1
  0
ENDSEC
  0
SECTION
  2
TABLES
  0
TABLE
  2
VPORT
 70
     2
  0
VPORT
  2
*ACTIVE
 70
     0
 10
0.0
 20
0.0
 11
1.0
 21
1.0
 12
166.3460197566624
 22
148.72499999999991
 13
0.0
 23
0.0
 14
1.0
 24
1.0
 15
0.0
 25
0.0
 16
0.0
 26
0.0
 36
1.0
 17
0.0
 27
0.0
 37
0.0
 40
300.41461794019921
 41
2.2894736842105261
 42
50.0
 43
0.0
 44
0.0
 50
0.0
 51
0.0
 71
     0
 72
   100
 73
     1
 74
     1
 75
     0
 76
     0
 77
     0
 78
     0
  0
ENDTAB
  0
TABLE
  2
LTYPE
 70
     4
  0
LTYPE
  2
CONTINUOUS
 70
     0
  3
Solid line
 72
    65
 73
     0
 40
0.0
  0
LTYPE
  2
AIGENLINE001
 70
     0
  3
generate AI->DXF Converter
 72
    65
 73
     2
 40
1.5522299999999991
 49
0.776115
 49
-0.776115
  0
LTYPE
  2
AIGENLINE002
 70
     0
  3
generate AI->DXF Converter
 72
    65
 73
     4
 40
5.8561449999999988
 49
3.5278
 49
-0.776115
 49
0.776115
 49
-0.776115
  0
LTYPE
  2
AIGENLINE003
 70
     0
  3
generate AI->DXF Converter
 72
    65
 73
     6
 40
7.4083750000000004
 49
3.5278
 49
-0.776115
 49
0.776115
 49
-0.776115
 49
0.776115
 49
-0.776115
  0
ENDTAB
  0
TABLE
  2
LAYER
 70
     2
  0
LAYER
  2
0
 70
     0
 62
     7
  6
CONTINUOUS
  0
LAYER
  2
_________2
 70
     0
 62
     7
  6
CONTINUOUS
  0
ENDTAB
  0
TABLE
  2
STYLE
 70
     1
  0
STYLE
  2
STANDARD
 70
     0
 40
0.0
 41
0.0
 50
0.0
 71
     0
 42
0.0
  3
TXT
  4
EXTFONT.SHX
  0
ENDTAB
  0
TABLE
  2
VIEW
 70
     0
  0
ENDTAB
  0
TABLE
  2
UCS
 70
     0
  0
ENDTAB
  0
TABLE
  2
APPID
 70
     1
  0
APPID
  2
ACAD
 70
     0
  0
ENDTAB
  0
TABLE
  2
DIMSTYLE
 70
     1
  0
DIMSTYLE
  2
STANDARD
 70
     0
  3

  4

  5

  6

  7

 40
1.0
 41
0.18
 42
0.0625
 43
0.38
 44
0.18
 45
0.0
 46
0.0
 47
0.0
 48
0.0
140
0.18
141
0.09
142
0.0
143
25.399999999999999
144
1.0
145
0.0
146
1.0
147
0.09
 71
     0
 72
     0
 73
     1
 74
     1
 75
     0
 76
     0
 77
     0
 78
     0
170
     0
171
     2
172
     0
173
     0
174
     0
175
     0
176
     0
177
     0
178
     0
  0
ENDTAB
  0
ENDSEC
  0
SECTION
  2
BLOCKS
  0
BLOCK
  8
0
  2
$MODEL_SPACE
 70
     0
 10
0.0
 20
0.0
 30
0.0
  3
$MODEL_SPACE
  1

  0
ENDBLK
  5
1A
  8
0
  0
BLOCK
 67
     1
  8
0
  2
$PAPER_SPACE
 70
     0
 10
0.0
 20
0.0
 30
0.0
  3
$PAPER_SPACE
  1

  0
ENDBLK
  5
17
 67
     1
  8
0
  0
ENDSEC
  0
SECTION
  2
ENTITIES
  0
TEXT
  5
24
  8
0
 62
     7
 10
137.92775999999989
 20
173.15700000000001
 30
0.0
 40
3.0923400000000001
  1
カウンター切込寸法
 41
0.5
 72
     1
 11
146.17399999999989
 21
173.15700000000001
 31
0.0
  0
TEXT
  5
25
  8
0
 62
     7
 10
72.537940000000006
 20
199.5149999999999
 30
0.0
 40
3.0923400000000001
  1
%%c46
 41
0.5
 72
     1
 11
74.599500000000006
 21
199.5149999999999
 31
0.0
  0
TEXT
  5
26
  8
0
 62
     7
 10
50.74624
 20
225.36799999999999
 30
0.0
 40
3.0923400000000001
  1
%%c35
 41
0.5
 72
     1
 11
52.8078
 21
225.36799999999999
 31
0.0
  0
TEXT
  5
27
  8
0
 62
     7
 10
85.459724999999992
 20
179.59099999999989
 30
0.0
 40
3.0923400000000001
  1
85
 41
0.5
 72
     1
 11
86.748199999999997
 21
179.59099999999989
 31
0.0
  0
TEXT
  5
28
  8
0
 62
     7
 10
44.612724999999998
 20
179.59099999999989
 30
0.0
 40
3.0923400000000001
  1
85
 41
0.5
 72
     1
 11
45.901200000000003
 21
179.59099999999989
 31
0.0
  0
TEXT
  5
29
  8
0
 62
     7
 10
156.59464600000001
 20
222.7949999999999
 30
0.0
 40
3.0923400000000001
  1
洗面器後端
 41
0.5
 72
     1
 11
161.02699999999999
 21
222.7949999999999
 31
0.0
  0
TEXT
  5
2A
  8
0
 62
     7
 10
144.2412875
 20
182.0449999999999
 30
0.0
 40
3.0923400000000001
  1
660
 41
0.5
 72
     1
 11
146.17399999999989
 21
182.0449999999999
 31
0.0
  0
TEXT
  5
2B
  8
0
 62
     7
 10
152.25144
 20
116.7059999999999
 30
0.0
 40
3.0923400000000001
  1
235
 41
0.5
 72
     1
 11
154.3129999999999
 21
116.7059999999999
 31
0.0
  0
TEXT
  5
2C
  8
0
 62
     7
 10
145.0132874999999
 20
109.42100000000001
 30
0.0
 40
3.0923400000000001
  1
420
 41
0.5
 72
     1
 11
146.94599999999991
 21
109.42100000000001
 31
0.0
  0
TEXT
  5
2D
  8
0
 62
     7
 10
64.335487499999985
 20
115.4379999999999
 30
0.0
 40
3.0923400000000001
  1
640
 41
0.5
 72
     1
 11
66.268199999999993
 21
115.4379999999999
 31
0.0
  0
TEXT
  5
2E
  8
0
 62
     7
 10
64.335487499999985
 20
138.55999999999989
 30
0.0
 40
3.0923400000000001
  1
280
 41
0.5
 72
     1
 11
66.268199999999993
 21
138.55999999999989
 31
0.0
  0
TEXT
  5
2F
  8
0
 62
     7
 10
61.266629999999999
 20
227.96000000000001
 30
0.0
 40
3.0923400000000001
  1
100
 41
0.5
 72
     1
 11
62.812800000000003
 21
227.96000000000001
 31
0.0
  0
TEXT
  5
30
  8
0
 62
     7
 10
67.936329999999984
 20
227.96000000000001
 30
0.0
 40
3.0923400000000001
  1
100
 41
0.5
 72
     1
 11
69.482500000000002
 21
227.96000000000001
 31
0.0
  0
TEXT
  5
31
  8
0
 62
     7
 10
64.499987500000003
 20
179.59099999999989
 30
0.0
 40
3.0923400000000001
  1
530
 41
0.5
 72
     1
 11
66.432699999999997
 21
179.59099999999989
 31
0.0
  0
TEXT
  5
32
  8
0
 62
     7
 10
64.464334999999991
 20
173.4009999999999
 30
0.0
 40
3.0923400000000001
  1
700
 41
0.5
 72
     1
 11
66.268199999999993
 21
173.4009999999999
 31
0.0
  0
TEXT
  5
33
  8
0
 62
     7
 10
105.30800000000001
 20
200.72328749999991
 30
0.0
 40
3.0923400000000001
  1
460
 50
90.0
 41
0.5
 72
     1
 11
105.30800000000001
 21
202.65599999999989
 31
0.0
  0
TEXT
  5
34
  8
0
 62
     7
 10
128.4581675342877
 20
195.05816753428769
 30
0.0
 40
3.0923400000000001
  1
R10
 50
45.0
 41
0.5
 72
     2
 11
130.827
 21
197.42699999999999
 31
0.0
  0
TEXT
  5
35
  8
0
 62
     7
 10
156.62
 20
208.8794399999999
 30
0.0
 40
3.0923400000000001
  1
235
 50
90.0
 41
0.5
 72
     1
 11
156.62
 21
210.94099999999989
 31
0.0
  0
TEXT
  5
36
  8
0
 62
     7
 10
177.54300000000001
 20
201.64344
 30
0.0
 40
3.0923400000000001
  1
435
 50
90.0
 41
0.5
 72
     1
 11
177.54300000000001
 21
203.70500000000001
 31
0.0
  0
TEXT
  5
37
  8
0
 62
     7
 10
144.32299999999989
 20
135.04837249999991
 30
0.0
 40
3.0923400000000001
  1
70
 50
90.0
 41
0.5
 72
     1
 11
144.32299999999989
 21
136.20799999999991
 31
0.0
  0
TEXT
  5
38
  8
0
 62
     7
 10
170.40899999999999
 20
125.49798249999991
 30
0.0
 40
3.0923400000000001
  1
150
 50
90.0
 41
0.5
 72
     1
 11
170.40899999999999
 21
127.1729999999999
 31
0.0
  0
TEXT
  5
39
  8
0
 62
     7
 10
124.67399999999989
 20
126.6538299999999
 30
0.0
 40
3.0923400000000001
  1
115
 50
90.0
 41
0.5
 72
     1
 11
124.67399999999989
 21
128.1999999999999
 31
0.0
  0
TEXT
  5
3A
  8
0
 62
     7
 10
36.40229999999999
 20
129.1323725
 30
0.0
 40
3.0923400000000001
  1
60
 50
90.0
 41
0.5
 72
     1
 11
36.40229999999999
 21
130.292
 31
0.0
  0
TEXT
  5
3B
  8
0
 62
     7
 10
94.809799999999996
 20
134.83352500000001
 30
0.0
 40
3.0923400000000001
  1
45
 50
90.0
 41
0.5
 72
     1
 11
94.809799999999996
 21
136.12200000000001
 31
0.0
  0
TEXT
  5
3C
  8
0
 62
     7
 10
97.406199999999984
 20
183.22052500000001
 30
0.0
 40
3.0923400000000001
  1
35
 50
90.0
 41
0.5
 72
     1
 11
97.406199999999984
 21
184.50899999999999
 31
0.0
  0
TEXT
  5
3D
  8
0
 62
     7
 10
97.406199999999984
 20
212.98113499999991
 30
0.0
 40
3.0923400000000001
  1
125
 50
90.0
 41
0.5
 72
     1
 11
97.406199999999984
 21
214.785
 31
0.0
  0
TEXT
  5
3E
  8
0
 62
     7
 10
86.803299999999993
 20
215.475525
 30
0.0
 40
3.0923400000000001
  1
65
 50
90.0
 41
0.5
 72
     1
 11
86.803299999999993
 21
216.76400000000001
 31
0.0
  0
TEXT
  5
3F
  8
0
 62
     7
 10
86.803299999999993
 20
211.37437249999999
 30
0.0
 40
3.0923400000000001
  1
60
 50
90.0
 41
0.5
 72
     1
 11
86.803299999999993
 21
212.53399999999999
 31
0.0
  0
TEXT
  5
40
  8
0
 62
     7
 10
35.9634
 20
209.24144000000001
 30
0.0
 40
3.0923400000000001
  1
235
 50
90.0
 41
0.5
 72
     1
 11
35.9634
 21
211.303
 31
0.0
  0
TEXT
  5
41
  8
0
 62
     7
 10
97.406199999999984
 20
198.90413499999991
 30
0.0
 40
3.0923400000000001
  1
300
 50
90.0
 41
0.5
 72
     1
 11
97.406199999999984
 21
200.708
 31
0.0
  0
ARC
  5
42
  8
0
  6
AIGENLINE001
 62
     7
 10
66.235799
 20
129.93570999999989
 30
0.0
 40
0.8663770000000001
 50
272.14384499999989
 51
357.87984599999987
  0
ARC
  5
43
  8
0
  6
AIGENLINE001
 62
     7
 10
66.29990699999999
 20
129.934999
 30
0.0
 40
0.8656390000000001
 50
182.0748659999999
 51
267.90148299999998
  0
ARC
  5
44
  8
0
  6
AIGENLINE001
 62
     7
 10
66.268208999999999
 20
129.903659
 30
0.0
 40
0.8333739999999998
 50
90.0
 51
179.99996999999991
  0
ARC
  5
45
  8
0
  6
AIGENLINE001
 62
     7
 10
66.268208000000001
 20
129.903659
 30
0.0
 40
0.8333739999999998
 50
0.00001
 51
89.999980000000008
  0
LINE
  5
46
  8
0
 62
     7
 10
168.17400000000001
 20
218.88499999999991
 30
0.0
 11
172.7529999999999
 21
218.88499999999991
 31
0.0
  0
LINE
  5
47
  8
0
 62
     7
 10
119.59399999999999
 20
218.88499999999991
 30
0.0
 11
124.17399999999989
 21
218.88499999999991
 31
0.0
  0
LINE
  5
48
  8
0
 62
     7
 10
162.74899999999991
 20
221.86699999999999
 30
0.0
 11
161.02699999999999
 21
218.88499999999991
 31
0.0
  0
LINE
  5
49
  8
0
 62
     7
 10
161.02699999999999
 20
218.88499999999991
 30
0.0
 11
159.30600000000001
 21
221.86699999999999
 31
0.0
  0
LINE
  5
4A
  8
0
 62
     7
 10
159.30600000000001
 20
221.86699999999999
 30
0.0
 11
162.74899999999991
 21
221.86699999999999
 31
0.0
  0
LINE
  5
4B
  8
0
 62
     7
 10
59.145400000000002
 20
138.28
 30
0.0
 11
56.935000000000002
 21
137.6879999999999
 31
0.0
  0
LINE
  5
4C
  8
0
 62
     7
 10
56.935000000000002
 20
137.6879999999999
 30
0.0
 11
59.145400000000002
 21
137.09599999999989
 31
0.0
  0
LINE
  5
4D
  8
0
 62
     7
 10
59.145400000000002
 20
137.09599999999989
 30
0.0
 11
59.145400000000002
 21
138.28
 31
0.0
  0
LINE
  5
4E
  8
0
 62
     7
 10
73.391000000000005
 20
137.11000000000001
 30
0.0
 11
75.601399999999998
 21
137.70199999999991
 31
0.0
  0
LINE
  5
4F
  8
0
 62
     7
 10
75.601399999999998
 20
137.70199999999991
 30
0.0
 11
73.391000000000005
 21
138.2949999999999
 31
0.0
  0
LINE
  5
50
  8
0
 62
     7
 10
73.391000000000005
 20
138.2949999999999
 30
0.0
 11
73.391000000000005
 21
137.11000000000001
 31
0.0
  0
LINE
  5
51
  8
0
 62
     7
 10
56.935000000000002
 20
137.69499999999991
 30
0.0
 11
75.601399999999998
 21
137.69499999999991
 31
0.0
  0
ARC
  5
52
  8
0
 62
     7
 10
87.540421999999978
 20
214.5624049999999
 30
0.0
 40
0.296126
 50
182.097352
 51
267.86804699999999
  0
ARC
  5
53
  8
0
 62
     7
 10
87.518659
 20
214.56231399999999
 30
0.0
 40
0.296025
 50
272.0804629999999
 51
357.91954700000002
  0
ARC
  5
54
  8
0
 62
     7
 10
87.518732999999983
 20
214.54071699999989
 30
0.0
 40
0.295955
 50
2.1011889999999989
 51
87.933431999999996
  0
ARC
  5
55
  8
0
 62
     7
 10
87.540154000000001
 20
214.54081899999991
 30
0.0
 40
0.295855
 50
92.082065000000014
 51
177.91790599999999
  0
LINE
  5
56
  8
0
 62
     7
 10
168.17400000000001
 20
190.5509999999999
 30
0.0
 11
168.17400000000001
 21
218.88499999999991
 31
0.0
  0
LINE
  5
57
  8
0
 62
     7
 10
167.50700000000001
 20
189.88499999999991
 30
0.0
 11
124.8399999999999
 21
189.88499999999991
 31
0.0
  0
ARC
  5
58
  8
0
 62
     7
 10
167.50728599999999
 20
190.55115900000001
 30
0.0
 40
0.666458
 50
270.01482900000002
 51
0.014799
  0
LINE
  5
59
  8
0
 62
     7
 10
124.17399999999989
 20
190.5509999999999
 30
0.0
 11
124.17399999999989
 21
218.88499999999991
 31
0.0
  0
ARC
  5
5A
  8
0
 62
     7
 10
124.8401969999999
 20
190.55115799999999
 30
0.0
 40
0.666458
 50
179.98516100000001
 51
269.98521099999999
  0
LINE
  5
5B
  8
0
 62
     7
 10
179.16800000000001
 20
218.88499999999991
 30
0.0
 11
174.58799999999991
 21
218.88499999999991
 31
0.0
  0
LINE
  5
5C
  8
0
 62
     7
 10
179.16800000000001
 20
189.88499999999991
 30
0.0
 11
169.50099999999989
 21
189.88499999999991
 31
0.0
  0
LINE
  5
5D
  8
0
 62
     7
 10
177.8829999999999
 20
192.09499999999991
 30
0.0
 11
178.476
 21
189.88499999999991
 31
0.0
  0
LINE
  5
5E
  8
0
 62
     7
 10
178.476
 20
189.88499999999991
 30
0.0
 11
179.0679999999999
 21
192.09499999999991
 31
0.0
  0
LINE
  5
5F
  8
0
 62
     7
 10
179.0679999999999
 20
192.09499999999991
 30
0.0
 11
177.8829999999999
 21
192.09499999999991
 31
0.0
  0
LINE
  5
60
  8
0
 62
     7
 10
179.05299999999991
 20
216.67400000000001
 30
0.0
 11
178.4609999999999
 21
218.88499999999991
 31
0.0
  0
LINE
  5
61
  8
0
 62
     7
 10
178.4609999999999
 20
218.88499999999991
 30
0.0
 11
177.869
 21
216.67400000000001
 31
0.0
  0
LINE
  5
62
  8
0
 62
     7
 10
177.869
 20
216.67400000000001
 30
0.0
 11
179.05299999999991
 21
216.67400000000001
 31
0.0
  0
LINE
  5
63
  8
0
 62
     7
 10
178.4679999999999
 20
189.88499999999991
 30
0.0
 11
178.4679999999999
 21
218.88499999999991
 31
0.0
  0
LINE
  5
64
  8
0
 62
     7
 10
158.01400000000001
 20
216.67400000000001
 30
0.0
 11
157.42199999999991
 21
218.88499999999991
 31
0.0
  0
LINE
  5
65
  8
0
 62
     7
 10
157.42199999999991
 20
218.88499999999991
 30
0.0
 11
156.82900000000001
 21
216.67400000000001
 31
0.0
  0
LINE
  5
66
  8
0
 62
     7
 10
156.82900000000001
 20
216.67400000000001
 30
0.0
 11
158.01400000000001
 21
216.67400000000001
 31
0.0
  0
LINE
  5
67
  8
0
 62
     7
 10
125.48
 20
192.101
 30
0.0
 11
124.336
 21
190.119
 31
0.0
  0
LINE
  5
68
  8
0
 62
     7
 10
124.336
 20
190.119
 30
0.0
 11
126.3179999999999
 21
191.26400000000001
 31
0.0
  0
LINE
  5
69
  8
0
 62
     7
 10
126.3179999999999
 20
191.26400000000001
 30
0.0
 11
125.48
 21
192.101
 31
0.0
  0
LINE
  5
6A
  8
0
 62
     7
 10
131.10299999999989
 20
196.8959999999999
 30
0.0
 11
124.331
 21
190.125
 31
0.0
  0
LINE
  5
6B
  8
0
 62
     7
 10
156.84399999999999
 20
205.42899999999989
 30
0.0
 11
157.43600000000001
 21
203.2179999999999
 31
0.0
  0
LINE
  5
6C
  8
0
 62
     7
 10
157.43600000000001
 20
203.2179999999999
 30
0.0
 11
158.02799999999991
 21
205.42899999999989
 31
0.0
  0
LINE
  5
6D
  8
0
 62
     7
 10
158.02799999999991
 20
205.42899999999989
 30
0.0
 11
156.84399999999999
 21
205.42899999999989
 31
0.0
  0
LINE
  5
6E
  8
0
 62
     7
 10
157.42899999999989
 20
218.88499999999991
 30
0.0
 11
157.42899999999989
 21
203.2179999999999
 31
0.0
  0
LINE
  5
6F
  8
0
 62
     7
 10
150.67599999999999
 20
203.2179999999999
 30
0.0
 11
158.1279999999999
 21
203.2179999999999
 31
0.0
  0
LINE
  5
70
  8
0
 62
     7
 10
124.17399999999989
 20
180.47699999999989
 30
0.0
 11
124.17399999999989
 21
188.63800000000001
 31
0.0
  0
LINE
  5
71
  8
0
 62
     7
 10
168.17400000000001
 20
180.47699999999989
 30
0.0
 11
168.17400000000001
 21
188.63800000000001
 31
0.0
  0
LINE
  5
72
  8
0
 62
     7
 10
165.96299999999991
 20
180.59299999999999
 30
0.0
 11
168.17400000000001
 21
181.18499999999989
 31
0.0
  0
LINE
  5
73
  8
0
 62
     7
 10
168.17400000000001
 20
181.18499999999989
 30
0.0
 11
165.96299999999991
 21
181.77699999999999
 31
0.0
  0
LINE
  5
74
  8
0
 62
     7
 10
165.96299999999991
 20
181.77699999999999
 30
0.0
 11
165.96299999999991
 21
180.59299999999999
 31
0.0
  0
LINE
  5
75
  8
0
 62
     7
 10
126.384
 20
181.76300000000001
 30
0.0
 11
124.17399999999989
 21
181.1699999999999
 31
0.0
  0
LINE
  5
76
  8
0
 62
     7
 10
124.17399999999989
 20
181.1699999999999
 30
0.0
 11
126.384
 21
180.578
 31
0.0
  0
LINE
  5
77
  8
0
 62
     7
 10
126.384
 20
180.578
 30
0.0
 11
126.384
 21
181.76300000000001
 31
0.0
  0
LINE
  5
78
  8
0
 62
     7
 10
168.17400000000001
 20
181.17799999999991
 30
0.0
 11
124.17399999999989
 21
181.17799999999991
 31
0.0
  0
LINE
  5
79
  8
0
  6
AIGENLINE002
 62
     7
 10
150.13800000000001
 20
203.2179999999999
 30
0.0
 11
141.83500000000001
 21
203.2179999999999
 31
0.0
  0
ARC
  5
7A
  8
0
  6
AIGENLINE001
 62
     7
 10
146.17365499999991
 20
203.21842399999991
 30
0.0
 40
1.5329909999999991
 50
359.99035299999991
 51
89.990323000000004
  0
ARC
  5
7B
  8
0
  6
AIGENLINE001
 62
     7
 10
146.17399999999989
 20
203.21825100000001
 30
0.0
 40
1.533164
 50
90.003219000000016
 51
180.003229
  0
ARC
  5
7C
  8
0
  6
AIGENLINE001
 62
     7
 10
146.174172
 20
203.217907
 30
0.0
 40
1.5333349999999999
 50
179.9903149999999
 51
269.99036499999988
  0
ARC
  5
7D
  8
0
  6
AIGENLINE001
 62
     7
 10
146.173483
 20
203.21773499999989
 30
0.0
 40
1.533164
 50
270.0161129999999
 51
0.016083
  0
ARC
  5
7E
  8
0
  6
AIGENLINE001
 62
     7
 10
146.0716129999999
 20
203.11622299999999
 30
0.0
 40
2.7703530000000001
 50
2.108835
 51
87.883752000000001
  0
ARC
  5
7F
  8
0
  6
AIGENLINE001
 62
     7
 10
146.27586099999999
 20
203.115861
 30
0.0
 40
2.7707019999999991
 50
92.108652000000006
 51
177.88391699999991
  0
ARC
  5
80
  8
0
  6
AIGENLINE001
 62
     7
 10
146.275721
 20
203.32015199999989
 30
0.0
 40
2.7705500000000001
 50
182.10960099999991
 51
267.8941299999999
  0
ARC
  5
81
  8
0
  6
AIGENLINE001
 62
     7
 10
146.07190499999999
 20
203.319638
 30
0.0
 40
2.7700439999999991
 50
272.11043699999988
 51
357.90067699999997
  0
LINE
  5
82
  8
0
  6
AIGENLINE002
 62
     7
 10
146.17399999999989
 20
187.22799999999989
 30
0.0
 11
146.17399999999989
 21
221.404
 31
0.0
  0
LINE
  5
83
  8
0
  6
AIGENLINE003
 62
     7
 10
168.17400000000001
 20
218.88499999999991
 30
0.0
 11
124.17399999999989
 21
218.88499999999991
 31
0.0
  0
LINE
  5
84
  8
0
  6
AIGENLINE002
 62
     7
 10
64.823999999999998
 20
209.215
 30
0.0
 11
67.825100000000006
 21
209.215
 31
0.0
  0
ARC
  5
85
  8
0
 62
     7
 10
66.697424999999996
 20
209.21268099999989
 30
0.0
 40
0.404163
 50
0.2913969999999999
 51
41.312164000000003
  0
ARC
  5
86
  8
0
 62
     7
 10
66.427816000000007
 20
208.98978099999999
 30
0.0
 40
0.7538970000000002
 50
40.509627000000002
 51
75.923583999999991
  0
ARC
  5
87
  8
0
 62
     7
 10
66.273124999999993
 20
208.580896
 30
0.0
 40
1.1892039999999999
 50
73.485020000000006
 51
90.236879999999985
  0
ARC
  5
88
  8
0
 62
     7
 10
66.270343000000011
 20
208.65245200000001
 30
0.0
 40
1.1176399999999991
 50
90.109396000000004
 51
126.829185
  0
ARC
  5
89
  8
0
 62
     7
 10
65.911443999999989
 20
209.184675
 30
0.0
 40
0.4775560000000001
 50
130.642425
 51
176.39090799999991
  0
ARC
  5
8A
  8
0
 62
     7
 10
65.838576000000003
 20
209.21680699999999
 30
0.0
 40
0.4037460000000001
 50
180.2938639999999
 51
221.33450199999999
  0
ARC
  5
8B
  8
0
 62
     7
 10
66.108250999999996
 20
209.4396909999999
 30
0.0
 40
0.753517
 50
220.51687200000001
 51
255.94382300000001
  0
ARC
  5
8C
  8
0
 62
     7
 10
66.263202000000007
 20
209.84929299999999
 30
0.0
 40
1.1895759999999991
 50
253.49487500000001
 51
270.24116499999991
  0
ARC
  5
8D
  8
0
 62
     7
 10
66.266075999999984
 20
209.77796599999999
 30
0.0
 40
1.118239999999999
 50
270.10926799999999
 51
306.806084
  0
ARC
  5
8E
  8
0
 62
     7
 10
66.625311999999994
 20
209.24484099999989
 30
0.0
 40
0.4772210000000001
 50
310.62343399999992
 51
356.38325200000003
  0
LINE
  5
8F
  8
0
 62
     7
 10
170.6699999999999
 20
124.4469999999999
 30
0.0
 11
171.262
 21
122.23699999999999
 31
0.0
  0
LINE
  5
90
  8
0
 62
     7
 10
171.262
 20
122.23699999999999
 30
0.0
 11
171.85499999999999
 21
124.4469999999999
 31
0.0
  0
LINE
  5
91
  8
0
 62
     7
 10
171.85499999999999
 20
124.4469999999999
 30
0.0
 11
170.6699999999999
 21
124.4469999999999
 31
0.0
  0
LINE
  5
92
  8
0
 62
     7
 10
171.84
 20
130.02600000000001
 30
0.0
 11
171.24799999999999
 21
132.23699999999999
 31
0.0
  0
LINE
  5
93
  8
0
 62
     7
 10
171.24799999999999
 20
132.23699999999999
 30
0.0
 11
170.65599999999989
 21
130.02600000000001
 31
0.0
  0
LINE
  5
94
  8
0
 62
     7
 10
170.65599999999989
 20
130.02600000000001
 30
0.0
 11
171.84
 21
130.02600000000001
 31
0.0
  0
LINE
  5
95
  8
0
 62
     7
 10
171.255
 20
122.23699999999999
 30
0.0
 11
171.255
 21
132.23699999999999
 31
0.0
  0
LINE
  5
96
  8
0
 62
     7
 10
171.95400000000001
 20
122.23699999999999
 30
0.0
 11
162.31999999999991
 21
122.23699999999999
 31
0.0
  0
LINE
  5
97
  8
0
 62
     7
 10
171.95400000000001
 20
132.23699999999999
 30
0.0
 11
162.31999999999991
 21
132.23699999999999
 31
0.0
  0
LINE
  5
98
  8
0
  6
AIGENLINE001
 62
     7
 10
148.50700000000001
 20
124.56999999999999
 30
0.0
 11
145.107
 21
124.56999999999999
 31
0.0
  0
LINE
  5
99
  8
0
 62
     7
 10
145.107
 20
124.56999999999999
 30
0.0
 11
143.84
 21
124.56999999999999
 31
0.0
  0
LINE
  5
9A
  8
0
 62
     7
 10
145.77799999999991
 20
125.36
 30
0.0
 11
145.18600000000001
 21
127.56999999999999
 31
0.0
  0
LINE
  5
9B
  8
0
 62
     7
 10
145.18600000000001
 20
127.56999999999999
 30
0.0
 11
144.5929999999999
 21
125.36
 31
0.0
  0
LINE
  5
9C
  8
0
 62
     7
 10
144.5929999999999
 20
125.36
 30
0.0
 11
145.77799999999991
 21
125.36
 31
0.0
  0
LINE
  5
9D
  8
0
 62
     7
 10
144.608
 20
134.447
 30
0.0
 11
145.1999999999999
 21
132.23699999999999
 31
0.0
  0
LINE
  5
9E
  8
0
 62
     7
 10
145.1999999999999
 20
132.23699999999999
 30
0.0
 11
145.792
 21
134.447
 31
0.0
  0
LINE
  5
9F
  8
0
 62
     7
 10
145.792
 20
134.447
 30
0.0
 11
144.608
 21
134.447
 31
0.0
  0
LINE
  5
A0
  8
0
 62
     7
 10
145.1929999999999
 20
138.15299999999991
 30
0.0
 11
145.1929999999999
 21
123.78700000000001
 31
0.0
  0
LINE
  5
A1
  8
0
 62
     7
 10
159.63
 20
108.0049999999999
 30
0.0
 11
161.84100000000001
 21
108.59699999999999
 31
0.0
  0
LINE
  5
A2
  8
0
 62
     7
 10
161.84100000000001
 20
108.59699999999999
 30
0.0
 11
159.63
 21
109.19
 31
0.0
  0
LINE
  5
A3
  8
0
 62
     7
 10
159.63
 20
109.19
 30
0.0
 11
159.63
 21
108.0049999999999
 31
0.0
  0
LINE
  5
A4
  8
0
 62
     7
 10
136.05099999999999
 20
109.175
 30
0.0
 11
133.84
 21
108.583
 31
0.0
  0
LINE
  5
A5
  8
0
 62
     7
 10
133.84
 20
108.583
 30
0.0
 11
136.05099999999999
 21
107.9909999999999
 31
0.0
  0
LINE
  5
A6
  8
0
 62
     7
 10
136.05099999999999
 20
107.9909999999999
 30
0.0
 11
136.05099999999999
 21
109.175
 31
0.0
  0
LINE
  5
A7
  8
0
 62
     7
 10
161.84100000000001
 20
108.59
 30
0.0
 11
133.84
 21
108.59
 31
0.0
  0
LINE
  5
A8
  8
0
 62
     7
 10
161.84100000000001
 20
121.89
 30
0.0
 11
161.84100000000001
 21
107.89100000000001
 31
0.0
  0
LINE
  5
A9
  8
0
 62
     7
 10
133.84
 20
124.117
 30
0.0
 11
133.84
 21
107.89100000000001
 31
0.0
  0
LINE
  5
AA
  8
0
 62
     7
 10
148.38499999999991
 20
116.4129999999999
 30
0.0
 11
146.17399999999989
 21
115.8209999999999
 31
0.0
  0
LINE
  5
AB
  8
0
 62
     7
 10
146.17399999999989
 20
115.8209999999999
 30
0.0
 11
148.38499999999991
 21
115.229
 31
0.0
  0
LINE
  5
AC
  8
0
 62
     7
 10
148.38499999999991
 20
115.229
 30
0.0
 11
148.38499999999991
 21
116.4129999999999
 31
0.0
  0
LINE
  5
AD
  8
0
 62
     7
 10
159.63
 20
115.24299999999999
 30
0.0
 11
161.84100000000001
 21
115.83499999999989
 31
0.0
  0
LINE
  5
AE
  8
0
 62
     7
 10
161.84100000000001
 20
115.83499999999989
 30
0.0
 11
159.63
 21
116.4279999999999
 31
0.0
  0
LINE
  5
AF
  8
0
 62
     7
 10
159.63
 20
116.4279999999999
 30
0.0
 11
159.63
 21
115.24299999999999
 31
0.0
  0
LINE
  5
B0
  8
0
 62
     7
 10
146.17399999999989
 20
115.82899999999999
 30
0.0
 11
161.84100000000001
 21
115.82899999999999
 31
0.0
  0
LINE
  5
B1
  8
0
 62
     7
 10
146.17399999999989
 20
122.89100000000001
 30
0.0
 11
146.17399999999989
 21
115.12899999999991
 31
0.0
  0
LINE
  5
B2
  8
0
 62
     7
 10
126.3979999999999
 20
130.02600000000001
 30
0.0
 11
125.8059999999999
 21
132.23699999999999
 31
0.0
  0
LINE
  5
B3
  8
0
 62
     7
 10
125.8059999999999
 20
132.23699999999999
 30
0.0
 11
125.21299999999989
 21
130.02600000000001
 31
0.0
  0
LINE
  5
B4
  8
0
 62
     7
 10
125.21299999999989
 20
130.02600000000001
 30
0.0
 11
126.3979999999999
 21
130.02600000000001
 31
0.0
  0
LINE
  5
B5
  8
0
 62
     7
 10
125.22799999999999
 20
126.78
 30
0.0
 11
125.81999999999989
 21
124.56999999999999
 31
0.0
  0
LINE
  5
B6
  8
0
 62
     7
 10
125.81999999999989
 20
124.56999999999999
 30
0.0
 11
126.41200000000001
 21
126.78
 31
0.0
  0
LINE
  5
B7
  8
0
 62
     7
 10
126.41200000000001
 20
126.78
 30
0.0
 11
125.22799999999999
 21
126.78
 31
0.0
  0
LINE
  5
B8
  8
0
 62
     7
 10
125.8129999999999
 20
132.23699999999999
 30
0.0
 11
125.8129999999999
 21
124.56999999999999
 31
0.0
  0
LINE
  5
B9
  8
0
  6
AIGENLINE002
 62
     7
 10
158.59100000000001
 20
128.23699999999999
 30
0.0
 11
164.36500000000001
 21
128.23699999999999
 31
0.0
  0
LINE
  5
BA
  8
0
 62
     7
 10
132.37399999999991
 20
132.23699999999999
 30
0.0
 11
161.84100000000001
 21
132.23699999999999
 31
0.0
  0
LINE
  5
BB
  8
0
  6
AIGENLINE001
 62
     7
 10
153.74100000000001
 20
132.089
 30
0.0
 11
151.30099999999999
 21
128.42699999999999
 31
0.0
  0
ARC
  5
BC
  8
0
  6
AIGENLINE001
 62
     7
 10
154.02199899999991
 20
131.89701899999989
 30
0.0
 40
0.339688
 50
90.541228000000004
 51
145.67757800000001
  0
LINE
  5
BD
  8
0
  6
AIGENLINE001
 62
     7
 10
150.95699999999999
 20
128.16499999999991
 30
0.0
 11
148.84
 21
127.56999999999999
 31
0.0
  0
ARC
  5
BE
  8
0
  6
AIGENLINE001
 62
     7
 10
150.74252799999991
 20
128.801917
 30
0.0
 40
0.672072
 50
288.58912199999997
 51
326.13631600000002
  0
LINE
  5
BF
  8
0
  6
AIGENLINE001
 62
     7
 10
143.50700000000001
 20
127.56999999999999
 30
0.0
 11
137.322
 21
128.55500000000001
 31
0.0
  0
LINE
  5
C0
  8
0
  6
AIGENLINE001
 62
     7
 10
134.667
 20
132.017
 30
0.0
 11
137.08600000000001
 21
128.69099999999989
 31
0.0
  0
ARC
  5
C1
  8
0
  6
AIGENLINE001
 62
     7
 10
137.358148
 20
128.89063300000001
 30
0.0
 40
0.337296
 50
216.22155499999991
 51
263.91164700000002
  0
ARC
  5
C2
  8
0
  6
AIGENLINE001
 62
     7
 10
134.23163799999989
 20
131.6959019999999
 30
0.0
 40
0.540804
 50
36.408954999999999
 51
89.585643999999974
  0
LINE
  5
C3
  8
0
  6
AIGENLINE001
 62
     7
 10
147.70699999999991
 20
126.9039999999999
 30
0.0
 11
148.84
 21
127.56999999999999
 31
0.0
  0
LINE
  5
C4
  8
0
  6
AIGENLINE001
 62
     7
 10
144.6399999999999
 20
126.9039999999999
 30
0.0
 11
143.50700000000001
 21
127.56999999999999
 31
0.0
  0
LINE
  5
C5
  8
0
  6
AIGENLINE001
 62
     7
 10
148.84
 20
127.56999999999999
 30
0.0
 11
143.50700000000001
 21
127.56999999999999
 31
0.0
  0
LINE
  5
C6
  8
0
  6
AIGENLINE001
 62
     7
 10
147.70699999999991
 20
124.56999999999999
 30
0.0
 11
147.70699999999991
 21
126.9039999999999
 31
0.0
  0
LINE
  5
C7
  8
0
  6
AIGENLINE001
 62
     7
 10
144.6399999999999
 20
124.56999999999999
 30
0.0
 11
144.6399999999999
 21
126.9039999999999
 31
0.0
  0
LINE
  5
C8
  8
0
  6
AIGENLINE001
 62
     7
 10
147.70699999999991
 20
126.9039999999999
 30
0.0
 11
144.6399999999999
 21
126.9039999999999
 31
0.0
  0
LINE
  5
C9
  8
0
  6
AIGENLINE001
 62
     7
 10
148.84
 20
124.90299999999991
 30
0.0
 11
148.84
 21
126.3519999999999
 31
0.0
  0
ARC
  5
CA
  8
0
  6
AIGENLINE001
 62
     7
 10
148.49446499999991
 20
124.915898
 30
0.0
 40
0.346195
 50
272.06632100000002
 51
357.93368900000002
  0
LINE
  5
CB
  8
0
  6
AIGENLINE001
 62
     7
 10
143.50700000000001
 20
124.90299999999991
 30
0.0
 11
143.50700000000001
 21
126.3519999999999
 31
0.0
  0
ARC
  5
CC
  8
0
 62
     7
 10
143.853522
 20
124.91603000000001
 30
0.0
 40
0.346359
 50
182.08724799999999
 51
267.79427900000002
  0
LINE
  5
CD
  8
0
  6
AIGENLINE002
 62
     7
 10
146.17399999999989
 20
123.422
 30
0.0
 11
146.17399999999989
 21
128.45299999999989
 31
0.0
  0
LINE
  5
CE
  8
0
 62
     7
 10
143.285
 20
124.56999999999999
 30
0.0
 11
125.1139999999999
 21
124.56999999999999
 31
0.0
  0
LINE
  5
CF
  8
0
 62
     7
 10
131.48699999999991
 20
132.23699999999999
 30
0.0
 11
125.1139999999999
 21
132.23699999999999
 31
0.0
  0
LINE
  5
D0
  8
0
 62
     7
 10
131.84100000000001
 20
129.23699999999999
 30
0.0
 11
161.84100000000001
 21
129.23699999999999
 31
0.0
  0
LINE
  5
D1
  8
0
 62
     7
 10
134.17400000000001
 20
124.90299999999991
 30
0.0
 11
161.84100000000001
 21
124.90299999999991
 31
0.0
  0
LINE
  5
D2
  8
0
 62
     7
 10
133.84
 20
125.23699999999999
 30
0.0
 11
133.84
 21
128.90399999999991
 31
0.0
  0
ARC
  5
D3
  8
0
 62
     7
 10
134.18620000000001
 20
125.2495659999999
 30
0.0
 40
0.346382
 50
182.09516300000001
 51
267.90486699999991
  0
ARC
  5
D4
  8
0
 62
     7
 10
133.49401299999991
 20
128.891018
 30
0.0
 40
0.3462639999999999
 50
2.0726169999999988
 51
87.808870999999996
  0
LINE
  5
D5
  8
0
 62
     7
 10
131.84100000000001
 20
129.23699999999999
 30
0.0
 11
131.84100000000001
 21
131.70400000000001
 31
0.0
  0
ARC
  5
D6
  8
0
 62
     7
 10
132.39407299999991
 20
131.68310899999989
 30
0.0
 40
0.553954
 50
92.096527000000023
 51
177.8664179999999
  0
LINE
  5
D7
  8
0
 62
     7
 10
143.50700000000001
 20
124.90299999999991
 30
0.0
 11
159.84100000000001
 21
122.23699999999999
 31
0.0
  0
LINE
  5
D8
  8
0
 62
     7
 10
161.84100000000001
 20
122.23699999999999
 30
0.0
 11
159.84100000000001
 21
122.23699999999999
 31
0.0
  0
LINE
  5
D9
  8
0
  6
AIGENLINE002
 62
     7
 10
157.50700000000001
 20
129.9129999999999
 30
0.0
 11
157.50700000000001
 21
134.989
 31
0.0
  0
LINE
  5
DA
  8
0
 62
     7
 10
161.84100000000001
 20
122.23699999999999
 30
0.0
 11
161.84100000000001
 21
132.23699999999999
 31
0.0
  0
LINE
  5
DB
  8
0
 62
     7
 10
44.935000000000002
 20
113.6579999999999
 30
0.0
 11
44.935000000000002
 21
123.9049999999999
 31
0.0
  0
LINE
  5
DC
  8
0
 62
     7
 10
87.601600000000005
 20
113.6579999999999
 30
0.0
 11
87.601600000000005
 21
123.9049999999999
 31
0.0
  0
LINE
  5
DD
  8
0
 62
     7
 10
85.391000000000005
 20
113.7729999999999
 30
0.0
 11
87.601600000000005
 21
114.3639999999999
 31
0.0
  0
LINE
  5
DE
  8
0
 62
     7
 10
87.601600000000005
 20
114.3639999999999
 30
0.0
 11
85.391000000000005
 21
114.95699999999999
 31
0.0
  0
LINE
  5
DF
  8
0
 62
     7
 10
85.391000000000005
 20
114.95699999999999
 30
0.0
 11
85.391000000000005
 21
113.7729999999999
 31
0.0
  0
LINE
  5
E0
  8
0
 62
     7
 10
47.145600000000002
 20
114.94199999999999
 30
0.0
 11
44.935200000000002
 21
114.34999999999989
 31
0.0
  0
LINE
  5
E1
  8
0
 62
     7
 10
44.935200000000002
 20
114.34999999999989
 30
0.0
 11
47.145600000000002
 21
113.758
 31
0.0
  0
LINE
  5
E2
  8
0
 62
     7
 10
47.145600000000002
 20
113.758
 30
0.0
 11
47.145600000000002
 21
114.94199999999999
 31
0.0
  0
LINE
  5
E3
  8
0
 62
     7
 10
87.601600000000005
 20
114.357
 30
0.0
 11
44.935000000000002
 21
114.357
 31
0.0
  0
LINE
  5
E4
  8
0
 62
     7
 10
95.186700000000002
 20
134.447
 30
0.0
 11
95.778899999999993
 21
132.23699999999999
 31
0.0
  0
LINE
  5
E5
  8
0
 62
     7
 10
95.778899999999993
 20
132.23699999999999
 30
0.0
 11
96.371300000000005
 21
134.447
 31
0.0
  0
LINE
  5
E6
  8
0
 62
     7
 10
96.371300000000005
 20
134.447
 30
0.0
 11
95.186700000000002
 21
134.447
 31
0.0
  0
LINE
  5
E7
  8
0
 62
     7
 10
96.356499999999997
 20
127.026
 30
0.0
 11
95.764300000000006
 21
129.23699999999999
 31
0.0
  0
LINE
  5
E8
  8
0
 62
     7
 10
95.764300000000006
 20
129.23699999999999
 30
0.0
 11
95.1721
 21
127.026
 31
0.0
  0
LINE
  5
E9
  8
0
 62
     7
 10
95.1721
 20
127.026
 30
0.0
 11
96.356499999999997
 21
127.026
 31
0.0
  0
LINE
  5
EA
  8
0
 62
     7
 10
95.771699999999996
 20
126.03100000000001
 30
0.0
 11
95.771699999999996
 21
138.0629999999999
 31
0.0
  0
LINE
  5
EB
  8
0
 62
     7
 10
96.472100000000012
 20
129.23699999999999
 30
0.0
 11
90.622900000000001
 21
129.23699999999999
 31
0.0
  0
LINE
  5
EC
  8
0
 62
     7
 10
38.087499999999991
 20
126.027
 30
0.0
 11
37.4953
 21
128.23699999999999
 31
0.0
  0
LINE
  5
ED
  8
0
 62
     7
 10
37.4953
 20
128.23699999999999
 30
0.0
 11
36.902900000000002
 21
126.027
 31
0.0
  0
LINE
  5
EE
  8
0
 62
     7
 10
36.902900000000002
 20
126.027
 30
0.0
 11
38.087499999999991
 21
126.027
 31
0.0
  0
LINE
  5
EF
  8
0
 62
     7
 10
36.917700000000004
 20
134.447
 30
0.0
 11
37.509700000000002
 21
132.23699999999999
 31
0.0
  0
LINE
  5
F0
  8
0
 62
     7
 10
37.509700000000002
 20
132.23699999999999
 30
0.0
 11
38.1021
 21
134.447
 31
0.0
  0
LINE
  5
F1
  8
0
 62
     7
 10
38.1021
 20
134.447
 30
0.0
 11
36.917700000000004
 21
134.447
 31
0.0
  0
LINE
  5
F2
  8
0
 62
     7
 10
37.502499999999991
 20
135.56
 30
0.0
 11
37.502499999999991
 21
124.9889999999999
 31
0.0
  0
LINE
  5
F3
  8
0
 62
     7
 10
36.756999999999991
 20
132.23699999999999
 30
0.0
 11
41.991700000000002
 21
132.23699999999999
 31
0.0
  0
LINE
  5
F4
  8
0
 62
     7
 10
36.649799999999992
 20
128.23699999999999
 30
0.0
 11
54.604599999999998
 21
128.23699999999999
 31
0.0
  0
LINE
  5
F5
  8
0
 62
     7
 10
90.622900000000001
 20
132.23699999999999
 30
0.0
 11
96.50200000000001
 21
132.23699999999999
 31
0.0
  0
LINE
  5
F6
  8
0
 62
     7
 10
75.601399999999998
 20
138.39400000000001
 30
0.0
 11
75.601399999999998
 21
129.91799999999989
 31
0.0
  0
LINE
  5
F7
  8
0
  6
AIGENLINE002
 62
     7
 10
75.601399999999998
 20
127.105
 30
0.0
 11
75.601399999999998
 21
129.56899999999999
 31
0.0
  0
LINE
  5
F8
  8
0
  6
AIGENLINE001
 62
     7
 10
75.934899999999999
 20
127.56999999999999
 30
0.0
 11
75.268199999999993
 21
127.56999999999999
 31
0.0
  0
LINE
  5
F9
  8
0
  6
AIGENLINE001
 62
     7
 10
75.934899999999999
 20
128.90399999999991
 30
0.0
 11
75.268199999999993
 21
128.90399999999991
 31
0.0
  0
ARC
  5
FA
  8
0
  6
AIGENLINE001
 62
     7
 10
75.909893000000011
 20
128.21194
 30
0.0
 40
0.6920510000000001
 50
2.067793
 51
87.932196999999988
  0
ARC
  5
FB
  8
0
  6
AIGENLINE001
 62
     7
 10
75.909149999999997
 20
128.2622659999999
 30
0.0
 40
0.692807
 50
272.12698099999989
 51
357.90263099999987
  0
ARC
  5
FC
  8
0
  6
AIGENLINE001
 62
     7
 10
75.293633999999997
 20
128.26195499999989
 30
0.0
 40
0.6924850000000001
 50
182.07259099999999
 51
267.89783599999993
  0
ARC
  5
FD
  8
0
  6
AIGENLINE001
 62
     7
 10
75.293625000000006
 20
128.2115189999999
 30
0.0
 40
0.692488
 50
92.101383999999996
 51
177.89858599999999
  0
LINE
  5
FE
  8
0
  6
AIGENLINE002
 62
     7
 10
77.199600000000004
 20
128.23699999999999
 30
0.0
 11
73.987700000000004
 21
128.23699999999999
 31
0.0
  0
LINE
  5
FF
  8
0
 62
     7
 10
78.837000000000003
 20
122.395
 30
0.0
 11
76.355199999999996
 21
124.50399999999991
 31
0.0
  0
LINE
  5
100
  8
0
 62
     7
 10
80.601600000000005
 20
122.23699999999999
 30
0.0
 11
79.268000000000001
 21
122.23699999999999
 31
0.0
  0
ARC
  5
101
  8
0
 62
     7
 10
79.28058
 20
122.921013
 30
0.0
 40
0.684234
 50
200.322001
 51
268.9477169999999
  0
LINE
  5
102
  8
0
 62
     7
 10
74.072400000000002
 20
124.81699999999999
 30
0.0
 11
74.018299999999996
 21
124.90299999999991
 31
0.0
  0
LINE
  5
103
  8
0
 62
     7
 10
74.637799999999984
 20
124.50399999999991
 30
0.0
 11
76.355199999999996
 21
124.50399999999991
 31
0.0
  0
ARC
  5
104
  8
0
 62
     7
 10
74.644761000000003
 20
125.183273
 30
0.0
 40
0.6795270000000001
 50
212.622095
 51
269.41111699999988
  0
LINE
  5
105
  8
0
 62
     7
 10
81.268199999999993
 20
124.90299999999991
 30
0.0
 11
81.268199999999993
 21
122.9039999999999
 31
0.0
  0
ARC
  5
106
  8
0
 62
     7
 10
80.575925999999995
 20
122.929205
 30
0.0
 40
0.692786
 50
272.12538499999999
 51
357.90422799999988
  0
LINE
  5
107
  8
0
 62
     7
 10
56.935000000000002
 20
138.39400000000001
 30
0.0
 11
56.935000000000002
 21
129.91799999999989
 31
0.0
  0
LINE
  5
108
  8
0
  6
AIGENLINE002
 62
     7
 10
56.935000000000002
 20
127.105
 30
0.0
 11
56.935000000000002
 21
129.56899999999999
 31
0.0
  0
LINE
  5
109
  8
0
  6
AIGENLINE001
 62
     7
 10
56.601599999999998
 20
127.56999999999999
 30
0.0
 11
57.2682
 21
127.56999999999999
 31
0.0
  0
LINE
  5
10A
  8
0
  6
AIGENLINE001
 62
     7
 10
56.601599999999998
 20
128.90399999999991
 30
0.0
 11
57.2682
 21
128.90399999999991
 31
0.0
  0
ARC
  5
10B
  8
0
  6
AIGENLINE001
 62
     7
 10
56.626931000000013
 20
128.211534
 30
0.0
 40
0.692472
 50
92.100183999999999
 51
177.89978600000001
  0
ARC
  5
10C
  8
0
  6
AIGENLINE001
 62
     7
 10
56.627267000000003
 20
128.2622659999999
 30
0.0
 40
0.692807
 50
182.0973709999999
 51
267.87305600000002
  0
ARC
  5
10D
  8
0
  6
AIGENLINE001
 62
     7
 10
57.243287000000002
 20
128.26145099999991
 30
0.0
 40
0.691963
 50
272.06198499999988
 51
357.96762799999999
  0
ARC
  5
10E
  8
0
  6
AIGENLINE001
 62
     7
 10
57.242792000000001
 20
128.2115189999999
 30
0.0
 40
0.692488
 50
2.1014110000000001
 51
87.898578999999984
  0
LINE
  5
10F
  8
0
  6
AIGENLINE002
 62
     7
 10
55.336899999999993
 20
128.23699999999999
 30
0.0
 11
58.548699999999997
 21
128.23699999999999
 31
0.0
  0
LINE
  5
110
  8
0
 62
     7
 10
53.69939999999999
 20
122.395
 30
0.0
 11
56.181199999999997
 21
124.50399999999991
 31
0.0
  0
LINE
  5
111
  8
0
 62
     7
 10
51.934800000000003
 20
122.23699999999999
 30
0.0
 11
53.2684
 21
122.23699999999999
 31
0.0
  0
ARC
  5
112
  8
0
 62
     7
 10
76.339464000000007
 20
121.784183
 30
0.0
 40
2.4690340000000002
 50
21.357773000000002
 51
38.528055000000002
  0
ARC
  5
113
  8
0
 62
     7
 10
75.455220999999995
 20
121.172084
 30
0.0
 40
3.5427859999999991
 50
37.364429999999992
 51
60.653950999999999
  0
ARC
  5
114
  8
0
 62
     7
 10
76.238644999999991
 20
122.54591499999999
 30
0.0
 40
1.9613309999999999
 50
60.934407
 51
86.594059000000016
  0
ARC
  5
115
  8
0
 62
     7
 10
56.196953000000001
 20
121.784183
 30
0.0
 40
2.4690340000000002
 50
141.471925
 51
158.64220700000001
  0
ARC
  5
116
  8
0
 62
     7
 10
57.081195999999991
 20
121.172084
 30
0.0
 40
3.5427859999999991
 50
119.3460289999999
 51
142.63554999999991
  0
ARC
  5
117
  8
0
 62
     7
 10
56.297771999999988
 20
122.54591499999999
 30
0.0
 40
1.9613309999999999
 50
93.405922000000004
 51
119.065573
  0
ARC
  5
118
  8
0
 62
     7
 10
53.255989999999997
 20
122.92079799999991
 30
0.0
 40
0.684016
 50
271.03981400000009
 51
339.69050600000003
  0
LINE
  5
119
  8
0
 62
     7
 10
58.463999999999999
 20
124.81699999999999
 30
0.0
 11
58.518099999999997
 21
124.90299999999991
 31
0.0
  0
LINE
  5
11A
  8
0
 62
     7
 10
57.898600000000002
 20
124.50399999999991
 30
0.0
 11
56.181199999999997
 21
124.50399999999991
 31
0.0
  0
ARC
  5
11B
  8
0
 62
     7
 10
57.891736000000002
 20
125.18312899999999
 30
0.0
 40
0.679382
 50
270.58230400000002
 51
327.384523
  0
LINE
  5
11C
  8
0
 62
     7
 10
51.2682
 20
124.90299999999991
 30
0.0
 11
51.2682
 21
122.9039999999999
 31
0.0
  0
ARC
  5
11D
  8
0
 62
     7
 10
51.96049099999999
 20
122.929204
 30
0.0
 40
0.692786
 50
182.09577499999989
 51
267.87465200000003
  0
LINE
  5
11E
  8
0
 62
     7
 10
87.601600000000005
 20
125.23699999999999
 30
0.0
 11
87.601600000000005
 21
129.23699999999999
 31
0.0
  0
LINE
  5
11F
  8
0
 62
     7
 10
45.268500000000003
 20
124.90299999999991
 30
0.0
 11
87.268400000000014
 21
124.90299999999991
 31
0.0
  0
ARC
  5
120
  8
0
 62
     7
 10
87.255675999999994
 20
125.249307
 30
0.0
 40
0.346127
 50
272.11293000000001
 51
357.94630100000001
  0
LINE
  5
121
  8
0
 62
     7
 10
44.935000000000002
 20
125.23699999999999
 30
0.0
 11
44.935000000000002
 21
129.23699999999999
 31
0.0
  0
ARC
  5
122
  8
0
 62
     7
 10
45.281259999999989
 20
125.2496669999999
 30
0.0
 40
0.346486
 50
182.11117200000001
 51
267.88885800000003
  0
LINE
  5
123
  8
0
 62
     7
 10
63.934800000000003
 20
124.56999999999999
 30
0.0
 11
68.601600000000005
 21
124.56999999999999
 31
0.0
  0
ARC
  5
124
  8
0
 62
     7
 10
68.588960999999983
 20
124.91604099999989
 30
0.0
 40
0.346343
 50
272.08912599999991
 51
357.9108839999999
  0
ARC
  5
125
  8
0
 62
     7
 10
63.947928000000012
 20
124.9161549999999
 30
0.0
 40
0.3464749999999999
 50
182.10721699999991
 51
267.83359300000001
  0
LINE
  5
126
  8
0
  6
AIGENLINE002
 62
     7
 10
66.268199999999993
 20
133.76400000000001
 30
0.0
 11
66.268199999999993
 21
122.1449999999999
 31
0.0
  0
LINE
  5
127
  8
0
 62
     7
 10
89.601799999999983
 20
131.90299999999991
 30
0.0
 11
89.601799999999983
 21
129.23699999999999
 31
0.0
  0
LINE
  5
128
  8
0
  6
AIGENLINE002
 62
     7
 10
62.993499999999997
 20
129.90399999999991
 30
0.0
 11
69.872699999999995
 21
129.90399999999991
 31
0.0
  0
LINE
  5
129
  8
0
 62
     7
 10
43.268099999999997
 20
132.23699999999999
 30
0.0
 11
89.268299999999996
 21
132.23699999999999
 31
0.0
  0
ARC
  5
12A
  8
0
 62
     7
 10
89.255656999999985
 20
131.89053299999989
 30
0.0
 40
0.346391
 50
2.096457
 51
87.90353300000001
  0
LINE
  5
12B
  8
0
 62
     7
 10
42.934899999999999
 20
129.23699999999999
 30
0.0
 11
42.934899999999999
 21
131.90299999999991
 31
0.0
  0
ARC
  5
12C
  8
0
 62
     7
 10
43.280724999999997
 20
131.890927
 30
0.0
 40
0.345996
 50
92.092860000000002
 51
177.96632999999991
  0
LINE
  5
12D
  8
0
 62
     7
 10
42.934899999999999
 20
129.23699999999999
 30
0.0
 11
89.601799999999983
 21
129.23699999999999
 31
0.0
  0
LINE
  5
12E
  8
0
 62
     7
 10
97.879599999999996
 20
212.76199999999989
 30
0.0
 11
98.471800000000016
 21
210.5509999999999
 31
0.0
  0
LINE
  5
12F
  8
0
 62
     7
 10
98.471800000000016
 20
210.5509999999999
 30
0.0
 11
99.063999999999993
 21
212.76199999999989
 31
0.0
  0
LINE
  5
130
  8
0
 62
     7
 10
99.063999999999993
 20
212.76199999999989
 30
0.0
 11
97.879599999999996
 21
212.76199999999989
 31
0.0
  0
LINE
  5
131
  8
0
 62
     7
 10
97.879599999999996
 20
192.762
 30
0.0
 11
98.471800000000016
 21
190.5509999999999
 31
0.0
  0
LINE
  5
132
  8
0
 62
     7
 10
98.471800000000016
 20
190.5509999999999
 30
0.0
 11
99.063999999999993
 21
192.762
 31
0.0
  0
LINE
  5
133
  8
0
 62
     7
 10
99.063999999999993
 20
192.762
 30
0.0
 11
97.879599999999996
 21
192.762
 31
0.0
  0
LINE
  5
134
  8
0
 62
     7
 10
99.049499999999995
 20
186.00700000000001
 30
0.0
 11
98.457300000000004
 21
188.2179999999999
 31
0.0
  0
LINE
  5
135
  8
0
 62
     7
 10
98.457300000000004
 20
188.2179999999999
 30
0.0
 11
97.865099999999984
 21
186.00700000000001
 31
0.0
  0
LINE
  5
136
  8
0
 62
     7
 10
97.865099999999984
 20
186.00700000000001
 30
0.0
 11
99.049499999999995
 21
186.00700000000001
 31
0.0
  0
LINE
  5
137
  8
0
 62
     7
 10
99.049499999999995
 20
208.34099999999989
 30
0.0
 11
98.457300000000004
 21
210.5509999999999
 31
0.0
  0
LINE
  5
138
  8
0
 62
     7
 10
98.457300000000004
 20
210.5509999999999
 30
0.0
 11
97.865099999999984
 21
208.34099999999989
 31
0.0
  0
LINE
  5
139
  8
0
 62
     7
 10
97.865099999999984
 20
208.34099999999989
 30
0.0
 11
99.049499999999995
 21
208.34099999999989
 31
0.0
  0
LINE
  5
13A
  8
0
 62
     7
 10
99.049499999999995
 20
216.67400000000001
 30
0.0
 11
98.457300000000004
 21
218.88499999999991
 31
0.0
  0
LINE
  5
13B
  8
0
 62
     7
 10
98.457300000000004
 20
218.88499999999991
 30
0.0
 11
97.865099999999984
 21
216.67400000000001
 31
0.0
  0
LINE
  5
13C
  8
0
 62
     7
 10
97.865099999999984
 20
216.67400000000001
 30
0.0
 11
99.049499999999995
 21
216.67400000000001
 31
0.0
  0
LINE
  5
13D
  8
0
 62
     7
 10
98.464600000000004
 20
182.124
 30
0.0
 11
98.464600000000004
 21
218.2179999999999
 31
0.0
  0
LINE
  5
13E
  8
0
 62
     7
 10
105.53399999999991
 20
190.42799999999991
 30
0.0
 11
106.126
 21
188.2179999999999
 31
0.0
  0
LINE
  5
13F
  8
0
 62
     7
 10
106.126
 20
188.2179999999999
 30
0.0
 11
106.71899999999989
 21
190.42799999999991
 31
0.0
  0
LINE
  5
140
  8
0
 62
     7
 10
106.71899999999989
 20
190.42799999999991
 30
0.0
 11
105.53399999999991
 21
190.42799999999991
 31
0.0
  0
LINE
  5
141
  8
0
 62
     7
 10
106.70399999999989
 20
216.67400000000001
 30
0.0
 11
106.11199999999999
 21
218.88499999999991
 31
0.0
  0
LINE
  5
142
  8
0
 62
     7
 10
106.11199999999999
 20
218.88499999999991
 30
0.0
 11
105.51899999999991
 21
216.67400000000001
 31
0.0
  0
LINE
  5
143
  8
0
 62
     7
 10
105.51899999999991
 20
216.67400000000001
 30
0.0
 11
106.70399999999989
 21
216.67400000000001
 31
0.0
  0
LINE
  5
144
  8
0
 62
     7
 10
106.119
 20
188.2179999999999
 30
0.0
 11
106.119
 21
218.88499999999991
 31
0.0
  0
LINE
  5
145
  8
0
 62
     7
 10
106.8189999999999
 20
188.2179999999999
 30
0.0
 11
90.5959
 21
188.2179999999999
 31
0.0
  0
LINE
  5
146
  8
0
 62
     7
 10
99.165099999999995
 20
190.5509999999999
 30
0.0
 11
84.720399999999984
 21
190.5509999999999
 31
0.0
  0
LINE
  5
147
  8
0
 62
     7
 10
99.165099999999995
 20
210.5509999999999
 30
0.0
 11
84.720399999999984
 21
210.5509999999999
 31
0.0
  0
LINE
  5
148
  8
0
 62
     7
 10
106.8189999999999
 20
218.88499999999991
 30
0.0
 11
90.575199999999995
 21
218.88499999999991
 31
0.0
  0
LINE
  5
149
  8
0
 62
     7
 10
49.379199999999997
 20
224.22699999999989
 30
0.0
 11
56.59259999999999
 21
224.22699999999989
 31
0.0
  0
LINE
  5
14A
  8
0
 62
     7
 10
63.466999999999999
 20
216.5259999999999
 30
0.0
 11
65.448800000000006
 21
215.38099999999989
 31
0.0
  0
LINE
  5
14B
  8
0
 62
     7
 10
65.448800000000006
 20
215.38099999999989
 30
0.0
 11
64.304699999999997
 21
217.363
 31
0.0
  0
LINE
  5
14C
  8
0
 62
     7
 10
64.304699999999997
 20
217.363
 30
0.0
 11
63.466999999999999
 21
216.5259999999999
 31
0.0
  0
LINE
  5
14D
  8
0
 62
     7
 10
69.075299999999999
 20
212.58199999999999
 30
0.0
 11
67.093500000000006
 21
213.72599999999991
 31
0.0
  0
LINE
  5
14E
  8
0
 62
     7
 10
67.093500000000006
 20
213.72599999999991
 30
0.0
 11
68.2376
 21
211.744
 31
0.0
  0
LINE
  5
14F
  8
0
 62
     7
 10
68.2376
 20
211.744
 30
0.0
 11
69.075299999999999
 21
212.58199999999999
 31
0.0
  0
LINE
  5
150
  8
0
 62
     7
 10
69.519900000000007
 20
211.2999999999999
 30
0.0
 11
56.59259999999999
 21
224.22699999999989
 31
0.0
  0
LINE
  5
151
  8
0
 62
     7
 10
86.944400000000002
 20
221.09499999999991
 30
0.0
 11
87.536600000000007
 21
218.88499999999991
 31
0.0
  0
LINE
  5
152
  8
0
 62
     7
 10
87.536600000000007
 20
218.88499999999991
 30
0.0
 11
88.128999999999991
 21
221.09499999999991
 31
0.0
  0
LINE
  5
153
  8
0
 62
     7
 10
88.128999999999991
 20
221.09499999999991
 30
0.0
 11
86.944400000000002
 21
221.09499999999991
 31
0.0
  0
LINE
  5
154
  8
0
 62
     7
 10
88.114400000000003
 20
208.0079999999999
 30
0.0
 11
87.522199999999984
 21
210.2179999999999
 31
0.0
  0
LINE
  5
155
  8
0
 62
     7
 10
87.522199999999984
 20
210.2179999999999
 30
0.0
 11
86.9298
 21
208.0079999999999
 31
0.0
  0
LINE
  5
156
  8
0
 62
     7
 10
86.9298
 20
208.0079999999999
 30
0.0
 11
88.114400000000003
 21
208.0079999999999
 31
0.0
  0
LINE
  5
157
  8
0
 62
     7
 10
87.529399999999995
 20
206.00099999999989
 30
0.0
 11
87.529399999999995
 21
222.82299999999989
 31
0.0
  0
LINE
  5
158
  8
0
 62
     7
 10
88.230000000000004
 20
214.55199999999999
 30
0.0
 11
76.059399999999997
 21
214.55199999999999
 31
0.0
  0
LINE
  5
159
  8
0
 62
     7
 10
36.32
 20
205.42899999999989
 30
0.0
 11
36.912199999999991
 21
203.2179999999999
 31
0.0
  0
LINE
  5
15A
  8
0
 62
     7
 10
36.912199999999991
 20
203.2179999999999
 30
0.0
 11
37.504600000000003
 21
205.42899999999989
 31
0.0
  0
LINE
  5
15B
  8
0
 62
     7
 10
37.504600000000003
 20
205.42899999999989
 30
0.0
 11
36.32
 21
205.42899999999989
 31
0.0
  0
LINE
  5
15C
  8
0
 62
     7
 10
37.489899999999999
 20
216.67400000000001
 30
0.0
 11
36.8977
 21
218.88499999999991
 31
0.0
  0
LINE
  5
15D
  8
0
 62
     7
 10
36.8977
 20
218.88499999999991
 30
0.0
 11
36.305300000000003
 21
216.67400000000001
 31
0.0
  0
LINE
  5
15E
  8
0
 62
     7
 10
36.305300000000003
 20
216.67400000000001
 30
0.0
 11
37.489899999999999
 21
216.67400000000001
 31
0.0
  0
LINE
  5
15F
  8
0
 62
     7
 10
36.90509999999999
 20
203.2179999999999
 30
0.0
 11
36.90509999999999
 21
218.88499999999991
 31
0.0
  0
LINE
  5
160
  8
0
 62
     7
 10
66.268199999999993
 20
227.63099999999989
 30
0.0
 11
66.268199999999993
 21
220.62799999999999
 31
0.0
  0
LINE
  5
161
  8
0
 62
     7
 10
72.934899999999999
 20
227.63099999999989
 30
0.0
 11
72.934899999999999
 21
217.38599999999991
 31
0.0
  0
LINE
  5
162
  8
0
 62
     7
 10
59.601599999999998
 20
227.63099999999989
 30
0.0
 11
59.601599999999998
 21
217.38599999999991
 31
0.0
  0
LINE
  5
163
  8
0
  6
AIGENLINE002
 62
     7
 10
72.934899999999999
 20
216.82900000000001
 30
0.0
 11
72.934899999999999
 21
212.1049999999999
 31
0.0
  0
ARC
  5
164
  8
0
  6
AIGENLINE001
 62
     7
 10
59.556909999999988
 20
214.50673599999999
 30
0.0
 40
1.2123429999999991
 50
2.119237
 51
87.889212000000001
  0
ARC
  5
165
  8
0
  6
AIGENLINE001
 62
     7
 10
59.601649000000002
 20
214.55165400000001
 30
0.0
 40
1.1666030000000001
 50
90.004230000000007
 51
180.0042399999999
  0
ARC
  5
166
  8
0
  6
AIGENLINE001
 62
     7
 10
59.601733999999993
 20
214.55139500000001
 30
0.0
 40
1.166688999999999
 50
179.991511
 51
269.99155999999999
  0
ARC
  5
167
  8
0
  6
AIGENLINE001
 62
     7
 10
59.557529000000002
 20
214.5956009999999
 30
0.0
 40
1.2116949999999991
 50
272.08261399999998
 51
357.91739599999988
  0
ARC
  5
168
  8
0
  6
AIGENLINE001
 62
     7
 10
72.890202000000002
 20
214.50673599999999
 30
0.0
 40
1.2123429999999991
 50
2.119237
 51
87.889212000000001
  0
ARC
  5
169
  8
0
  6
AIGENLINE001
 62
     7
 10
72.934941000000009
 20
214.55165400000001
 30
0.0
 40
1.1666030000000001
 50
90.004230000000007
 51
180.0042399999999
  0
ARC
  5
16A
  8
0
  6
AIGENLINE001
 62
     7
 10
72.935027000000005
 20
214.55139500000001
 30
0.0
 40
1.166688999999999
 50
179.991511
 51
269.99155999999999
  0
ARC
  5
16B
  8
0
  6
AIGENLINE001
 62
     7
 10
72.890822
 20
214.5956009999999
 30
0.0
 40
1.2116949999999991
 50
272.08261399999998
 51
357.91739599999988
  0
ARC
  5
16C
  8
0
 62
     7
 10
66.223556000000002
 20
214.50673599999999
 30
0.0
 40
1.2123429999999991
 50
2.119237
 51
87.889212000000001
  0
ARC
  5
16D
  8
0
 62
     7
 10
66.268294999999995
 20
214.55165400000001
 30
0.0
 40
1.1666030000000001
 50
90.004230000000007
 51
180.0042399999999
  0
ARC
  5
16E
  8
0
 62
     7
 10
66.268381000000005
 20
214.55139500000001
 30
0.0
 40
1.166688999999999
 50
179.991511
 51
269.99155999999999
  0
ARC
  5
16F
  8
0
 62
     7
 10
66.224175000000002
 20
214.5956009999999
 30
0.0
 40
1.2116949999999991
 50
272.08261399999998
 51
357.91739599999988
  0
LINE
  5
170
  8
0
  6
AIGENLINE002
 62
     7
 10
57.254600000000003
 20
214.55199999999999
 30
0.0
 11
75.225700000000003
 21
214.55199999999999
 31
0.0
  0
LINE
  5
171
  8
0
 62
     7
 10
36.2044
 20
218.88499999999991
 30
0.0
 11
42.152599999999993
 21
218.88499999999991
 31
0.0
  0
LINE
  5
172
  8
0
 62
     7
 10
36.2044
 20
203.2179999999999
 30
0.0
 11
61.246600000000001
 21
203.2179999999999
 31
0.0
  0
LINE
  5
173
  8
0
 62
     7
 10
77.604699999999994
 20
198.34599999999989
 30
0.0
 11
71.140299999999996
 21
198.34599999999989
 31
0.0
  0
LINE
  5
174
  8
0
 62
     7
 10
69.334400000000002
 20
200.99000000000001
 30
0.0
 11
67.352599999999995
 21
202.13399999999999
 31
0.0
  0
LINE
  5
175
  8
0
 62
     7
 10
67.352599999999995
 20
202.13399999999999
 30
0.0
 11
68.496700000000004
 21
200.15199999999999
 31
0.0
  0
LINE
  5
176
  8
0
 62
     7
 10
68.496700000000004
 20
200.15199999999999
 30
0.0
 11
69.334400000000002
 21
200.99000000000001
 31
0.0
  0
LINE
  5
177
  8
0
 62
     7
 10
63.207599999999992
 20
205.45099999999999
 30
0.0
 11
65.189400000000006
 21
204.30699999999999
 31
0.0
  0
LINE
  5
178
  8
0
 62
     7
 10
65.189400000000006
 20
204.30699999999999
 30
0.0
 11
64.045199999999994
 21
206.28899999999999
 31
0.0
  0
LINE
  5
179
  8
0
 62
     7
 10
64.045199999999994
 20
206.28899999999999
 30
0.0
 11
63.207599999999992
 21
205.45099999999999
 31
0.0
  0
LINE
  5
17A
  8
0
 62
     7
 10
62.394899999999993
 20
207.09200000000001
 30
0.0
 11
71.140299999999996
 21
198.34599999999989
 31
0.0
  0
ARC
  5
17B
  8
0
 62
     7
 10
66.268293999999997
 20
203.21807899999999
 30
0.0
 40
1.533336
 50
0.003228
 51
90.003197999999983
  0
ARC
  5
17C
  8
0
 62
     7
 10
66.268294999999995
 20
203.21825100000001
 30
0.0
 40
1.533164
 50
90.003219000000016
 51
180.003229
  0
ARC
  5
17D
  8
0
 62
     7
 10
66.268467000000001
 20
203.217907
 30
0.0
 40
1.5333349999999999
 50
179.9903149999999
 51
269.99036499999988
  0
ARC
  5
17E
  8
0
 62
     7
 10
66.268121999999991
 20
203.21807999999999
 30
0.0
 40
1.5335080000000001
 50
270.00323800000001
 51
0.003208
  0
ARC
  5
17F
  8
0
 62
     7
 10
66.268380000000008
 20
203.21799300000001
 30
0.0
 40
2.6666929999999991
 50
0.003711
 51
90.003680999999986
  0
ARC
  5
180
  8
0
 62
     7
 10
66.268208999999999
 20
203.218165
 30
0.0
 40
2.666520999999999
 50
90.0
 51
179.99996999999991
  0
ARC
  5
181
  8
0
 62
     7
 10
66.268293999999997
 20
203.21807899999999
 30
0.0
 40
2.6666059999999998
 50
179.99811999999989
 51
269.99816900000002
  0
ARC
  5
182
  8
0
 62
     7
 10
66.268293999999997
 20
203.21825200000001
 30
0.0
 40
2.6667799999999988
 50
269.99816900000002
 51
359.99813999999992
  0
LINE
  5
183
  8
0
  6
AIGENLINE002
 62
     7
 10
61.8733
 20
203.2179999999999
 30
0.0
 11
70.421599999999984
 21
203.2179999999999
 31
0.0
  0
LINE
  5
184
  8
0
 62
     7
 10
83.934899999999985
 20
191.21799999999999
 30
0.0
 11
83.934899999999985
 21
209.88499999999999
 31
0.0
  0
LINE
  5
185
  8
0
 62
     7
 10
49.267899999999997
 20
190.5509999999999
 30
0.0
 11
83.268299999999996
 21
190.5509999999999
 31
0.0
  0
ARC
  5
186
  8
0
 62
     7
 10
83.243265000000008
 20
191.242829
 30
0.0
 40
0.692124
 50
272.0739089999999
 51
357.94090399999988
  0
LINE
  5
187
  8
0
 62
     7
 10
81.268100000000004
 20
193.88499999999999
 30
0.0
 11
81.268100000000004
 21
207.2179999999999
 31
0.0
  0
LINE
  5
188
  8
0
 62
     7
 10
51.9343
 20
193.2179999999999
 30
0.0
 11
80.601399999999998
 21
193.2179999999999
 31
0.0
  0
ARC
  5
189
  8
0
 62
     7
 10
80.576513000000006
 20
193.90940900000001
 30
0.0
 40
0.6920069999999999
 50
272.06489299999998
 51
357.94992000000002
  0
LINE
  5
18A
  8
0
 62
     7
 10
48.601300000000002
 20
191.21799999999999
 30
0.0
 11
48.601300000000002
 21
209.88499999999999
 31
0.0
  0
ARC
  5
18B
  8
0
 62
     7
 10
49.293490000000013
 20
191.2433399999999
 30
0.0
 40
0.692653
 50
182.09979199999989
 51
267.88543499999997
  0
LINE
  5
18C
  8
0
 62
     7
 10
51.267699999999998
 20
193.88499999999999
 30
0.0
 11
51.267699999999998
 21
207.2179999999999
 31
0.0
  0
ARC
  5
18D
  8
0
 62
     7
 10
51.960037
 20
193.91023000000001
 30
0.0
 40
0.692857
 50
182.115521
 51
267.86970600000001
  0
LINE
  5
18E
  8
0
 62
     7
 10
49.267899999999997
 20
210.5509999999999
 30
0.0
 11
83.268299999999996
 21
210.5509999999999
 31
0.0
  0
ARC
  5
18F
  8
0
 62
     7
 10
83.242930000000001
 20
209.85942999999989
 30
0.0
 40
0.692478
 50
2.1006109999999998
 51
87.89937900000001
  0
LINE
  5
190
  8
0
 62
     7
 10
51.9343
 20
207.88499999999999
 30
0.0
 11
80.601399999999998
 21
207.88499999999999
 31
0.0
  0
ARC
  5
191
  8
0
 62
     7
 10
80.575889000000004
 20
207.1927399999999
 30
0.0
 40
0.692653
 50
2.099788999999999
 51
87.885397999999995
  0
ARC
  5
192
  8
0
 62
     7
 10
49.293300000000002
 20
209.85944499999999
 30
0.0
 40
0.692462
 50
92.099384000000001
 51
177.900586
  0
ARC
  5
193
  8
0
 62
     7
 10
51.959690999999999
 20
207.1928879999999
 30
0.0
 40
0.692499
 50
92.102773999999997
 51
177.91199900000001
  0
LINE
  5
194
  8
0
 62
     7
 10
48.601300000000002
 20
177.869
 30
0.0
 11
48.601300000000002
 21
187.16099999999989
 31
0.0
  0
LINE
  5
195
  8
0
 62
     7
 10
83.934899999999985
 20
177.869
 30
0.0
 11
83.934899999999985
 21
187.16099999999989
 31
0.0
  0
LINE
  5
196
  8
0
 62
     7
 10
89.601600000000005
 20
171.42400000000001
 30
0.0
 11
89.601600000000005
 21
187.16099999999989
 31
0.0
  0
LINE
  5
197
  8
0
 62
     7
 10
42.934600000000003
 20
171.42400000000001
 30
0.0
 11
42.934600000000003
 21
187.16099999999989
 31
0.0
  0
LINE
  5
198
  8
0
 62
     7
 10
86.145300000000006
 20
179.154
 30
0.0
 11
83.934899999999985
 21
178.56200000000001
 31
0.0
  0
LINE
  5
199
  8
0
 62
     7
 10
83.934899999999985
 20
178.56200000000001
 30
0.0
 11
86.145300000000006
 21
177.97
 31
0.0
  0
LINE
  5
19A
  8
0
 62
     7
 10
86.145300000000006
 20
177.97
 30
0.0
 11
86.145300000000006
 21
179.154
 31
0.0
  0
LINE
  5
19B
  8
0
 62
     7
 10
68.4786
 20
227.47499999999999
 30
0.0
 11
66.268199999999993
 21
226.8829999999999
 31
0.0
  0
LINE
  5
19C
  8
0
 62
     7
 10
66.268199999999993
 20
226.8829999999999
 30
0.0
 11
68.4786
 21
226.28999999999999
 31
0.0
  0
LINE
  5
19D
  8
0
 62
     7
 10
68.4786
 20
226.28999999999999
 30
0.0
 11
68.4786
 21
227.47499999999999
 31
0.0
  0
LINE
  5
19E
  8
0
 62
     7
 10
61.811900000000001
 20
227.47499999999999
 30
0.0
 11
59.601599999999998
 21
226.8829999999999
 31
0.0
  0
LINE
  5
19F
  8
0
 62
     7
 10
59.601599999999998
 20
226.8829999999999
 30
0.0
 11
61.811900000000001
 21
226.28999999999999
 31
0.0
  0
LINE
  5
1A0
  8
0
 62
     7
 10
61.811900000000001
 20
226.28999999999999
 30
0.0
 11
61.811900000000001
 21
227.47499999999999
 31
0.0
  0
LINE
  5
1A1
  8
0
 62
     7
 10
64.057599999999994
 20
226.30500000000001
 30
0.0
 11
66.268199999999993
 21
226.89699999999999
 31
0.0
  0
LINE
  5
1A2
  8
0
 62
     7
 10
66.268199999999993
 20
226.89699999999999
 30
0.0
 11
64.057599999999994
 21
227.489
 31
0.0
  0
LINE
  5
1A3
  8
0
 62
     7
 10
64.057599999999994
 20
227.489
 30
0.0
 11
64.057599999999994
 21
226.30500000000001
 31
0.0
  0
LINE
  5
1A4
  8
0
 62
     7
 10
70.724299999999999
 20
226.30500000000001
 30
0.0
 11
72.934899999999999
 21
226.89699999999999
 31
0.0
  0
LINE
  5
1A5
  8
0
 62
     7
 10
72.934899999999999
 20
226.89699999999999
 30
0.0
 11
70.724299999999999
 21
227.489
 31
0.0
  0
LINE
  5
1A6
  8
0
 62
     7
 10
70.724299999999999
 20
227.489
 30
0.0
 11
70.724299999999999
 21
226.30500000000001
 31
0.0
  0
LINE
  5
1A7
  8
0
 62
     7
 10
59.601599999999998
 20
226.8899999999999
 30
0.0
 11
72.934899999999999
 21
226.8899999999999
 31
0.0
  0
LINE
  5
1A8
  8
0
 62
     7
 10
50.811700000000002
 20
179.154
 30
0.0
 11
48.601300000000002
 21
178.56200000000001
 31
0.0
  0
LINE
  5
1A9
  8
0
 62
     7
 10
48.601300000000002
 20
178.56200000000001
 30
0.0
 11
50.811700000000002
 21
177.97
 31
0.0
  0
LINE
  5
1AA
  8
0
 62
     7
 10
50.811700000000002
 20
177.97
 30
0.0
 11
50.811700000000002
 21
179.154
 31
0.0
  0
LINE
  5
1AB
  8
0
 62
     7
 10
45.145200000000003
 20
179.154
 30
0.0
 11
42.934800000000003
 21
178.56200000000001
 31
0.0
  0
LINE
  5
1AC
  8
0
 62
     7
 10
42.934800000000003
 20
178.56200000000001
 30
0.0
 11
45.145200000000003
 21
177.97
 31
0.0
  0
LINE
  5
1AD
  8
0
 62
     7
 10
45.145200000000003
 20
177.97
 30
0.0
 11
45.145200000000003
 21
179.154
 31
0.0
  0
LINE
  5
1AE
  8
0
 62
     7
 10
46.390700000000002
 20
177.98400000000001
 30
0.0
 11
48.601300000000002
 21
178.577
 31
0.0
  0
LINE
  5
1AF
  8
0
 62
     7
 10
48.601300000000002
 20
178.577
 30
0.0
 11
46.390700000000002
 21
179.16900000000001
 31
0.0
  0
LINE
  5
1B0
  8
0
 62
     7
 10
46.390700000000002
 20
179.16900000000001
 30
0.0
 11
46.390700000000002
 21
177.98400000000001
 31
0.0
  0
LINE
  5
1B1
  8
0
 62
     7
 10
81.724399999999989
 20
177.98400000000001
 30
0.0
 11
83.934899999999985
 21
178.577
 31
0.0
  0
LINE
  5
1B2
  8
0
 62
     7
 10
83.934899999999985
 20
178.577
 30
0.0
 11
81.724399999999989
 21
179.16900000000001
 31
0.0
  0
LINE
  5
1B3
  8
0
 62
     7
 10
81.724399999999989
 20
179.16900000000001
 30
0.0
 11
81.724399999999989
 21
177.98400000000001
 31
0.0
  0
LINE
  5
1B4
  8
0
 62
     7
 10
87.391099999999994
 20
177.98400000000001
 30
0.0
 11
89.601600000000005
 21
178.577
 31
0.0
  0
LINE
  5
1B5
  8
0
 62
     7
 10
89.601600000000005
 20
178.577
 30
0.0
 11
87.391099999999994
 21
179.16900000000001
 31
0.0
  0
LINE
  5
1B6
  8
0
 62
     7
 10
87.391099999999994
 20
179.16900000000001
 30
0.0
 11
87.391099999999994
 21
177.98400000000001
 31
0.0
  0
LINE
  5
1B7
  8
0
 62
     7
 10
42.934600000000003
 20
178.56899999999999
 30
0.0
 11
89.601600000000005
 21
178.56899999999999
 31
0.0
  0
LINE
  5
1B8
  8
0
 62
     7
 10
45.145200000000003
 20
172.91900000000001
 30
0.0
 11
42.934800000000003
 21
172.327
 31
0.0
  0
LINE
  5
1B9
  8
0
 62
     7
 10
42.934800000000003
 20
172.327
 30
0.0
 11
45.145200000000003
 21
171.73400000000001
 31
0.0
  0
LINE
  5
1BA
  8
0
 62
     7
 10
45.145200000000003
 20
171.73400000000001
 30
0.0
 11
45.145200000000003
 21
172.91900000000001
 31
0.0
  0
LINE
  5
1BB
  8
0
 62
     7
 10
87.391099999999994
 20
171.749
 30
0.0
 11
89.601600000000005
 21
172.34099999999989
 31
0.0
  0
LINE
  5
1BC
  8
0
 62
     7
 10
89.601600000000005
 20
172.34099999999989
 30
0.0
 11
87.391099999999994
 21
172.934
 31
0.0
  0
LINE
  5
1BD
  8
0
 62
     7
 10
87.391099999999994
 20
172.934
 30
0.0
 11
87.391099999999994
 21
171.749
 31
0.0
  0
LINE
  5
1BE
  8
0
 62
     7
 10
42.934600000000003
 20
172.334
 30
0.0
 11
89.601600000000005
 21
172.334
 31
0.0
  0
LINE
  5
1BF
  8
0
  6
AIGENLINE002
 62
     7
 10
59.601599999999998
 20
216.82900000000001
 30
0.0
 11
59.601599999999998
 21
212.1049999999999
 31
0.0
  0
LINE
  5
1C0
  8
0
  6
AIGENLINE002
 62
     7
 10
66.268199999999993
 20
219.97900000000001
 30
0.0
 11
66.268199999999993
 21
185.10900000000001
 31
0.0
  0
LINE
  5
1C1
  8
0
 62
     7
 10
89.601600000000005
 20
218.2179999999999
 30
0.0
 11
89.601600000000005
 21
188.2179999999999
 31
0.0
  0
LINE
  5
1C2
  8
0
 62
     7
 10
43.601199999999999
 20
188.2179999999999
 30
0.0
 11
88.935000000000016
 21
188.2179999999999
 31
0.0
  0
ARC
  5
1C3
  8
0
 62
     7
 10
88.91007900000001
 20
188.90933799999999
 30
0.0
 40
0.6920069999999999
 50
272.06489299999998
 51
357.94992000000002
  0
LINE
  5
1C4
  8
0
 62
     7
 10
42.934600000000003
 20
218.88499999999991
 30
0.0
 11
42.934600000000003
 21
188.88499999999991
 31
0.0
  0
ARC
  5
1C5
  8
0
 62
     7
 10
43.626966999999993
 20
188.91013899999999
 30
0.0
 40
0.692836
 50
182.11390299999999
 51
267.8713239999999
  0
LINE
  5
1C6
  8
0
 62
     7
 10
42.934600000000003
 20
218.88499999999991
 30
0.0
 11
89.601600000000005
 21
218.88499999999991
 31
0.0
  0
LINE
  5
1C7
  8
_________2
 62
     7
 10
210.24000000000001
 20
148.93100000000001
 30
0.0
 11
188.49000000000001
 21
148.93100000000001
 31
0.0
  0
LINE
  5
1C8
  8
_________2
 62
     7
 10
105.2389999999999
 20
17.428499999999989
 30
0.0
 11
105.2389999999999
 21
0.4482100000000001
 31
0.0
  0
LINE
  5
1C9
  8
_________2
 62
     7
 10
105.2389999999999
 20
297.44999999999987
 30
0.0
 11
105.2389999999999
 21
280.42999999999989
 31
0.0
  0
LINE
  5
1CA
  8
_________2
 62
     7
 10
21.988499999999991
 20
148.93100000000001
 30
0.0
 11
0.238058
 21
148.93100000000001
 31
0.0
  0
LINE
  5
1CB
  8
_________2
 62
     7
 10
81.679900000000004
 20
51.324300000000001
 30
0.0
 11
79.493700000000004
 21
51.324300000000001
 31
0.0
  0
LINE
  5
1CC
  8
_________2
 62
     7
 10
82.172600000000017
 20
51.324300000000001
 30
0.0
 11
81.920400000000001
 21
51.324300000000001
 31
0.0
  0
LINE
  5
1CD
  8
_________2
 62
     7
 10
82.665199999999984
 20
51.324300000000001
 30
0.0
 11
85.590100000000007
 21
51.324300000000001
 31
0.0
  0
LINE
  5
1CE
  8
_________2
 62
     7
 10
82.172600000000017
 20
51.324300000000001
 30
0.0
 11
82.424800000000005
 21
51.324300000000001
 31
0.0
  0
LINE
  5
1CF
  8
_________2
 62
     7
 10
75.776399999999995
 20
51.324300000000001
 30
0.0
 11
73.589399999999998
 21
51.324300000000001
 31
0.0
  0
LINE
  5
1D0
  8
_________2
 62
     7
 10
76.2684
 20
51.324300000000001
 30
0.0
 11
76.016900000000007
 21
51.324300000000001
 31
0.0
  0
LINE
  5
1D1
  8
_________2
 62
     7
 10
76.2684
 20
51.817
 30
0.0
 11
76.2684
 21
54.003900000000002
 31
0.0
  0
LINE
  5
1D2
  8
_________2
 62
     7
 10
76.2684
 20
51.324300000000001
 30
0.0
 11
76.2684
 21
51.576500000000003
 31
0.0
  0
LINE
  5
1D3
  8
_________2
 62
     7
 10
76.76100000000001
 20
51.324300000000001
 30
0.0
 11
78.947999999999993
 21
51.324300000000001
 31
0.0
  0
LINE
  5
1D4
  8
_________2
 62
     7
 10
76.2684
 20
51.324300000000001
 30
0.0
 11
76.520499999999998
 21
51.324300000000001
 31
0.0
  0
LINE
  5
1D5
  8
_________2
 62
     7
 10
76.2684
 20
50.832399999999993
 30
0.0
 11
76.2684
 21
48.645400000000002
 31
0.0
  0
LINE
  5
1D6
  8
_________2
 62
     7
 10
76.2684
 20
51.324300000000001
 30
0.0
 11
76.2684
 21
51.072800000000001
 31
0.0
  0
LINE
  5
1D7
  8
_________2
 62
     7
 10
79.979399999999984
 20
50.104799999999997
 30
0.0
 11
85.157399999999996
 21
49.240000000000002
 31
0.0
  0
LINE
  5
1D8
  8
_________2
 62
     7
 10
79.979399999999984
 20
52.543900000000001
 30
0.0
 11
85.157399999999996
 21
53.409300000000002
 31
0.0
  0
LINE
  5
1D9
  8
_________2
 62
     7
 10
85.157399999999996
 20
49.240000000000002
 30
0.0
 11
85.157399999999996
 21
53.409300000000002
 31
0.0
  0
LINE
  5
1DA
  8
_________2
 62
     7
 10
79.979399999999984
 20
50.104799999999997
 30
0.0
 11
79.979399999999984
 21
52.543900000000001
 31
0.0
  0
ARC
  5
1DB
  8
_________2
 62
     7
 10
76.222110000000001
 20
51.277366999999991
 30
0.0
 40
1.2673709999999989
 50
2.1232950000000002
 51
87.909056000000007
  0
ARC
  5
1DC
  8
_________2
 62
     7
 10
76.315273000000005
 20
51.277400999999998
 30
0.0
 40
1.267363
 50
92.121785999999986
 51
177.878185
  0
ARC
  5
1DD
  8
_________2
 62
     7
 10
76.315273000000005
 20
51.371245999999992
 30
0.0
 40
1.267363
 50
182.12181499999991
 51
267.87821400000001
  0
ARC
  5
1DE
  8
_________2
 62
     7
 10
76.221461000000005
 20
51.371928999999987
 30
0.0
 40
1.2680439999999991
 50
272.11916400000001
 51
357.84848499999993
  0
ARC
  5
1DF
  8
_________2
 62
     7
 10
76.268349999999984
 20
51.324323
 30
0.0
 40
2.0849849999999992
 50
0.00001
 51
89.999980000000008
  0
ARC
  5
1E0
  8
_________2
 62
     7
 10
76.348388
 20
51.245001999999992
 30
0.0
 40
2.1657860000000002
 50
92.117855000000034
 51
177.90105299999991
  0
ARC
  5
1E1
  8
_________2
 62
     7
 10
76.348354
 20
51.404327000000002
 30
0.0
 40
2.1657779999999991
 50
182.11700400000001
 51
267.88302499999992
  0
ARC
  5
1E2
  8
_________2
 62
     7
 10
76.188378999999983
 20
51.405009999999997
 30
0.0
 40
2.1664590000000001
 50
272.11546800000002
 51
357.86560400000002
  0
TEXT
  5
1E3
  8
_________2
 62
     7
 10
109.5439999999999
 20
23.199100000000001
 30
0.0
 40
3.0923400000000001
  1
図番
 41
0.5
  0
LINE
  5
1E4
  8
_________2
 62
     7
 10
108.4889999999999
 20
27.4283
 30
0.0
 11
188.49000000000001
 21
27.4283
 31
0.0
  0
TEXT
  5
1E5
  8
_________2
 62
     7
 10
109.5439999999999
 20
33.198900000000002
 30
0.0
 40
3.0923400000000001
  1
品番
 41
0.5
  0
TEXT
  5
1E6
  8
_________2
 62
     7
 10
109.5439999999999
 20
53.337699999999998
 30
0.0
 40
3.0923400000000001
  1
名称
 41
0.5
  0
TEXT
  5
1E7
  8
_________2
 62
     7
 10
96.784058333333334
 20
48.341500000000011
 30
0.0
 40
3.6545800000000002
  1
mm
 41
0.5
 72
     1
 11
98.306799999999996
 21
48.341500000000011
 31
0.0
  0
TEXT
  5
1E8
  8
_________2
 62
     7
 10
90.582099999999997
 20
53.337699999999998
 30
0.0
 40
3.0923400000000001
  1
単位
 41
0.5
  0
TEXT
  5
1E9
  8
_________2
 62
     7
 10
90.582099999999997
 20
40.930399999999999
 30
0.0
 40
3.0923400000000001
  1
尺度
 41
0.5
  0
TEXT
  5
1EA
  8
_________2
 62
     7
 10
94.878562000000016
 20
34.73749999999999
 30
0.0
 40
3.6545800000000002
  1
1 ： 15
 41
0.5
 72
     1
 11
98.898600000000002
 21
34.73749999999999
 31
0.0
  0
TEXT
  5
1EB
  8
_________2
 62
     7
 10
138.64975000000001
 20
30.627400000000002
 30
0.0
 40
3.9357000000000002
  1
DV049170-00
 41
0.5
 72
     1
 11
148.489
 21
30.627400000000002
 31
0.0
  0
TEXT
  5
1EC
  8
_________2
 62
     7
 10
141.27354999999989
 20
20.626999999999988
 30
0.0
 40
3.9357000000000002
  1
DV049170
 41
0.5
 72
     1
 11
148.489
 21
20.626999999999988
 31
0.0
  0
TEXT
  5
1ED
  8
_________2
 62
     7
 10
29.525700000000001
 20
22.226900000000001
 30
0.0
 40
3.9357000000000002
  1
実容量：2.5L、重量：17kg、オーバーフロー付
 41
0.5
  0
TEXT
  5
1EE
  8
_________2
 62
     7
 10
25.539200000000001
 20
61.466700000000003
 30
0.0
 40
4.2168199999999993
  1
・壁取付部には厚さ30mm以上の補強を入れてください。
 41
0.5
  0
TEXT
  5
1EF
  8
_________2
 62
     7
 10
114.11799999999999
 20
45.7453
 30
0.0
 40
3.9357000000000002
  1
セカンドフロア 洗面器
 41
0.5
  0
TEXT
  5
1F0
  8
_________2
 62
     7
 10
44.303290666666669
 20
35.122599999999991
 30
0.0
 40
3.6545800000000002
  1
高橋
 41
0.5
 72
     1
 11
46.252400000000002
 21
35.122599999999991
 31
0.0
  0
TEXT
  5
1F1
  8
_________2
 62
     7
 10
25.72929066666666
 20
35.122599999999991
 30
0.0
 40
3.6545800000000002
  1
石原
 41
0.5
 72
     1
 11
27.6784
 21
35.122599999999991
 31
0.0
  0
TEXT
  5
1F2
  8
_________2
 62
     7
 10
72.724699999999999
 20
34.73749999999999
 30
0.0
 40
3.6545800000000002
  1
07.03.09
 41
0.5
  0
TEXT
  5
1F3
  8
_________2
 62
     7
 10
71.531999999999996
 20
40.930399999999999
 30
0.0
 40
3.0923400000000001
  1
日付
 41
0.5
  0
TEXT
  5
1F4
  8
_________2
 62
     7
 10
34.578299999999992
 20
40.930399999999999
 30
0.0
 40
3.0923400000000001
  1
検図
 41
0.5
  0
TEXT
  5
1F5
  8
_________2
 62
     7
 10
22.960000000000001
 20
26.730999999999991
 30
0.0
 40
3.0923400000000001
  1
備考
 41
0.5
  0
TEXT
  5
1F6
  8
_________2
 62
     7
 10
22.960000000000001
 20
40.930399999999999
 30
0.0
 40
3.0923400000000001
  1
製図
 41
0.5
  0
TEXT
  5
1F7
  8
_________2
 62
     7
 10
28.727365333333339
 20
49.456400000000002
 30
0.0
 40
4.4979399999999989
  1
セラトレーディング株式会社
 41
0.5
 72
     1
 11
46.119399999999992
 21
49.456400000000002
 31
0.0
  0
LINE
  5
1F8
  8
_________2
 62
     7
 10
188.49000000000001
 20
17.428499999999989
 30
0.0
 11
21.988499999999991
 21
17.428499999999989
 31
0.0
  0
LINE
  5
1F9
  8
_________2
 62
     7
 10
21.988499999999991
 20
17.428499999999989
 30
0.0
 11
21.988499999999991
 21
280.42999999999989
 31
0.0
  0
LINE
  5
1FA
  8
_________2
 62
     7
 10
21.988499999999991
 20
280.42999999999989
 30
0.0
 11
188.49000000000001
 21
280.42999999999989
 31
0.0
  0
LINE
  5
1FB
  8
_________2
 62
     7
 10
188.49000000000001
 20
280.42999999999989
 30
0.0
 11
188.49000000000001
 21
17.428499999999989
 31
0.0
  0
LINE
  5
1FC
  8
_________2
 62
     7
 10
70.488799999999998
 20
30.9285
 30
0.0
 11
70.488799999999998
 21
57.428400000000011
 31
0.0
  0
LINE
  5
1FD
  8
_________2
 62
     7
 10
89.488600000000005
 20
30.9285
 30
0.0
 11
89.488600000000005
 21
57.428400000000011
 31
0.0
  0
LINE
  5
1FE
  8
_________2
 62
     7
 10
108.4889999999999
 20
17.428499999999989
 30
0.0
 11
108.4889999999999
 21
57.428400000000011
 31
0.0
  0
LINE
  5
1FF
  8
_________2
 62
     7
 10
33.488300000000002
 20
30.9285
 30
0.0
 11
33.488300000000002
 21
44.928800000000003
 31
0.0
  0
LINE
  5
200
  8
_________2
 62
     7
 10
21.988499999999991
 20
30.9285
 30
0.0
 11
108.4889999999999
 21
30.9285
 31
0.0
  0
LINE
  5
201
  8
_________2
 62
     7
 10
21.988499999999991
 20
44.928800000000003
 30
0.0
 11
108.4889999999999
 21
44.928800000000003
 31
0.0
  0
LINE
  5
202
  8
_________2
 62
     7
 10
108.4889999999999
 20
37.428100000000001
 30
0.0
 11
188.49000000000001
 21
37.428100000000001
 31
0.0
  0
LINE
  5
203
  8
_________2
 62
     7
 10
21.988499999999991
 20
57.428400000000011
 30
0.0
 11
188.49000000000001
 21
57.428400000000011
 31
0.0
  0
ENDSEC
  0
EOF
