  0
SECTION
  2
HEADER
  9
$ACADVER
  1
AC1009
  9
$INSBASE
 10
0.0
 20
0.0
 30
0.0
  9
$EXTMIN
 10
0.238058
 20
0.4482100000000001
 30
0.0
  9
$EXTMAX
 10
210.24000000000001
 20
297.44999999999987
 30
0.0
  9
$LIMMIN
 10
0.0
 20
0.0
  9
$LIMMAX
 10
12.0
 20
9.0
  9
$ORTHOMODE
 70
     0
  9
$REGENMODE
 70
     1
  9
$FILLMODE
 70
     1
  9
$QTEXTMODE
 70
     0
  9
$MIRRTEXT
 70
     1
  9
$DRAGMODE
 70
     2
  9
$LTSCALE
 40
1.0
  9
$OSMODE
 70
    37
  9
$ATTMODE
 70
     1
  9
$TEXTSIZE
 40
0.0
  9
$TRACEWID
 40
0.05
  9
$TEXTSTYLE
  7
STANDARD
  9
$CLAYER
  8
0
  9
$CELTYPE
  6
CONTINUOUS
  9
$CECOLOR
 62
   256
  9
$DIMSCALE
 40
1.0
  9
$DIMASZ
 40
0.18
  9
$DIMEXO
 40
0.0625
  9
$DIMDLI
 40
0.38
  9
$DIMRND
 40
0.0
  9
$DIMDLE
 40
0.0
  9
$DIMEXE
 40
0.18
  9
$DIMTP
 40
0.0
  9
$DIMTM
 40
0.0
  9
$DIMTXT
 40
0.18
  9
$DIMCEN
 40
0.09
  9
$DIMTSZ
 40
0.0
  9
$DIMTOL
 70
     0
  9
$DIMLIM
 70
     0
  9
$DIMTIH
 70
     1
  9
$DIMTOH
 70
     1
  9
$DIMSE1
 70
     0
  9
$DIMSE2
 70
     0
  9
$DIMTAD
 70
     0
  9
$DIMZIN
 70
     0
  9
$DIMBLK
  1

  9
$DIMASO
 70
     1
  9
$DIMSHO
 70
     1
  9
$DIMPOST
  1

  9
$DIMAPOST
  1

  9
$DIMALT
 70
     0
  9
$DIMALTD
 70
     2
  9
$DIMALTF
 40
25.399999999999999
  9
$DIMLFAC
 40
1.0
  9
$DIMTOFL
 70
     0
  9
$DIMTVP
 40
0.0
  9
$DIMTIX
 70
     0
  9
$DIMSOXD
 70
     0
  9
$DIMSAH
 70
     0
  9
$DIMBLK1
  1

  9
$DIMBLK2
  1

  9
$DIMSTYLE
  2
STANDARD
  9
$DIMCLRD
 70
     0
  9
$DIMCLRE
 70
     0
  9
$DIMCLRT
 70
     0
  9
$DIMTFAC
 40
1.0
  9
$DIMGAP
 40
0.09
  9
$LUNITS
 70
     2
  9
$LUPREC
 70
     4
  9
$SKETCHINC
 40
0.1
  9
$FILLETRAD
 40
0.0
  9
$AUNITS
 70
     0
  9
$AUPREC
 70
     0
  9
$MENU
  1
.
  9
$ELEVATION
 40
0.0
  9
$PELEVATION
 40
0.0
  9
$THICKNESS
 40
0.0
  9
$LIMCHECK
 70
     0
  9
$BLIPMODE
 70
     0
  9
$CHAMFERA
 40
0.0
  9
$CHAMFERB
 40
0.0
  9
$SKPOLY
 70
     0
  9
$TDCREATE
 40
2444972.375
  9
$TDUPDATE
 40
2454189.2860479858
  9
$TDINDWG
 40
0.0012852083
  9
$TDUSRTIMER
 40
0.0012852083
  9
$USRTIMER
 70
     1
  9
$ANGBASE
 50
0.0
  9
$ANGDIR
 70
     0
  9
$PDMODE
 70
     0
  9
$PDSIZE
 40
0.0
  9
$PLINEWID
 40
0.0
  9
$COORDS
 70
     1
  9
$SPLFRAME
 70
     0
  9
$SPLINETYPE
 70
     6
  9
$SPLINESEGS
 70
     8
  9
$ATTDIA
 70
     0
  9
$ATTREQ
 70
     1
  9
$HANDLING
 70
     1
  9
$HANDSEED
  5
236
  9
$SURFTAB1
 70
     6
  9
$SURFTAB2
 70
     6
  9
$SURFTYPE
 70
     6
  9
$SURFU
 70
     6
  9
$SURFV
 70
     6
  9
$UCSNAME
  2

  9
$UCSORG
 10
0.0
 20
0.0
 30
0.0
  9
$UCSXDIR
 10
1.0
 20
0.0
 30
0.0
  9
$UCSYDIR
 10
0.0
 20
1.0
 30
0.0
  9
$PUCSNAME
  2

  9
$PUCSORG
 10
0.0
 20
0.0
 30
0.0
  9
$PUCSXDIR
 10
1.0
 20
0.0
 30
0.0
  9
$PUCSYDIR
 10
0.0
 20
1.0
 30
0.0
  9
$USERI1
 70
     0
  9
$USERI2
 70
     0
  9
$USERI3
 70
     0
  9
$USERI4
 70
     0
  9
$USERI5
 70
     0
  9
$USERR1
 40
0.0
  9
$USERR2
 40
0.0
  9
$USERR3
 40
0.0
  9
$USERR4
 40
0.0
  9
$USERR5
 40
0.0
  9
$WORLDVIEW
 70
     1
  9
$SHADEDGE
 70
     3
  9
$SHADEDIF
 70
    70
  9
$TILEMODE
 70
     1
  9
$MAXACTVP
 70
    48
  9
$PLIMCHECK
 70
     0
  9
$PEXTMIN
 10
1.0000000000000000E+020
 20
1.0000000000000000E+020
 30
1.0000000000000000E+020
  9
$PEXTMAX
 10
-1.0000000000000000E+020
 20
-1.0000000000000000E+020
 30
-1.0000000000000000E+020
  9
$PLIMMIN
 10
0.0
 20
0.0
  9
$PLIMMAX
 10
12.0
 20
9.0
  9
$UNITMODE
 70
     0
  9
$VISRETAIN
 70
     1
  9
$PLINEGEN
 70
     0
  9
$PSLTSCALE
 70
     1
  0
ENDSEC
  0
SECTION
  2
TABLES
  0
TABLE
  2
VPORT
 70
     2
  0
VPORT
  2
*ACTIVE
 70
     0
 10
0.0
 20
0.0
 11
1.0
 21
1.0
 12
268.01523012823418
 22
172.34289150493979
 13
0.0
 23
0.0
 14
1.0
 24
1.0
 15
0.0
 25
0.0
 16
0.0
 26
0.0
 36
1.0
 17
0.0
 27
0.0
 37
0.0
 40
347.56789743938748
 41
2.1842105263157889
 42
50.0
 43
0.0
 44
0.0
 50
0.0
 51
0.0
 71
     0
 72
   100
 73
     1
 74
     1
 75
     0
 76
     0
 77
     0
 78
     0
  0
ENDTAB
  0
TABLE
  2
LTYPE
 70
     4
  0
LTYPE
  2
CONTINUOUS
 70
     0
  3
Solid line
 72
    65
 73
     0
 40
0.0
  0
LTYPE
  2
AIGENLINE001
 70
     0
  3
generate AI->DXF Converter
 72
    65
 73
     2
 40
1.5522299999999991
 49
0.776115
 49
-0.776115
  0
LTYPE
  2
AIGENLINE002
 70
     0
  3
generate AI->DXF Converter
 72
    65
 73
     4
 40
5.8561449999999988
 49
3.5278
 49
-0.776115
 49
0.776115
 49
-0.776115
  0
LTYPE
  2
AIGENLINE003
 70
     0
  3
generate AI->DXF Converter
 72
    65
 73
     6
 40
7.4083750000000004
 49
3.5278
 49
-0.776115
 49
0.776115
 49
-0.776115
 49
0.776115
 49
-0.776115
  0
ENDTAB
  0
TABLE
  2
LAYER
 70
     2
  0
LAYER
  2
0
 70
     0
 62
     7
  6
CONTINUOUS
  0
LAYER
  2
_________2
 70
     0
 62
     7
  6
CONTINUOUS
  0
ENDTAB
  0
TABLE
  2
STYLE
 70
     1
  0
STYLE
  2
STANDARD
 70
     0
 40
0.0
 41
0.0
 50
0.0
 71
     0
 42
0.0
  3
TXT
  4
EXTFONT.SHX
  0
ENDTAB
  0
TABLE
  2
VIEW
 70
     0
  0
ENDTAB
  0
TABLE
  2
UCS
 70
     0
  0
ENDTAB
  0
TABLE
  2
APPID
 70
     1
  0
APPID
  2
ACAD
 70
     0
  0
ENDTAB
  0
TABLE
  2
DIMSTYLE
 70
     1
  0
DIMSTYLE
  2
STANDARD
 70
     0
  3

  4

  5

  6

  7

 40
1.0
 41
0.18
 42
0.0625
 43
0.38
 44
0.18
 45
0.0
 46
0.0
 47
0.0
 48
0.0
140
0.18
141
0.09
142
0.0
143
25.399999999999999
144
1.0
145
0.0
146
1.0
147
0.09
 71
     0
 72
     0
 73
     1
 74
     1
 75
     0
 76
     0
 77
     0
 78
     0
170
     0
171
     2
172
     0
173
     0
174
     0
175
     0
176
     0
177
     0
178
     0
  0
ENDTAB
  0
ENDSEC
  0
SECTION
  2
BLOCKS
  0
BLOCK
  8
0
  2
$MODEL_SPACE
 70
     0
 10
0.0
 20
0.0
 30
0.0
  3
$MODEL_SPACE
  1

  0
ENDBLK
  5
1A
  8
0
  0
BLOCK
 67
     1
  8
0
  2
$PAPER_SPACE
 70
     0
 10
0.0
 20
0.0
 30
0.0
  3
$PAPER_SPACE
  1

  0
ENDBLK
  5
17
 67
     1
  8
0
  0
ENDSEC
  0
SECTION
  2
ENTITIES
  0
TEXT
  5
24
  8
0
 62
     7
 10
135.43575999999999
 20
167.09
 30
0.0
 40
3.0923400000000001
  1
カウンター切込寸法
 41
0.5
 72
     1
 11
143.68199999999999
 21
167.09
 31
0.0
  0
TEXT
  5
25
  8
0
 62
     7
 10
70.046340000000001
 20
196.78
 30
0.0
 40
3.0923400000000001
  1
%%c46
 41
0.5
 72
     1
 11
72.107900000000001
 21
196.78
 31
0.0
  0
TEXT
  5
26
  8
0
 62
     7
 10
48.254539999999999
 20
222.6339999999999
 30
0.0
 40
3.0923400000000001
  1
%%c35
 41
0.5
 72
     1
 11
50.316099999999999
 21
222.6339999999999
 31
0.0
  0
TEXT
  5
27
  8
0
 62
     7
 10
84.319635000000005
 20
173.85599999999991
 30
0.0
 40
3.0923400000000001
  1
125
 41
0.5
 72
     1
 11
86.123500000000007
 21
173.85599999999991
 31
0.0
  0
TEXT
  5
28
  8
0
 62
     7
 10
39.472634999999997
 20
173.85599999999991
 30
0.0
 40
3.0923400000000001
  1
125
 41
0.5
 72
     1
 11
41.276499999999999
 21
173.85599999999991
 31
0.0
  0
TEXT
  5
29
  8
0
 62
     7
 10
150.8566889999999
 20
219.727
 30
0.0
 40
3.0923400000000001
  1
洗面器後端（壁面）
 41
0.5
 72
     1
 11
158.536
 21
219.727
 31
0.0
  0
TEXT
  5
2A
  8
0
 62
     7
 10
141.74928750000001
 20
175.977
 30
0.0
 40
3.0923400000000001
  1
760
 41
0.5
 72
     1
 11
143.68199999999999
 21
175.977
 31
0.0
  0
TEXT
  5
2B
  8
0
 62
     7
 10
149.55528749999999
 20
113.639
 30
0.0
 40
3.0923400000000001
  1
230
 41
0.5
 72
     1
 11
151.48799999999989
 21
113.639
 31
0.0
  0
TEXT
  5
2C
  8
0
 62
     7
 10
141.17128749999989
 20
106.3539999999999
 30
0.0
 40
3.0923400000000001
  1
470
 41
0.5
 72
     1
 11
143.1039999999999
 21
106.3539999999999
 31
0.0
  0
TEXT
  5
2D
  8
0
 62
     7
 10
61.843787499999998
 20
112.371
 30
0.0
 40
3.0923400000000001
  1
740
 41
0.5
 72
     1
 11
63.776499999999999
 21
112.371
 31
0.0
  0
TEXT
  5
2E
  8
0
 62
     7
 10
61.843787499999998
 20
135.49199999999999
 30
0.0
 40
3.0923400000000001
  1
280
 41
0.5
 72
     1
 11
63.776499999999999
 21
135.49199999999999
 31
0.0
  0
TEXT
  5
2F
  8
0
 62
     7
 10
61.972634999999997
 20
140.89999999999989
 30
0.0
 40
3.0923400000000001
  1
800
 41
0.5
 72
     1
 11
63.776499999999999
 21
140.89999999999989
 31
0.0
  0
TEXT
  5
30
  8
0
 62
     7
 10
58.774929999999998
 20
224.892
 30
0.0
 40
3.0923400000000001
  1
100
 41
0.5
 72
     1
 11
60.321100000000001
 21
224.892
 31
0.0
  0
TEXT
  5
31
  8
0
 62
     7
 10
65.444629999999989
 20
224.892
 30
0.0
 40
3.0923400000000001
  1
100
 41
0.5
 72
     1
 11
66.990799999999993
 21
224.892
 31
0.0
  0
TEXT
  5
32
  8
0
 62
     7
 10
62.008287500000002
 20
173.85599999999991
 30
0.0
 40
3.0923400000000001
  1
550
 41
0.5
 72
     1
 11
63.941000000000003
 21
173.85599999999991
 31
0.0
  0
TEXT
  5
33
  8
0
 62
     7
 10
61.972634999999997
 20
167.667
 30
0.0
 40
3.0923400000000001
  1
800
 41
0.5
 72
     1
 11
63.776499999999999
 21
167.667
 31
0.0
  0
TEXT
  5
34
  8
0
 62
     7
 10
106.15000000000001
 20
196.73713499999999
 30
0.0
 40
3.0923400000000001
  1
500
 50
90.0
 41
0.5
 72
     1
 11
106.15000000000001
 21
198.541
 31
0.0
  0
TEXT
  5
35
  8
0
 62
     7
 10
122.63316753428769
 20
188.99116753428771
 30
0.0
 40
3.0923400000000001
  1
R10
 50
45.0
 41
0.5
 72
     2
 11
125.002
 21
191.36000000000001
 31
0.0
  0
TEXT
  5
36
  8
0
 62
     7
 10
154.12899999999999
 20
206.1412875
 30
0.0
 40
3.0923400000000001
  1
230
 50
90.0
 41
0.5
 72
     1
 11
154.12899999999999
 21
208.07400000000001
 31
0.0
  0
TEXT
  5
37
  8
0
 62
     7
 10
178.38499999999991
 20
197.43828749999989
 30
0.0
 40
3.0923400000000001
  1
480
 50
90.0
 41
0.5
 72
     1
 11
178.38499999999991
 21
199.3709999999999
 31
0.0
  0
TEXT
  5
38
  8
0
 62
     7
 10
141.83099999999999
 20
131.9803724999999
 30
0.0
 40
3.0923400000000001
  1
70
 50
90.0
 41
0.5
 72
     1
 11
141.83099999999999
 21
133.1399999999999
 31
0.0
  0
TEXT
  5
39
  8
0
 62
     7
 10
167.58399999999989
 20
121.7639825
 30
0.0
 40
3.0923400000000001
  1
160
 50
90.0
 41
0.5
 72
     1
 11
167.58399999999989
 21
123.43899999999989
 31
0.0
  0
TEXT
  5
3A
  8
0
 62
     7
 10
118.5149999999999
 20
123.58583
 30
0.0
 40
3.0923400000000001
  1
115
 50
90.0
 41
0.5
 72
     1
 11
118.5149999999999
 21
125.13199999999991
 31
0.0
  0
TEXT
  5
3B
  8
0
 62
     7
 10
103.381
 20
123.58583
 30
0.0
 40
3.0923400000000001
  1
115
 50
90.0
 41
0.5
 72
     1
 11
103.381
 21
125.13199999999991
 31
0.0
  0
TEXT
  5
3C
  8
0
 62
     7
 10
30.577100000000002
 20
126.06437249999991
 30
0.0
 40
3.0923400000000001
  1
60
 50
90.0
 41
0.5
 72
     1
 11
30.577100000000002
 21
127.2239999999999
 31
0.0
  0
TEXT
  5
3D
  8
0
 62
     7
 10
95.651600000000002
 20
131.766525
 30
0.0
 40
3.0923400000000001
  1
45
 50
90.0
 41
0.5
 72
     1
 11
95.651600000000002
 21
133.05500000000001
 31
0.0
  0
TEXT
  5
3E
  8
0
 62
     7
 10
98.24799999999999
 20
178.0813724999999
 30
0.0
 40
3.0923400000000001
  1
40
 50
90.0
 41
0.5
 72
     1
 11
98.24799999999999
 21
179.2409999999999
 31
0.0
  0
TEXT
  5
3F
  8
0
 62
     7
 10
98.24799999999999
 20
210.04198249999999
 30
0.0
 40
3.0923400000000001
  1
120
 50
90.0
 41
0.5
 72
     1
 11
98.24799999999999
 21
211.71700000000001
 31
0.0
  0
TEXT
  5
40
  8
0
 62
     7
 10
84.311699999999988
 20
212.7363724999999
 30
0.0
 40
3.0923400000000001
  1
60
 50
90.0
 41
0.5
 72
     1
 11
84.311699999999988
 21
213.8959999999999
 31
0.0
  0
TEXT
  5
41
  8
0
 62
     7
 10
84.311699999999988
 20
208.64037250000001
 30
0.0
 40
3.0923400000000001
  1
60
 50
90.0
 41
0.5
 72
     1
 11
84.311699999999988
 21
209.80000000000001
 31
0.0
  0
TEXT
  5
42
  8
0
 62
     7
 10
42.523299999999992
 20
206.30228750000001
 30
0.0
 40
3.0923400000000001
  1
230
 50
90.0
 41
0.5
 72
     1
 11
42.523299999999992
 21
208.23500000000001
 31
0.0
  0
TEXT
  5
43
  8
0
 62
     7
 10
98.24799999999999
 20
195.3752874999999
 30
0.0
 40
3.0923400000000001
  1
340
 50
90.0
 41
0.5
 72
     1
 11
98.24799999999999
 21
197.30799999999991
 31
0.0
  0
ARC
  5
44
  8
0
  6
AIGENLINE001
 62
     7
 10
63.776527000000002
 20
126.83578199999999
 30
0.0
 40
0.8333739999999998
 50
270.00002000000001
 51
359.99998999999991
  0
ARC
  5
45
  8
0
  6
AIGENLINE001
 62
     7
 10
63.776527000000002
 20
126.83578199999999
 30
0.0
 40
0.8333739999999998
 50
179.99996999999991
 51
270.00002000000001
  0
ARC
  5
46
  8
0
  6
AIGENLINE001
 62
     7
 10
63.776527999999999
 20
126.83578199999999
 30
0.0
 40
0.8333739999999998
 50
90.0
 51
179.99996999999991
  0
ARC
  5
47
  8
0
  6
AIGENLINE001
 62
     7
 10
63.776527000000002
 20
126.83578199999999
 30
0.0
 40
0.8333739999999998
 50
0.00001
 51
89.999980000000008
  0
LINE
  5
48
  8
0
 62
     7
 10
169.0149999999999
 20
215.81700000000001
 30
0.0
 11
173.595
 21
215.81700000000001
 31
0.0
  0
LINE
  5
49
  8
0
 62
     7
 10
113.76899999999991
 20
215.81700000000001
 30
0.0
 11
118.3489999999999
 21
215.81700000000001
 31
0.0
  0
LINE
  5
4A
  8
0
 62
     7
 10
160.2579999999999
 20
218.79900000000001
 30
0.0
 11
158.536
 21
215.81700000000001
 31
0.0
  0
LINE
  5
4B
  8
0
 62
     7
 10
158.536
 20
215.81700000000001
 30
0.0
 11
156.81399999999991
 21
218.79900000000001
 31
0.0
  0
LINE
  5
4C
  8
0
 62
     7
 10
156.81399999999991
 20
218.79900000000001
 30
0.0
 11
160.2579999999999
 21
218.79900000000001
 31
0.0
  0
LINE
  5
4D
  8
0
 62
     7
 10
56.653700000000001
 20
135.21299999999999
 30
0.0
 11
54.443399999999997
 21
134.62
 31
0.0
  0
LINE
  5
4E
  8
0
 62
     7
 10
54.443399999999997
 20
134.62
 30
0.0
 11
56.653700000000001
 21
134.02799999999991
 31
0.0
  0
LINE
  5
4F
  8
0
 62
     7
 10
56.653700000000001
 20
134.02799999999991
 30
0.0
 11
56.653700000000001
 21
135.21299999999999
 31
0.0
  0
LINE
  5
50
  8
0
 62
     7
 10
70.899100000000004
 20
134.04300000000001
 30
0.0
 11
73.109700000000004
 21
134.6339999999999
 31
0.0
  0
LINE
  5
51
  8
0
 62
     7
 10
73.109700000000004
 20
134.6339999999999
 30
0.0
 11
70.899100000000004
 21
135.227
 31
0.0
  0
LINE
  5
52
  8
0
 62
     7
 10
70.899100000000004
 20
135.227
 30
0.0
 11
70.899100000000004
 21
134.04300000000001
 31
0.0
  0
LINE
  5
53
  8
0
 62
     7
 10
54.443399999999997
 20
134.6279999999999
 30
0.0
 11
73.109700000000004
 21
134.6279999999999
 31
0.0
  0
ARC
  5
54
  8
0
 62
     7
 10
85.048563000000001
 20
211.8280169999999
 30
0.0
 40
0.295948
 50
182.09887399999991
 51
267.90115500000002
  0
ARC
  5
55
  8
0
 62
     7
 10
85.027056999999985
 20
211.828025
 30
0.0
 40
0.29595
 50
272.06569499999989
 51
357.89968499999998
  0
ARC
  5
56
  8
0
 62
     7
 10
85.037723999999997
 20
211.8171779999999
 30
0.0
 40
0.285084
 50
0.00001
 51
89.999980000000008
  0
ARC
  5
57
  8
0
 62
     7
 10
85.048484999999985
 20
211.80659600000001
 30
0.0
 40
0.295861
 50
92.084384
 51
177.9502169999999
  0
LINE
  5
58
  8
0
 62
     7
 10
169.0149999999999
 20
184.4839999999999
 30
0.0
 11
169.0149999999999
 21
215.81700000000001
 31
0.0
  0
LINE
  5
59
  8
0
 62
     7
 10
168.34899999999999
 20
183.81700000000001
 30
0.0
 11
119.015
 21
183.81700000000001
 31
0.0
  0
ARC
  5
5A
  8
0
 62
     7
 10
168.348928
 20
184.4834459999999
 30
0.0
 40
0.666458
 50
270.01482900000002
 51
0.014799
  0
LINE
  5
5B
  8
0
 62
     7
 10
118.3489999999999
 20
184.4839999999999
 30
0.0
 11
118.3489999999999
 21
215.81700000000001
 31
0.0
  0
ARC
  5
5C
  8
0
 62
     7
 10
119.015193
 20
184.4834459999999
 30
0.0
 40
0.666458
 50
179.98516100000001
 51
269.98521099999999
  0
LINE
  5
5D
  8
0
 62
     7
 10
180.00899999999999
 20
215.81700000000001
 30
0.0
 11
175.89699999999999
 21
215.81700000000001
 31
0.0
  0
LINE
  5
5E
  8
0
 62
     7
 10
180.00899999999999
 20
183.81700000000001
 30
0.0
 11
170.34200000000001
 21
183.81700000000001
 31
0.0
  0
LINE
  5
5F
  8
0
 62
     7
 10
178.72499999999999
 20
186.02799999999991
 30
0.0
 11
179.31700000000001
 21
183.81700000000001
 31
0.0
  0
LINE
  5
60
  8
0
 62
     7
 10
179.31700000000001
 20
183.81700000000001
 30
0.0
 11
179.90999999999991
 21
186.02799999999991
 31
0.0
  0
LINE
  5
61
  8
0
 62
     7
 10
179.90999999999991
 20
186.02799999999991
 30
0.0
 11
178.72499999999999
 21
186.02799999999991
 31
0.0
  0
LINE
  5
62
  8
0
 62
     7
 10
179.89500000000001
 20
213.607
 30
0.0
 11
179.30299999999991
 21
215.81700000000001
 31
0.0
  0
LINE
  5
63
  8
0
 62
     7
 10
179.30299999999991
 20
215.81700000000001
 30
0.0
 11
178.71100000000001
 21
213.607
 31
0.0
  0
LINE
  5
64
  8
0
 62
     7
 10
178.71100000000001
 20
213.607
 30
0.0
 11
179.89500000000001
 21
213.607
 31
0.0
  0
LINE
  5
65
  8
0
 62
     7
 10
179.31
 20
183.81700000000001
 30
0.0
 11
179.31
 21
215.81700000000001
 31
0.0
  0
LINE
  5
66
  8
0
 62
     7
 10
155.52199999999999
 20
213.607
 30
0.0
 11
154.93000000000001
 21
215.81700000000001
 31
0.0
  0
LINE
  5
67
  8
0
 62
     7
 10
154.93000000000001
 20
215.81700000000001
 30
0.0
 11
154.33799999999991
 21
213.607
 31
0.0
  0
LINE
  5
68
  8
0
 62
     7
 10
154.33799999999991
 20
213.607
 30
0.0
 11
155.52199999999999
 21
213.607
 31
0.0
  0
LINE
  5
69
  8
0
 62
     7
 10
119.655
 20
186.0329999999999
 30
0.0
 11
118.511
 21
184.05199999999999
 31
0.0
  0
LINE
  5
6A
  8
0
 62
     7
 10
118.511
 20
184.05199999999999
 30
0.0
 11
120.49299999999999
 21
185.196
 31
0.0
  0
LINE
  5
6B
  8
0
 62
     7
 10
120.49299999999999
 20
185.196
 30
0.0
 11
119.655
 21
186.0329999999999
 31
0.0
  0
LINE
  5
6C
  8
0
 62
     7
 10
125.27800000000001
 20
190.82799999999989
 30
0.0
 11
118.506
 21
184.05699999999999
 31
0.0
  0
LINE
  5
6D
  8
0
 62
     7
 10
154.352
 20
202.69399999999999
 30
0.0
 11
154.9439999999999
 21
200.48400000000001
 31
0.0
  0
LINE
  5
6E
  8
0
 62
     7
 10
154.9439999999999
 20
200.48400000000001
 30
0.0
 11
155.53700000000001
 21
202.69399999999999
 31
0.0
  0
LINE
  5
6F
  8
0
 62
     7
 10
155.53700000000001
 20
202.69399999999999
 30
0.0
 11
154.352
 21
202.69399999999999
 31
0.0
  0
LINE
  5
70
  8
0
 62
     7
 10
154.93700000000001
 20
215.81700000000001
 30
0.0
 11
154.93700000000001
 21
200.48400000000001
 31
0.0
  0
LINE
  5
71
  8
0
 62
     7
 10
148.184
 20
200.48400000000001
 30
0.0
 11
155.637
 21
200.48400000000001
 31
0.0
  0
LINE
  5
72
  8
0
 62
     7
 10
118.3489999999999
 20
174.40899999999999
 30
0.0
 11
118.3489999999999
 21
182.56999999999991
 31
0.0
  0
LINE
  5
73
  8
0
 62
     7
 10
169.0149999999999
 20
174.40899999999999
 30
0.0
 11
169.0149999999999
 21
182.56999999999991
 31
0.0
  0
LINE
  5
74
  8
0
 62
     7
 10
166.80500000000001
 20
174.52500000000001
 30
0.0
 11
169.0149999999999
 21
175.11699999999999
 31
0.0
  0
LINE
  5
75
  8
0
 62
     7
 10
169.0149999999999
 20
175.11699999999999
 30
0.0
 11
166.80500000000001
 21
175.71000000000001
 31
0.0
  0
LINE
  5
76
  8
0
 62
     7
 10
166.80500000000001
 20
175.71000000000001
 30
0.0
 11
166.80500000000001
 21
174.52500000000001
 31
0.0
  0
LINE
  5
77
  8
0
 62
     7
 10
120.5589999999999
 20
175.69499999999991
 30
0.0
 11
118.3489999999999
 21
175.10299999999989
 31
0.0
  0
LINE
  5
78
  8
0
 62
     7
 10
118.3489999999999
 20
175.10299999999989
 30
0.0
 11
120.5589999999999
 21
174.50999999999991
 31
0.0
  0
LINE
  5
79
  8
0
 62
     7
 10
120.5589999999999
 20
174.50999999999991
 30
0.0
 11
120.5589999999999
 21
175.69499999999991
 31
0.0
  0
LINE
  5
7A
  8
0
 62
     7
 10
169.0149999999999
 20
175.11000000000001
 30
0.0
 11
118.3489999999999
 21
175.11000000000001
 31
0.0
  0
LINE
  5
7B
  8
0
  6
AIGENLINE002
 62
     7
 10
147.64599999999999
 20
200.48400000000001
 30
0.0
 11
139.3429999999999
 21
200.48400000000001
 31
0.0
  0
ARC
  5
7C
  8
0
  6
AIGENLINE001
 62
     7
 10
143.68197399999991
 20
200.48386199999999
 30
0.0
 40
1.533164
 50
359.99679099999997
 51
89.996761000000006
  0
ARC
  5
7D
  8
0
  6
AIGENLINE001
 62
     7
 10
143.6821469999999
 20
200.48386199999999
 30
0.0
 40
1.533164
 50
90.003219000000016
 51
180.003229
  0
ARC
  5
7E
  8
0
  6
AIGENLINE001
 62
     7
 10
143.682233
 20
200.48360400000001
 30
0.0
 40
1.5332490000000001
 50
179.99353300000001
 51
269.993583
  0
ARC
  5
7F
  8
0
  6
AIGENLINE001
 62
     7
 10
143.6818879999999
 20
200.48360400000001
 30
0.0
 40
1.5332499999999989
 50
270.0064569999999
 51
0.006427
  0
ARC
  5
80
  8
0
  6
AIGENLINE001
 62
     7
 10
143.68197399999991
 20
200.48386199999999
 30
0.0
 40
2.6666069999999991
 50
359.99815899999999
 51
89.998130000000003
  0
ARC
  5
81
  8
0
  6
AIGENLINE001
 62
     7
 10
143.78403899999989
 20
200.38197600000001
 30
0.0
 40
2.7703700000000002
 50
92.109549999999984
 51
177.8941209999999
  0
ARC
  5
82
  8
0
  6
AIGENLINE001
 62
     7
 10
143.78420099999991
 20
200.58573799999999
 30
0.0
 40
2.7705380000000002
 50
182.109106
 51
267.88722300000001
  0
ARC
  5
83
  8
0
  6
AIGENLINE001
 62
     7
 10
143.68197399999991
 20
200.48368999999991
 30
0.0
 40
2.6666069999999991
 50
270.00187
 51
0.001841
  0
LINE
  5
84
  8
0
  6
AIGENLINE002
 62
     7
 10
143.68199999999999
 20
181.16
 30
0.0
 11
143.68199999999999
 21
218.33699999999999
 31
0.0
  0
LINE
  5
85
  8
0
  6
AIGENLINE003
 62
     7
 10
169.0149999999999
 20
215.81700000000001
 30
0.0
 11
118.3489999999999
 21
215.81700000000001
 31
0.0
  0
LINE
  5
86
  8
0
  6
AIGENLINE002
 62
     7
 10
62.332299999999989
 20
206.48099999999999
 30
0.0
 11
65.333399999999983
 21
206.48099999999999
 31
0.0
  0
ARC
  5
87
  8
0
 62
     7
 10
64.206040999999999
 20
206.4784469999999
 30
0.0
 40
0.4038660000000001
 50
0.294043
 51
41.328088999999991
  0
ARC
  5
88
  8
0
 62
     7
 10
63.936337000000002
 20
206.25562999999991
 30
0.0
 40
0.753616
 50
40.508296999999999
 51
75.934061
  0
ARC
  5
89
  8
0
 62
     7
 10
63.781444
 20
205.846507
 30
0.0
 40
1.1892039999999999
 50
73.485020000000006
 51
90.236879999999985
  0
ARC
  5
8A
  8
0
 62
     7
 10
63.778661
 20
205.91789099999991
 30
0.0
 40
1.1178110000000001
 50
90.10935400000001
 51
126.8225799999999
  0
ARC
  5
8B
  8
0
 62
     7
 10
63.419598000000001
 20
206.45039899999989
 30
0.0
 40
0.477396
 50
130.632935
 51
176.38260999999989
  0
ARC
  5
8C
  8
0
 62
     7
 10
63.347014000000001
 20
206.4825919999999
 30
0.0
 40
0.4038660000000001
 50
180.29406299999991
 51
221.32810900000001
  0
ARC
  5
8D
  8
0
 62
     7
 10
63.616717999999999
 20
206.705409
 30
0.0
 40
0.753616
 50
220.50831699999989
 51
255.93408099999999
  0
ARC
  5
8E
  8
0
 62
     7
 10
63.771611
 20
207.11453199999991
 30
0.0
 40
1.1892039999999999
 50
253.48503899999989
 51
270.23689999999999
  0
ARC
  5
8F
  8
0
 62
     7
 10
63.774394000000001
 20
207.04314799999989
 30
0.0
 40
1.1178110000000001
 50
270.109374
 51
306.82260000000002
  0
ARC
  5
90
  8
0
 62
     7
 10
64.133456999999993
 20
206.51063999999991
 30
0.0
 40
0.477396
 50
310.63295499999992
 51
356.38263000000001
  0
LINE
  5
91
  8
0
 62
     7
 10
167.84499999999991
 20
120.71299999999999
 30
0.0
 11
168.43700000000001
 21
118.502
 31
0.0
  0
LINE
  5
92
  8
0
 62
     7
 10
168.43700000000001
 20
118.502
 30
0.0
 11
169.029
 21
120.71299999999999
 31
0.0
  0
LINE
  5
93
  8
0
 62
     7
 10
169.029
 20
120.71299999999999
 30
0.0
 11
167.84499999999991
 21
120.71299999999999
 31
0.0
  0
LINE
  5
94
  8
0
 62
     7
 10
169.0149999999999
 20
126.9589999999999
 30
0.0
 11
168.422
 21
129.1689999999999
 31
0.0
  0
LINE
  5
95
  8
0
 62
     7
 10
168.422
 20
129.1689999999999
 30
0.0
 11
167.83000000000001
 21
126.9589999999999
 31
0.0
  0
LINE
  5
96
  8
0
 62
     7
 10
167.83000000000001
 20
126.9589999999999
 30
0.0
 11
169.0149999999999
 21
126.9589999999999
 31
0.0
  0
LINE
  5
97
  8
0
 62
     7
 10
168.43000000000001
 20
118.502
 30
0.0
 11
168.43000000000001
 21
129.1689999999999
 31
0.0
  0
LINE
  5
98
  8
0
 62
     7
 10
169.12899999999999
 20
118.502
 30
0.0
 11
159.495
 21
118.502
 31
0.0
  0
LINE
  5
99
  8
0
 62
     7
 10
169.12899999999999
 20
129.1689999999999
 30
0.0
 11
159.495
 21
129.1689999999999
 31
0.0
  0
LINE
  5
9A
  8
0
  6
AIGENLINE001
 62
     7
 10
146.0149999999999
 20
121.502
 30
0.0
 11
142.6149999999999
 21
121.502
 31
0.0
  0
LINE
  5
9B
  8
0
 62
     7
 10
142.6149999999999
 20
121.502
 30
0.0
 11
141.3479999999999
 21
121.502
 31
0.0
  0
LINE
  5
9C
  8
0
 62
     7
 10
143.28599999999989
 20
122.292
 30
0.0
 11
142.6939999999999
 21
124.502
 31
0.0
  0
LINE
  5
9D
  8
0
 62
     7
 10
142.6939999999999
 20
124.502
 30
0.0
 11
142.101
 21
122.292
 31
0.0
  0
LINE
  5
9E
  8
0
 62
     7
 10
142.101
 20
122.292
 30
0.0
 11
143.28599999999989
 21
122.292
 31
0.0
  0
LINE
  5
9F
  8
0
 62
     7
 10
142.11600000000001
 20
131.38
 30
0.0
 11
142.70799999999991
 21
129.1689999999999
 31
0.0
  0
LINE
  5
A0
  8
0
 62
     7
 10
142.70799999999991
 20
129.1689999999999
 30
0.0
 11
143.30000000000001
 21
131.38
 31
0.0
  0
LINE
  5
A1
  8
0
 62
     7
 10
143.30000000000001
 20
131.38
 30
0.0
 11
142.11600000000001
 21
131.38
 31
0.0
  0
LINE
  5
A2
  8
0
 62
     7
 10
142.70099999999991
 20
135.08500000000001
 30
0.0
 11
142.70099999999991
 21
120.72
 31
0.0
  0
LINE
  5
A3
  8
0
 62
     7
 10
156.80500000000001
 20
104.9379999999999
 30
0.0
 11
159.01599999999999
 21
105.529
 31
0.0
  0
LINE
  5
A4
  8
0
 62
     7
 10
159.01599999999999
 20
105.529
 30
0.0
 11
156.80500000000001
 21
106.122
 31
0.0
  0
LINE
  5
A5
  8
0
 62
     7
 10
156.80500000000001
 20
106.122
 30
0.0
 11
156.80500000000001
 21
104.9379999999999
 31
0.0
  0
LINE
  5
A6
  8
0
 62
     7
 10
129.892
 20
106.108
 30
0.0
 11
127.682
 21
105.515
 31
0.0
  0
LINE
  5
A7
  8
0
 62
     7
 10
127.682
 20
105.515
 30
0.0
 11
129.892
 21
104.9229999999999
 31
0.0
  0
LINE
  5
A8
  8
0
 62
     7
 10
129.892
 20
104.9229999999999
 30
0.0
 11
129.892
 21
106.108
 31
0.0
  0
LINE
  5
A9
  8
0
 62
     7
 10
159.01599999999999
 20
105.5229999999999
 30
0.0
 11
127.682
 21
105.5229999999999
 31
0.0
  0
LINE
  5
AA
  8
0
 62
     7
 10
159.01599999999999
 20
118.15600000000001
 30
0.0
 11
159.01599999999999
 21
104.82299999999989
 31
0.0
  0
LINE
  5
AB
  8
0
 62
     7
 10
127.682
 20
121.0499999999999
 30
0.0
 11
127.682
 21
104.82299999999989
 31
0.0
  0
LINE
  5
AC
  8
0
 62
     7
 10
145.893
 20
113.346
 30
0.0
 11
143.68199999999999
 21
112.7529999999999
 31
0.0
  0
LINE
  5
AD
  8
0
 62
     7
 10
143.68199999999999
 20
112.7529999999999
 30
0.0
 11
145.893
 21
112.1609999999999
 31
0.0
  0
LINE
  5
AE
  8
0
 62
     7
 10
145.893
 20
112.1609999999999
 30
0.0
 11
145.893
 21
113.346
 31
0.0
  0
LINE
  5
AF
  8
0
 62
     7
 10
156.80500000000001
 20
112.176
 30
0.0
 11
159.01599999999999
 21
112.7679999999999
 31
0.0
  0
LINE
  5
B0
  8
0
 62
     7
 10
159.01599999999999
 20
112.7679999999999
 30
0.0
 11
156.80500000000001
 21
113.3599999999999
 31
0.0
  0
LINE
  5
B1
  8
0
 62
     7
 10
156.80500000000001
 20
113.3599999999999
 30
0.0
 11
156.80500000000001
 21
112.176
 31
0.0
  0
LINE
  5
B2
  8
0
 62
     7
 10
143.68199999999999
 20
112.761
 30
0.0
 11
159.01599999999999
 21
112.761
 31
0.0
  0
LINE
  5
B3
  8
0
 62
     7
 10
143.68199999999999
 20
119.8239999999999
 30
0.0
 11
143.68199999999999
 21
112.06100000000001
 31
0.0
  0
LINE
  5
B4
  8
0
 62
     7
 10
120.2389999999999
 20
126.9589999999999
 30
0.0
 11
119.64700000000001
 21
129.1689999999999
 31
0.0
  0
LINE
  5
B5
  8
0
 62
     7
 10
119.64700000000001
 20
129.1689999999999
 30
0.0
 11
119.05499999999989
 21
126.9589999999999
 31
0.0
  0
LINE
  5
B6
  8
0
 62
     7
 10
119.05499999999989
 20
126.9589999999999
 30
0.0
 11
120.2389999999999
 21
126.9589999999999
 31
0.0
  0
LINE
  5
B7
  8
0
 62
     7
 10
119.069
 20
123.71299999999999
 30
0.0
 11
119.66200000000001
 21
121.502
 31
0.0
  0
LINE
  5
B8
  8
0
 62
     7
 10
119.66200000000001
 20
121.502
 30
0.0
 11
120.25399999999991
 21
123.71299999999999
 31
0.0
  0
LINE
  5
B9
  8
0
 62
     7
 10
120.25399999999991
 20
123.71299999999999
 30
0.0
 11
119.069
 21
123.71299999999999
 31
0.0
  0
LINE
  5
BA
  8
0
 62
     7
 10
119.6539999999999
 20
129.1689999999999
 30
0.0
 11
119.6539999999999
 21
121.502
 31
0.0
  0
LINE
  5
BB
  8
0
  6
AIGENLINE002
 62
     7
 10
155.76599999999999
 20
125.1689999999999
 30
0.0
 11
161.53999999999991
 21
125.1689999999999
 31
0.0
  0
LINE
  5
BC
  8
0
 62
     7
 10
126.215
 20
129.1689999999999
 30
0.0
 11
159.01599999999999
 21
129.1689999999999
 31
0.0
  0
LINE
  5
BD
  8
0
  6
AIGENLINE001
 62
     7
 10
150.916
 20
129.02099999999999
 30
0.0
 11
148.476
 21
125.36
 31
0.0
  0
ARC
  5
BE
  8
0
  6
AIGENLINE001
 62
     7
 10
151.19701499999991
 20
128.828812
 30
0.0
 40
0.340363
 50
90.542112000000003
 51
145.617593
  0
LINE
  5
BF
  8
0
  6
AIGENLINE001
 62
     7
 10
148.13200000000001
 20
125.09699999999999
 30
0.0
 11
146.34899999999999
 21
124.502
 31
0.0
  0
ARC
  5
C0
  8
0
  6
AIGENLINE001
 62
     7
 10
147.917248
 20
125.73441099999999
 30
0.0
 40
0.6725140000000001
 50
288.60192399999988
 51
326.123514
  0
LINE
  5
C1
  8
0
  6
AIGENLINE001
 62
     7
 10
141.01599999999991
 20
124.502
 30
0.0
 11
131.1639999999999
 21
125.4879999999999
 31
0.0
  0
LINE
  5
C2
  8
0
  6
AIGENLINE001
 62
     7
 10
128.5079999999999
 20
128.9489999999999
 30
0.0
 11
130.92799999999991
 21
125.62299999999991
 31
0.0
  0
ARC
  5
C3
  8
0
  6
AIGENLINE001
 62
     7
 10
131.19879800000001
 20
125.8221119999999
 30
0.0
 40
0.336222
 50
216.2194519999999
 51
264.03927799999991
  0
ARC
  5
C4
  8
0
  6
AIGENLINE001
 62
     7
 10
128.072485
 20
128.627072
 30
0.0
 40
0.5421070000000001
 50
36.477863999999997
 51
89.516734999999997
  0
LINE
  5
C5
  8
0
  6
AIGENLINE001
 62
     7
 10
145.215
 20
123.8359999999999
 30
0.0
 11
146.34899999999999
 21
124.502
 31
0.0
  0
LINE
  5
C6
  8
0
  6
AIGENLINE001
 62
     7
 10
142.148
 20
123.8359999999999
 30
0.0
 11
141.01599999999991
 21
124.502
 31
0.0
  0
LINE
  5
C7
  8
0
  6
AIGENLINE001
 62
     7
 10
146.34899999999999
 20
124.502
 30
0.0
 11
141.01599999999991
 21
124.502
 31
0.0
  0
LINE
  5
C8
  8
0
  6
AIGENLINE001
 62
     7
 10
145.215
 20
121.502
 30
0.0
 11
145.215
 21
123.8359999999999
 31
0.0
  0
LINE
  5
C9
  8
0
  6
AIGENLINE001
 62
     7
 10
142.148
 20
121.502
 30
0.0
 11
142.148
 21
123.8359999999999
 31
0.0
  0
LINE
  5
CA
  8
0
  6
AIGENLINE001
 62
     7
 10
145.215
 20
123.8359999999999
 30
0.0
 11
142.148
 21
123.8359999999999
 31
0.0
  0
LINE
  5
CB
  8
0
  6
AIGENLINE001
 62
     7
 10
146.34899999999999
 20
121.836
 30
0.0
 11
146.34899999999999
 21
123.28399999999991
 31
0.0
  0
ARC
  5
CC
  8
0
  6
AIGENLINE001
 62
     7
 10
146.0027429999999
 20
121.84823399999991
 30
0.0
 40
0.346059
 50
272.04542500000002
 51
357.95458500000001
  0
LINE
  5
CD
  8
0
  6
AIGENLINE001
 62
     7
 10
141.01599999999991
 20
121.836
 30
0.0
 11
141.01599999999991
 21
123.28399999999991
 31
0.0
  0
ARC
  5
CE
  8
0
 62
     7
 10
141.361638
 20
121.848467
 30
0.0
 40
0.346327
 50
182.0823629999999
 51
267.79916400000002
  0
LINE
  5
CF
  8
0
  6
AIGENLINE002
 62
     7
 10
143.68199999999999
 20
120.354
 30
0.0
 11
143.68199999999999
 21
125.386
 31
0.0
  0
LINE
  5
D0
  8
0
 62
     7
 10
140.45899999999989
 20
121.502
 30
0.0
 11
118.955
 21
121.502
 31
0.0
  0
LINE
  5
D1
  8
0
 62
     7
 10
125.32899999999999
 20
129.1689999999999
 30
0.0
 11
118.955
 21
129.1689999999999
 31
0.0
  0
LINE
  5
D2
  8
0
 62
     7
 10
125.682
 20
126.1689999999999
 30
0.0
 11
159.01599999999999
 21
126.1689999999999
 31
0.0
  0
LINE
  5
D3
  8
0
 62
     7
 10
128.0149999999999
 20
121.836
 30
0.0
 11
159.01599999999999
 21
121.836
 31
0.0
  0
LINE
  5
D4
  8
0
 62
     7
 10
127.682
 20
122.1689999999999
 30
0.0
 11
127.682
 21
125.8359999999999
 31
0.0
  0
ARC
  5
D5
  8
0
 62
     7
 10
128.02767800000001
 20
122.18200299999999
 30
0.0
 40
0.346351
 50
182.09027999999989
 51
267.90974999999992
  0
ARC
  5
D6
  8
0
 62
     7
 10
127.335521
 20
125.82314100000001
 30
0.0
 40
0.3462639999999999
 50
2.0726169999999988
 51
87.808870999999996
  0
LINE
  5
D7
  8
0
 62
     7
 10
125.682
 20
126.1689999999999
 30
0.0
 11
125.682
 21
128.63599999999991
 31
0.0
  0
ARC
  5
D8
  8
0
 62
     7
 10
126.235606
 20
128.615566
 30
0.0
 40
0.5539649999999999
 50
92.098984999999985
 51
177.90098499999999
  0
LINE
  5
D9
  8
0
 62
     7
 10
141.01599999999991
 20
121.836
 30
0.0
 11
157.0149999999999
 21
118.502
 31
0.0
  0
LINE
  5
DA
  8
0
 62
     7
 10
159.01599999999999
 20
118.502
 30
0.0
 11
157.0149999999999
 21
118.502
 31
0.0
  0
LINE
  5
DB
  8
0
  6
AIGENLINE002
 62
     7
 10
155.0149999999999
 20
126.845
 30
0.0
 11
155.0149999999999
 21
131.922
 31
0.0
  0
LINE
  5
DC
  8
0
 62
     7
 10
159.01599999999999
 20
118.502
 30
0.0
 11
159.01599999999999
 21
129.1689999999999
 31
0.0
  0
LINE
  5
DD
  8
0
 62
     7
 10
39.1098
 20
110.59
 30
0.0
 11
39.1098
 21
120.837
 31
0.0
  0
LINE
  5
DE
  8
0
 62
     7
 10
88.443200000000004
 20
110.59
 30
0.0
 11
88.443200000000004
 21
120.837
 31
0.0
  0
LINE
  5
DF
  8
0
 62
     7
 10
86.232699999999994
 20
110.705
 30
0.0
 11
88.443200000000004
 21
111.297
 31
0.0
  0
LINE
  5
E0
  8
0
 62
     7
 10
88.443200000000004
 20
111.297
 30
0.0
 11
86.232699999999994
 21
111.8889999999999
 31
0.0
  0
LINE
  5
E1
  8
0
 62
     7
 10
86.232699999999994
 20
111.8889999999999
 30
0.0
 11
86.232699999999994
 21
110.705
 31
0.0
  0
LINE
  5
E2
  8
0
 62
     7
 10
41.320399999999992
 20
111.875
 30
0.0
 11
39.109999999999992
 21
111.282
 31
0.0
  0
LINE
  5
E3
  8
0
 62
     7
 10
39.109999999999992
 20
111.282
 30
0.0
 11
41.320399999999992
 21
110.6899999999999
 31
0.0
  0
LINE
  5
E4
  8
0
 62
     7
 10
41.320399999999992
 20
110.6899999999999
 30
0.0
 11
41.320399999999992
 21
111.875
 31
0.0
  0
LINE
  5
E5
  8
0
 62
     7
 10
88.443200000000004
 20
111.29000000000001
 30
0.0
 11
39.1098
 21
111.29000000000001
 31
0.0
  0
LINE
  5
E6
  8
0
 62
     7
 10
96.028300000000002
 20
131.38
 30
0.0
 11
96.620599999999996
 21
129.1689999999999
 31
0.0
  0
LINE
  5
E7
  8
0
 62
     7
 10
96.620599999999996
 20
129.1689999999999
 30
0.0
 11
97.212900000000005
 21
131.38
 31
0.0
  0
LINE
  5
E8
  8
0
 62
     7
 10
97.212900000000005
 20
131.38
 30
0.0
 11
96.028300000000002
 21
131.38
 31
0.0
  0
LINE
  5
E9
  8
0
 62
     7
 10
97.198300000000003
 20
123.9579999999999
 30
0.0
 11
96.606099999999998
 21
126.1689999999999
 31
0.0
  0
LINE
  5
EA
  8
0
 62
     7
 10
96.606099999999998
 20
126.1689999999999
 30
0.0
 11
96.013700000000014
 21
123.9579999999999
 31
0.0
  0
LINE
  5
EB
  8
0
 62
     7
 10
96.013700000000014
 20
123.9579999999999
 30
0.0
 11
97.198300000000003
 21
123.9579999999999
 31
0.0
  0
LINE
  5
EC
  8
0
 62
     7
 10
96.613299999999995
 20
122.96299999999999
 30
0.0
 11
96.613299999999995
 21
134.99499999999989
 31
0.0
  0
LINE
  5
ED
  8
0
 62
     7
 10
97.313900000000004
 20
126.1689999999999
 30
0.0
 11
91.464600000000004
 21
126.1689999999999
 31
0.0
  0
LINE
  5
EE
  8
0
 62
     7
 10
32.262500000000003
 20
122.9589999999999
 30
0.0
 11
31.670300000000001
 21
125.1689999999999
 31
0.0
  0
LINE
  5
EF
  8
0
 62
     7
 10
31.670300000000001
 20
125.1689999999999
 30
0.0
 11
31.0779
 21
122.9589999999999
 31
0.0
  0
LINE
  5
F0
  8
0
 62
     7
 10
31.0779
 20
122.9589999999999
 30
0.0
 11
32.262500000000003
 21
122.9589999999999
 31
0.0
  0
LINE
  5
F1
  8
0
 62
     7
 10
31.092500000000001
 20
131.38
 30
0.0
 11
31.684699999999999
 21
129.1689999999999
 31
0.0
  0
LINE
  5
F2
  8
0
 62
     7
 10
31.684699999999999
 20
129.1689999999999
 30
0.0
 11
32.277099999999997
 21
131.38
 31
0.0
  0
LINE
  5
F3
  8
0
 62
     7
 10
32.277099999999997
 20
131.38
 30
0.0
 11
31.092500000000001
 21
131.38
 31
0.0
  0
LINE
  5
F4
  8
0
 62
     7
 10
31.677499999999991
 20
132.49199999999999
 30
0.0
 11
31.677499999999991
 21
121.92100000000001
 31
0.0
  0
LINE
  5
F5
  8
0
 62
     7
 10
30.931999999999992
 20
129.1689999999999
 30
0.0
 11
36.166499999999992
 21
129.1689999999999
 31
0.0
  0
LINE
  5
F6
  8
0
 62
     7
 10
30.8248
 20
125.1689999999999
 30
0.0
 11
52.112900000000003
 21
125.1689999999999
 31
0.0
  0
LINE
  5
F7
  8
0
 62
     7
 10
91.464600000000004
 20
129.1689999999999
 30
0.0
 11
105.30800000000001
 21
129.1689999999999
 31
0.0
  0
LINE
  5
F8
  8
0
 62
     7
 10
104.02200000000001
 20
123.71299999999999
 30
0.0
 11
104.6139999999999
 21
121.502
 31
0.0
  0
LINE
  5
F9
  8
0
 62
     7
 10
104.6139999999999
 20
121.502
 30
0.0
 11
105.20699999999999
 21
123.71299999999999
 31
0.0
  0
LINE
  5
FA
  8
0
 62
     7
 10
105.20699999999999
 20
123.71299999999999
 30
0.0
 11
104.02200000000001
 21
123.71299999999999
 31
0.0
  0
LINE
  5
FB
  8
0
 62
     7
 10
105.19199999999999
 20
126.9589999999999
 30
0.0
 11
104.59999999999999
 21
129.1689999999999
 31
0.0
  0
LINE
  5
FC
  8
0
 62
     7
 10
104.59999999999999
 20
129.1689999999999
 30
0.0
 11
104.0079999999999
 21
126.9589999999999
 31
0.0
  0
LINE
  5
FD
  8
0
 62
     7
 10
104.0079999999999
 20
126.9589999999999
 30
0.0
 11
105.19199999999999
 21
126.9589999999999
 31
0.0
  0
LINE
  5
FE
  8
0
 62
     7
 10
104.607
 20
121.502
 30
0.0
 11
104.607
 21
129.1689999999999
 31
0.0
  0
LINE
  5
FF
  8
0
 62
     7
 10
105.30800000000001
 20
121.502
 30
0.0
 11
67.615799999999993
 21
121.502
 31
0.0
  0
LINE
  5
100
  8
0
 62
     7
 10
73.109700000000004
 20
135.32699999999991
 30
0.0
 11
73.109700000000004
 21
126.84999999999989
 31
0.0
  0
LINE
  5
101
  8
0
  6
AIGENLINE002
 62
     7
 10
73.109700000000004
 20
124.03700000000001
 30
0.0
 11
73.109700000000004
 21
126.502
 31
0.0
  0
LINE
  5
102
  8
0
  6
AIGENLINE001
 62
     7
 10
73.443200000000004
 20
124.502
 30
0.0
 11
72.776600000000002
 21
124.502
 31
0.0
  0
LINE
  5
103
  8
0
  6
AIGENLINE001
 62
     7
 10
73.443200000000004
 20
125.8359999999999
 30
0.0
 11
72.776600000000002
 21
125.8359999999999
 31
0.0
  0
ARC
  5
104
  8
0
  6
AIGENLINE001
 62
     7
 10
73.418334000000002
 20
125.14417299999999
 30
0.0
 40
0.6919380000000001
 50
2.0876179999999991
 51
87.941990000000004
  0
ARC
  5
105
  8
0
  6
AIGENLINE001
 62
     7
 10
73.417468999999997
 20
125.194734
 30
0.0
 40
0.692807
 50
272.12698099999989
 51
357.90263099999987
  0
ARC
  5
106
  8
0
  6
AIGENLINE001
 62
     7
 10
72.801952999999983
 20
125.194422
 30
0.0
 40
0.6924850000000001
 50
182.07259099999999
 51
267.89783599999993
  0
ARC
  5
107
  8
0
  6
AIGENLINE001
 62
     7
 10
72.801593999999994
 20
125.143979
 30
0.0
 40
0.692138
 50
92.073412000000005
 51
177.896941
  0
LINE
  5
108
  8
0
  6
AIGENLINE002
 62
     7
 10
74.707899999999995
 20
125.1689999999999
 30
0.0
 11
71.496000000000009
 21
125.1689999999999
 31
0.0
  0
LINE
  5
109
  8
0
 62
     7
 10
76.345299999999995
 20
118.6609999999999
 30
0.0
 11
73.863500000000002
 21
120.76899999999991
 31
0.0
  0
LINE
  5
10A
  8
0
 62
     7
 10
78.109899999999996
 20
118.502
 30
0.0
 11
76.776300000000006
 21
118.502
 31
0.0
  0
ARC
  5
10B
  8
0
 62
     7
 10
76.788899000000001
 20
119.18650599999999
 30
0.0
 40
0.684234
 50
200.322001
 51
268.9477169999999
  0
LINE
  5
10C
  8
0
 62
     7
 10
71.580799999999996
 20
121.083
 30
0.0
 11
71.109800000000007
 21
121.836
 31
0.0
  0
LINE
  5
10D
  8
0
 62
     7
 10
72.146100000000004
 20
120.76899999999991
 30
0.0
 11
73.863500000000002
 21
120.76899999999991
 31
0.0
  0
ARC
  5
10E
  8
0
 62
     7
 10
72.153090000000006
 20
121.448382
 30
0.0
 40
0.679144
 50
212.56989399999989
 51
269.409897
  0
LINE
  5
10F
  8
0
 62
     7
 10
78.776600000000002
 20
121.836
 30
0.0
 11
78.776600000000002
 21
119.1689999999999
 31
0.0
  0
ARC
  5
110
  8
0
 62
     7
 10
78.084225000000004
 20
119.1947179999999
 30
0.0
 40
0.692807
 50
272.12698099999989
 51
357.90263099999987
  0
LINE
  5
111
  8
0
 62
     7
 10
54.443399999999997
 20
135.32699999999991
 30
0.0
 11
54.443399999999997
 21
126.84999999999989
 31
0.0
  0
LINE
  5
112
  8
0
  6
AIGENLINE002
 62
     7
 10
54.443399999999997
 20
124.03700000000001
 30
0.0
 11
54.443399999999997
 21
126.502
 31
0.0
  0
LINE
  5
113
  8
0
  6
AIGENLINE001
 62
     7
 10
54.109900000000003
 20
124.502
 30
0.0
 11
54.776499999999999
 21
124.502
 31
0.0
  0
LINE
  5
114
  8
0
  6
AIGENLINE001
 62
     7
 10
54.109900000000003
 20
125.8359999999999
 30
0.0
 11
54.776499999999999
 21
125.8359999999999
 31
0.0
  0
ARC
  5
115
  8
0
  6
AIGENLINE001
 62
     7
 10
54.135226000000003
 20
125.14366799999991
 30
0.0
 40
0.692461
 50
92.098220999999995
 51
177.87213099999991
  0
ARC
  5
116
  8
0
  6
AIGENLINE001
 62
     7
 10
54.135585999999989
 20
125.194734
 30
0.0
 40
0.692807
 50
182.0973709999999
 51
267.87305600000002
  0
ARC
  5
117
  8
0
  6
AIGENLINE001
 62
     7
 10
54.751606000000002
 20
125.1939179999999
 30
0.0
 40
0.691963
 50
272.06198499999988
 51
357.96762799999999
  0
ARC
  5
118
  8
0
  6
AIGENLINE001
 62
     7
 10
54.751460999999992
 20
125.143979
 30
0.0
 40
0.692138
 50
2.1030570000000002
 51
87.926551000000003
  0
LINE
  5
119
  8
0
  6
AIGENLINE002
 62
     7
 10
52.845199999999998
 20
125.1689999999999
 30
0.0
 11
56.057099999999998
 21
125.1689999999999
 31
0.0
  0
LINE
  5
11A
  8
0
 62
     7
 10
51.207700000000003
 20
118.6609999999999
 30
0.0
 11
53.689599999999999
 21
120.76899999999991
 31
0.0
  0
LINE
  5
11B
  8
0
 62
     7
 10
49.443100000000001
 20
118.502
 30
0.0
 11
50.776699999999998
 21
118.502
 31
0.0
  0
ARC
  5
11C
  8
0
 62
     7
 10
73.847782999999993
 20
118.04967600000001
 30
0.0
 40
2.4690340000000002
 50
21.357773000000002
 51
38.528055000000002
  0
ARC
  5
11D
  8
0
 62
     7
 10
72.963539999999995
 20
117.437577
 30
0.0
 40
3.5427859999999991
 50
37.364429999999992
 51
60.653950999999999
  0
ARC
  5
11E
  8
0
 62
     7
 10
73.746964000000006
 20
118.811408
 30
0.0
 40
1.9613309999999999
 50
60.934407
 51
86.594059000000016
  0
ARC
  5
11F
  8
0
 62
     7
 10
53.705271999999987
 20
118.04967600000001
 30
0.0
 40
2.4690340000000002
 50
141.471925
 51
158.64220700000001
  0
ARC
  5
120
  8
0
 62
     7
 10
54.589515000000013
 20
117.437577
 30
0.0
 40
3.5427859999999991
 50
119.3460289999999
 51
142.63554999999991
  0
ARC
  5
121
  8
0
 62
     7
 10
53.806091000000002
 20
118.811408
 30
0.0
 40
1.9613309999999999
 50
93.405922000000004
 51
119.065573
  0
ARC
  5
122
  8
0
 62
     7
 10
50.764147999999999
 20
119.18651799999989
 30
0.0
 40
0.684246
 50
271.05297100000001
 51
339.67734999999999
  0
LINE
  5
123
  8
0
 62
     7
 10
55.97229999999999
 20
121.083
 30
0.0
 11
56.443300000000001
 21
121.836
 31
0.0
  0
LINE
  5
124
  8
0
 62
     7
 10
55.406999999999996
 20
120.76899999999991
 30
0.0
 11
53.689599999999999
 21
120.76899999999991
 31
0.0
  0
ARC
  5
125
  8
0
 62
     7
 10
55.400093000000012
 20
121.4481509999999
 30
0.0
 40
0.6789109999999999
 50
270.57949699999989
 51
327.44075099999992
  0
LINE
  5
126
  8
0
 62
     7
 10
48.776499999999999
 20
121.836
 30
0.0
 11
48.776499999999999
 21
119.1689999999999
 31
0.0
  0
ARC
  5
127
  8
0
 62
     7
 10
49.46882999999999
 20
119.1947169999999
 30
0.0
 40
0.692807
 50
182.0973709999999
 51
267.87305600000002
  0
LINE
  5
128
  8
0
 62
     7
 10
88.443200000000004
 20
122.1689999999999
 30
0.0
 11
88.443200000000004
 21
126.1689999999999
 31
0.0
  0
LINE
  5
129
  8
0
 62
     7
 10
39.443300000000001
 20
121.836
 30
0.0
 11
88.110100000000017
 21
121.836
 31
0.0
  0
ARC
  5
12A
  8
0
 62
     7
 10
88.097443999999996
 20
122.18164899999989
 30
0.0
 40
0.345996
 50
272.09288099999998
 51
357.96634899999998
  0
LINE
  5
12B
  8
0
 62
     7
 10
39.1098
 20
122.1689999999999
 30
0.0
 11
39.1098
 21
126.1689999999999
 31
0.0
  0
ARC
  5
12C
  8
0
 62
     7
 10
39.456052999999997
 20
122.182103
 30
0.0
 40
0.346454
 50
182.10625899999999
 51
267.89377100000002
  0
LINE
  5
12D
  8
0
 62
     7
 10
61.443100000000001
 20
121.502
 30
0.0
 11
66.109899999999996
 21
121.502
 31
0.0
  0
ARC
  5
12E
  8
0
 62
     7
 10
66.097403999999983
 20
121.848384
 30
0.0
 40
0.346214
 50
272.06933599999991
 51
357.93067400000001
  0
ARC
  5
12F
  8
0
 62
     7
 10
61.456216000000012
 20
121.848592
 30
0.0
 40
0.346443
 50
182.10230300000001
 51
267.838506
  0
LINE
  5
130
  8
0
  6
AIGENLINE002
 62
     7
 10
63.776499999999999
 20
130.69599999999991
 30
0.0
 11
63.776499999999999
 21
119.077
 31
0.0
  0
LINE
  5
131
  8
0
 62
     7
 10
90.443499999999986
 20
128.83600000000001
 30
0.0
 11
90.443499999999986
 21
126.1689999999999
 31
0.0
  0
LINE
  5
132
  8
0
  6
AIGENLINE002
 62
     7
 10
60.50180000000001
 20
126.8359999999999
 30
0.0
 11
67.381
 21
126.8359999999999
 31
0.0
  0
LINE
  5
133
  8
0
 62
     7
 10
37.443100000000001
 20
129.1689999999999
 30
0.0
 11
90.110000000000014
 21
129.1689999999999
 31
0.0
  0
ARC
  5
134
  8
0
 62
     7
 10
90.097398999999996
 20
128.82310100000001
 30
0.0
 40
0.346287
 50
2.0805380000000002
 51
87.919452000000007
  0
LINE
  5
135
  8
0
 62
     7
 10
37.109900000000003
 20
126.1689999999999
 30
0.0
 11
37.109900000000003
 21
128.83600000000001
 31
0.0
  0
ARC
  5
136
  8
0
 62
     7
 10
37.455719999999999
 20
128.82339400000001
 30
0.0
 40
0.345996
 50
92.092860000000002
 51
177.96632999999991
  0
LINE
  5
137
  8
0
 62
     7
 10
37.109900000000003
 20
126.1689999999999
 30
0.0
 11
90.443499999999986
 21
126.1689999999999
 31
0.0
  0
LINE
  5
138
  8
0
 62
     7
 10
90.443499999999986
 20
140.65599999999989
 30
0.0
 11
90.443499999999986
 21
130.024
 31
0.0
  0
LINE
  5
139
  8
0
 62
     7
 10
37.109900000000003
 20
140.65599999999989
 30
0.0
 11
37.109900000000003
 21
130.024
 31
0.0
  0
LINE
  5
13A
  8
0
 62
     7
 10
39.320500000000003
 20
140.541
 30
0.0
 11
37.110100000000003
 21
139.9489999999999
 31
0.0
  0
LINE
  5
13B
  8
0
 62
     7
 10
37.110100000000003
 20
139.9489999999999
 30
0.0
 11
39.320500000000003
 21
139.35699999999991
 31
0.0
  0
LINE
  5
13C
  8
0
 62
     7
 10
39.320500000000003
 20
139.35699999999991
 30
0.0
 11
39.320500000000003
 21
140.541
 31
0.0
  0
LINE
  5
13D
  8
0
 62
     7
 10
88.232900000000001
 20
139.37200000000001
 30
0.0
 11
90.443499999999986
 21
139.96299999999991
 31
0.0
  0
LINE
  5
13E
  8
0
 62
     7
 10
90.443499999999986
 20
139.96299999999991
 30
0.0
 11
88.232900000000001
 21
140.55600000000001
 31
0.0
  0
LINE
  5
13F
  8
0
 62
     7
 10
88.232900000000001
 20
140.55600000000001
 30
0.0
 11
88.232900000000001
 21
139.37200000000001
 31
0.0
  0
LINE
  5
140
  8
0
 62
     7
 10
37.109900000000003
 20
139.95699999999991
 30
0.0
 11
90.443499999999986
 21
139.95699999999991
 31
0.0
  0
LINE
  5
141
  8
0
 62
     7
 10
98.721400000000017
 20
210.02799999999999
 30
0.0
 11
99.313599999999994
 21
207.81700000000001
 31
0.0
  0
LINE
  5
142
  8
0
 62
     7
 10
99.313599999999994
 20
207.81700000000001
 30
0.0
 11
99.906000000000006
 21
210.02799999999999
 31
0.0
  0
LINE
  5
143
  8
0
 62
     7
 10
99.906000000000006
 20
210.02799999999999
 30
0.0
 11
98.721400000000017
 21
210.02799999999999
 31
0.0
  0
LINE
  5
144
  8
0
 62
     7
 10
98.721400000000017
 20
187.36099999999999
 30
0.0
 11
99.313599999999994
 21
185.15000000000001
 31
0.0
  0
LINE
  5
145
  8
0
 62
     7
 10
99.313599999999994
 20
185.15000000000001
 30
0.0
 11
99.906000000000006
 21
187.36099999999999
 31
0.0
  0
LINE
  5
146
  8
0
 62
     7
 10
99.906000000000006
 20
187.36099999999999
 30
0.0
 11
98.721400000000017
 21
187.36099999999999
 31
0.0
  0
LINE
  5
147
  8
0
 62
     7
 10
99.891300000000015
 20
180.273
 30
0.0
 11
99.299099999999996
 21
182.48400000000001
 31
0.0
  0
LINE
  5
148
  8
0
 62
     7
 10
99.299099999999996
 20
182.48400000000001
 30
0.0
 11
98.706699999999998
 21
180.273
 31
0.0
  0
LINE
  5
149
  8
0
 62
     7
 10
98.706699999999998
 20
180.273
 30
0.0
 11
99.891300000000015
 21
180.273
 31
0.0
  0
LINE
  5
14A
  8
0
 62
     7
 10
99.891300000000015
 20
205.607
 30
0.0
 11
99.299099999999996
 21
207.81700000000001
 31
0.0
  0
LINE
  5
14B
  8
0
 62
     7
 10
99.299099999999996
 20
207.81700000000001
 30
0.0
 11
98.706699999999998
 21
205.607
 31
0.0
  0
LINE
  5
14C
  8
0
 62
     7
 10
98.706699999999998
 20
205.607
 30
0.0
 11
99.891300000000015
 21
205.607
 31
0.0
  0
LINE
  5
14D
  8
0
 62
     7
 10
99.891300000000015
 20
213.607
 30
0.0
 11
99.299099999999996
 21
215.81700000000001
 31
0.0
  0
LINE
  5
14E
  8
0
 62
     7
 10
99.299099999999996
 20
215.81700000000001
 30
0.0
 11
98.706699999999998
 21
213.607
 31
0.0
  0
LINE
  5
14F
  8
0
 62
     7
 10
98.706699999999998
 20
213.607
 30
0.0
 11
99.891300000000015
 21
213.607
 31
0.0
  0
LINE
  5
150
  8
0
 62
     7
 10
99.306399999999996
 20
177.0559999999999
 30
0.0
 11
99.306399999999996
 21
215.81700000000001
 31
0.0
  0
LINE
  5
151
  8
0
 62
     7
 10
106.376
 20
184.69399999999999
 30
0.0
 11
106.9679999999999
 21
182.48400000000001
 31
0.0
  0
LINE
  5
152
  8
0
 62
     7
 10
106.9679999999999
 20
182.48400000000001
 30
0.0
 11
107.56100000000001
 21
184.69399999999999
 31
0.0
  0
LINE
  5
153
  8
0
 62
     7
 10
107.56100000000001
 20
184.69399999999999
 30
0.0
 11
106.376
 21
184.69399999999999
 31
0.0
  0
LINE
  5
154
  8
0
 62
     7
 10
107.54600000000001
 20
213.607
 30
0.0
 11
106.95399999999989
 21
215.81700000000001
 31
0.0
  0
LINE
  5
155
  8
0
 62
     7
 10
106.95399999999989
 20
215.81700000000001
 30
0.0
 11
106.361
 21
213.607
 31
0.0
  0
LINE
  5
156
  8
0
 62
     7
 10
106.361
 20
213.607
 30
0.0
 11
107.54600000000001
 21
213.607
 31
0.0
  0
LINE
  5
157
  8
0
 62
     7
 10
106.9609999999999
 20
182.48400000000001
 30
0.0
 11
106.9609999999999
 21
215.81700000000001
 31
0.0
  0
LINE
  5
158
  8
0
 62
     7
 10
107.661
 20
182.48400000000001
 30
0.0
 11
91.437700000000007
 21
182.48400000000001
 31
0.0
  0
LINE
  5
159
  8
0
 62
     7
 10
100.00700000000001
 20
185.15000000000001
 30
0.0
 11
82.895599999999988
 21
185.15000000000001
 31
0.0
  0
LINE
  5
15A
  8
0
 62
     7
 10
100.00700000000001
 20
207.81700000000001
 30
0.0
 11
82.895599999999988
 21
207.81700000000001
 31
0.0
  0
LINE
  5
15B
  8
0
 62
     7
 10
107.661
 20
215.81700000000001
 30
0.0
 11
91.417000000000002
 21
215.81700000000001
 31
0.0
  0
LINE
  5
15C
  8
0
 62
     7
 10
46.887500000000003
 20
221.49299999999991
 30
0.0
 11
54.100900000000003
 21
221.49299999999991
 31
0.0
  0
LINE
  5
15D
  8
0
 62
     7
 10
60.97529999999999
 20
213.791
 30
0.0
 11
62.95709999999999
 21
212.64699999999999
 31
0.0
  0
LINE
  5
15E
  8
0
 62
     7
 10
62.95709999999999
 20
212.64699999999999
 30
0.0
 11
61.813000000000002
 21
214.62899999999999
 31
0.0
  0
LINE
  5
15F
  8
0
 62
     7
 10
61.813000000000002
 20
214.62899999999999
 30
0.0
 11
60.97529999999999
 21
213.791
 31
0.0
  0
LINE
  5
160
  8
0
 62
     7
 10
66.583600000000004
 20
209.8479999999999
 30
0.0
 11
64.601799999999997
 21
210.99199999999999
 31
0.0
  0
LINE
  5
161
  8
0
 62
     7
 10
64.601799999999997
 20
210.99199999999999
 30
0.0
 11
65.745900000000006
 21
209.00999999999999
 31
0.0
  0
LINE
  5
162
  8
0
 62
     7
 10
65.745900000000006
 20
209.00999999999999
 30
0.0
 11
66.583600000000004
 21
209.8479999999999
 31
0.0
  0
LINE
  5
163
  8
0
 62
     7
 10
67.028199999999998
 20
208.56599999999989
 30
0.0
 11
54.100900000000003
 21
221.49299999999991
 31
0.0
  0
LINE
  5
164
  8
0
 62
     7
 10
84.452699999999979
 20
218.02799999999991
 30
0.0
 11
85.045000000000002
 21
215.81700000000001
 31
0.0
  0
LINE
  5
165
  8
0
 62
     7
 10
85.045000000000002
 20
215.81700000000001
 30
0.0
 11
85.637299999999996
 21
218.02799999999991
 31
0.0
  0
LINE
  5
166
  8
0
 62
     7
 10
85.637299999999996
 20
218.02799999999991
 30
0.0
 11
84.452699999999979
 21
218.02799999999991
 31
0.0
  0
LINE
  5
167
  8
0
 62
     7
 10
85.622699999999995
 20
205.607
 30
0.0
 11
85.030499999999989
 21
207.81700000000001
 31
0.0
  0
LINE
  5
168
  8
0
 62
     7
 10
85.030499999999989
 20
207.81700000000001
 30
0.0
 11
84.438100000000006
 21
205.607
 31
0.0
  0
LINE
  5
169
  8
0
 62
     7
 10
84.438100000000006
 20
205.607
 30
0.0
 11
85.622699999999995
 21
205.607
 31
0.0
  0
LINE
  5
16A
  8
0
 62
     7
 10
85.037700000000015
 20
203.59999999999999
 30
0.0
 11
85.037700000000015
 21
219.75599999999989
 31
0.0
  0
LINE
  5
16B
  8
0
 62
     7
 10
85.738299999999995
 20
211.81700000000001
 30
0.0
 11
73.567700000000002
 21
211.81700000000001
 31
0.0
  0
LINE
  5
16C
  8
0
 62
     7
 10
42.879800000000003
 20
202.69399999999999
 30
0.0
 11
43.471999999999987
 21
200.48400000000001
 31
0.0
  0
LINE
  5
16D
  8
0
 62
     7
 10
43.471999999999987
 20
200.48400000000001
 30
0.0
 11
44.064399999999992
 21
202.69399999999999
 31
0.0
  0
LINE
  5
16E
  8
0
 62
     7
 10
44.064399999999992
 20
202.69399999999999
 30
0.0
 11
42.879800000000003
 21
202.69399999999999
 31
0.0
  0
LINE
  5
16F
  8
0
 62
     7
 10
44.049799999999998
 20
213.607
 30
0.0
 11
43.457599999999999
 21
215.81700000000001
 31
0.0
  0
LINE
  5
170
  8
0
 62
     7
 10
43.457599999999999
 20
215.81700000000001
 30
0.0
 11
42.865200000000002
 21
213.607
 31
0.0
  0
LINE
  5
171
  8
0
 62
     7
 10
42.865200000000002
 20
213.607
 30
0.0
 11
44.049799999999998
 21
213.607
 31
0.0
  0
LINE
  5
172
  8
0
 62
     7
 10
43.46479999999999
 20
200.48400000000001
 30
0.0
 11
43.46479999999999
 21
215.81700000000001
 31
0.0
  0
LINE
  5
173
  8
0
 62
     7
 10
63.776499999999999
 20
224.5629999999999
 30
0.0
 11
63.776499999999999
 21
217.89400000000001
 31
0.0
  0
LINE
  5
174
  8
0
 62
     7
 10
70.443200000000004
 20
224.5629999999999
 30
0.0
 11
70.443200000000004
 21
214.6509999999999
 31
0.0
  0
LINE
  5
175
  8
0
 62
     7
 10
57.109900000000003
 20
224.5629999999999
 30
0.0
 11
57.109900000000003
 21
214.6509999999999
 31
0.0
  0
LINE
  5
176
  8
0
  6
AIGENLINE002
 62
     7
 10
70.443200000000004
 20
214.095
 30
0.0
 11
70.443200000000004
 21
209.3709999999999
 31
0.0
  0
ARC
  5
177
  8
0
  6
AIGENLINE001
 62
     7
 10
57.065228000000012
 20
211.772347
 30
0.0
 40
1.2123429999999991
 50
2.119237
 51
87.889212000000001
  0
ARC
  5
178
  8
0
  6
AIGENLINE001
 62
     7
 10
57.109966999999997
 20
211.81726399999999
 30
0.0
 40
1.1666030000000001
 50
90.004230000000007
 51
180.0042399999999
  0
ARC
  5
179
  8
0
  6
AIGENLINE001
 62
     7
 10
57.109966999999997
 20
211.81709199999989
 30
0.0
 40
1.1666030000000001
 50
179.99574000000001
 51
269.99579
  0
ARC
  5
17A
  8
0
  6
AIGENLINE001
 62
     7
 10
57.065860000000001
 20
211.86137799999989
 30
0.0
 40
1.211689
 50
272.08204799999987
 51
357.90950299999992
  0
ARC
  5
17B
  8
0
  6
AIGENLINE001
 62
     7
 10
70.398521000000002
 20
211.772347
 30
0.0
 40
1.2123429999999991
 50
2.119237
 51
87.889212000000001
  0
ARC
  5
17C
  8
0
  6
AIGENLINE001
 62
     7
 10
70.443259999999995
 20
211.81726399999999
 30
0.0
 40
1.1666030000000001
 50
90.004230000000007
 51
180.0042399999999
  0
ARC
  5
17D
  8
0
  6
AIGENLINE001
 62
     7
 10
70.443259999999995
 20
211.81709199999989
 30
0.0
 40
1.1666030000000001
 50
179.99574000000001
 51
269.99579
  0
ARC
  5
17E
  8
0
  6
AIGENLINE001
 62
     7
 10
70.399152999999998
 20
211.86137799999989
 30
0.0
 40
1.211689
 50
272.08204799999987
 51
357.90950299999992
  0
ARC
  5
17F
  8
0
 62
     7
 10
63.731875000000002
 20
211.772347
 30
0.0
 40
1.2123429999999991
 50
2.119237
 51
87.889212000000001
  0
ARC
  5
180
  8
0
 62
     7
 10
63.776614000000002
 20
211.81726399999999
 30
0.0
 40
1.1666030000000001
 50
90.004230000000007
 51
180.0042399999999
  0
ARC
  5
181
  8
0
 62
     7
 10
63.77661299999999
 20
211.81709199999989
 30
0.0
 40
1.1666030000000001
 50
179.99574000000001
 51
269.99579
  0
ARC
  5
182
  8
0
 62
     7
 10
63.732506000000008
 20
211.86137799999989
 30
0.0
 40
1.211689
 50
272.08204799999987
 51
357.90950299999992
  0
LINE
  5
183
  8
0
  6
AIGENLINE002
 62
     7
 10
54.762900000000002
 20
211.81700000000001
 30
0.0
 11
72.733999999999995
 21
211.81700000000001
 31
0.0
  0
LINE
  5
184
  8
0
 62
     7
 10
42.764200000000002
 20
200.48400000000001
 30
0.0
 11
58.754899999999999
 21
200.48400000000001
 31
0.0
  0
LINE
  5
185
  8
0
 62
     7
 10
75.113200000000006
 20
195.61199999999999
 30
0.0
 11
68.648600000000002
 21
195.61199999999999
 31
0.0
  0
LINE
  5
186
  8
0
 62
     7
 10
66.842699999999994
 20
198.25499999999991
 30
0.0
 11
64.860900000000001
 21
199.39999999999989
 31
0.0
  0
LINE
  5
187
  8
0
 62
     7
 10
64.860900000000001
 20
199.39999999999989
 30
0.0
 11
66.004999999999995
 21
197.41800000000001
 31
0.0
  0
LINE
  5
188
  8
0
 62
     7
 10
66.004999999999995
 20
197.41800000000001
 30
0.0
 11
66.842699999999994
 21
198.25499999999991
 31
0.0
  0
LINE
  5
189
  8
0
 62
     7
 10
60.715899999999998
 20
202.71700000000001
 30
0.0
 11
62.697699999999998
 21
201.57300000000001
 31
0.0
  0
LINE
  5
18A
  8
0
 62
     7
 10
62.697699999999998
 20
201.57300000000001
 30
0.0
 11
61.553600000000003
 21
203.55500000000001
 31
0.0
  0
LINE
  5
18B
  8
0
 62
     7
 10
61.553600000000003
 20
203.55500000000001
 30
0.0
 11
60.715899999999998
 21
202.71700000000001
 31
0.0
  0
LINE
  5
18C
  8
0
 62
     7
 10
59.903199999999998
 20
204.35699999999991
 30
0.0
 11
68.648600000000002
 21
195.61199999999999
 31
0.0
  0
ARC
  5
18D
  8
0
 62
     7
 10
63.77661299999999
 20
200.48368999999991
 30
0.0
 40
1.533336
 50
0.003228
 51
90.003197999999983
  0
ARC
  5
18E
  8
0
 62
     7
 10
63.776614000000002
 20
200.48386199999999
 30
0.0
 40
1.533164
 50
90.003219000000016
 51
180.003229
  0
ARC
  5
18F
  8
0
 62
     7
 10
63.776699999999998
 20
200.48360400000001
 30
0.0
 40
1.5332490000000001
 50
179.99353300000001
 51
269.993583
  0
ARC
  5
190
  8
0
 62
     7
 10
63.776527000000002
 20
200.48377600000001
 30
0.0
 40
1.533421999999999
 50
270.00002000000001
 51
359.99998999999991
  0
ARC
  5
191
  8
0
 62
     7
 10
63.77661299999999
 20
200.48368899999991
 30
0.0
 40
2.6667799999999988
 50
0.00186
 51
90.001830999999996
  0
ARC
  5
192
  8
0
 62
     7
 10
63.776614000000002
 20
200.48386199999999
 30
0.0
 40
2.6666069999999991
 50
90.001850999999988
 51
180.00186099999999
  0
ARC
  5
193
  8
0
 62
     7
 10
63.77661299999999
 20
200.48368899999991
 30
0.0
 40
2.6666059999999998
 50
179.99811999999989
 51
269.99816900000002
  0
ARC
  5
194
  8
0
 62
     7
 10
63.77661299999999
 20
200.48386300000001
 30
0.0
 40
2.6667799999999988
 50
269.99816900000002
 51
359.99813999999992
  0
LINE
  5
195
  8
0
  6
AIGENLINE002
 62
     7
 10
59.381599999999992
 20
200.48400000000001
 30
0.0
 11
67.930000000000007
 21
200.48400000000001
 31
0.0
  0
LINE
  5
196
  8
0
 62
     7
 10
82.110099999999989
 20
185.81700000000001
 30
0.0
 11
82.110099999999989
 21
207.14999999999989
 31
0.0
  0
LINE
  5
197
  8
0
 62
     7
 10
46.109999999999992
 20
185.15000000000001
 30
0.0
 11
81.443399999999997
 21
185.15000000000001
 31
0.0
  0
ARC
  5
198
  8
0
 62
     7
 10
81.418386999999996
 20
185.84191899999999
 30
0.0
 40
0.692124
 50
272.0739089999999
 51
357.94090399999988
  0
LINE
  5
199
  8
0
 62
     7
 10
79.443200000000004
 20
188.48400000000001
 30
0.0
 11
79.443200000000004
 21
204.48400000000001
 31
0.0
  0
LINE
  5
19A
  8
0
 62
     7
 10
48.776499999999999
 20
187.81700000000001
 30
0.0
 11
78.776600000000002
 21
187.81700000000001
 31
0.0
  0
ARC
  5
19B
  8
0
 62
     7
 10
78.751633999999996
 20
188.508499
 30
0.0
 40
0.6920069999999999
 50
272.06489299999998
 51
357.94992000000002
  0
LINE
  5
19C
  8
0
 62
     7
 10
45.443300000000001
 20
185.81700000000001
 30
0.0
 11
45.443300000000001
 21
207.14999999999989
 31
0.0
  0
ARC
  5
19D
  8
0
 62
     7
 10
46.13552399999999
 20
185.84242900000001
 30
0.0
 40
0.692653
 50
182.09979199999989
 51
267.88543499999997
  0
LINE
  5
19E
  8
0
 62
     7
 10
48.109900000000003
 20
188.48400000000001
 30
0.0
 11
48.109900000000003
 21
204.48400000000001
 31
0.0
  0
ARC
  5
19F
  8
0
 62
     7
 10
48.802044000000002
 20
188.50912199999991
 30
0.0
 40
0.692653
 50
182.09979199999989
 51
267.88543499999997
  0
LINE
  5
1A0
  8
0
 62
     7
 10
46.109999999999992
 20
207.81700000000001
 30
0.0
 11
81.443399999999997
 21
207.81700000000001
 31
0.0
  0
ARC
  5
1A1
  8
0
 62
     7
 10
81.417876000000007
 20
207.125044
 30
0.0
 40
0.692653
 50
2.099788999999999
 51
87.885397999999995
  0
LINE
  5
1A2
  8
0
 62
     7
 10
48.776499999999999
 20
205.14999999999989
 30
0.0
 11
78.776600000000002
 21
205.14999999999989
 31
0.0
  0
ARC
  5
1A3
  8
0
 62
     7
 10
78.751009999999994
 20
204.45835099999991
 30
0.0
 40
0.692653
 50
2.099788999999999
 51
87.885397999999995
  0
ARC
  5
1A4
  8
0
 62
     7
 10
46.135356000000002
 20
207.125212
 30
0.0
 40
0.692479
 50
92.101173999999986
 51
177.9136
  0
ARC
  5
1A5
  8
0
 62
     7
 10
48.801890999999991
 20
204.458504
 30
0.0
 40
0.6924940000000001
 50
92.102373999999998
 51
177.91239999999991
  0
LINE
  5
1A6
  8
0
 62
     7
 10
45.443300000000001
 20
172.13499999999991
 30
0.0
 11
45.443300000000001
 21
181.42699999999999
 31
0.0
  0
LINE
  5
1A7
  8
0
 62
     7
 10
82.110099999999989
 20
172.13499999999991
 30
0.0
 11
82.110099999999989
 21
181.42699999999999
 31
0.0
  0
LINE
  5
1A8
  8
0
 62
     7
 10
90.443499999999986
 20
165.69
 30
0.0
 11
90.443499999999986
 21
181.42699999999999
 31
0.0
  0
LINE
  5
1A9
  8
0
 62
     7
 10
37.109900000000003
 20
165.69
 30
0.0
 11
37.109900000000003
 21
181.42699999999999
 31
0.0
  0
LINE
  5
1AA
  8
0
 62
     7
 10
84.320499999999996
 20
173.4199999999999
 30
0.0
 11
82.110099999999989
 21
172.82799999999989
 31
0.0
  0
LINE
  5
1AB
  8
0
 62
     7
 10
82.110099999999989
 20
172.82799999999989
 30
0.0
 11
84.320499999999996
 21
172.2359999999999
 31
0.0
  0
LINE
  5
1AC
  8
0
 62
     7
 10
84.320499999999996
 20
172.2359999999999
 30
0.0
 11
84.320499999999996
 21
173.4199999999999
 31
0.0
  0
LINE
  5
1AD
  8
0
 62
     7
 10
65.986900000000006
 20
224.40700000000001
 30
0.0
 11
63.776499999999999
 21
223.815
 31
0.0
  0
LINE
  5
1AE
  8
0
 62
     7
 10
63.776499999999999
 20
223.815
 30
0.0
 11
65.986900000000006
 21
223.2229999999999
 31
0.0
  0
LINE
  5
1AF
  8
0
 62
     7
 10
65.986900000000006
 20
223.2229999999999
 30
0.0
 11
65.986900000000006
 21
224.40700000000001
 31
0.0
  0
LINE
  5
1B0
  8
0
 62
     7
 10
59.32030000000001
 20
224.40700000000001
 30
0.0
 11
57.109900000000003
 21
223.815
 31
0.0
  0
LINE
  5
1B1
  8
0
 62
     7
 10
57.109900000000003
 20
223.815
 30
0.0
 11
59.32030000000001
 21
223.2229999999999
 31
0.0
  0
LINE
  5
1B2
  8
0
 62
     7
 10
59.32030000000001
 20
223.2229999999999
 30
0.0
 11
59.32030000000001
 21
224.40700000000001
 31
0.0
  0
LINE
  5
1B3
  8
0
 62
     7
 10
61.566000000000003
 20
223.23699999999991
 30
0.0
 11
63.776499999999999
 21
223.82900000000001
 31
0.0
  0
LINE
  5
1B4
  8
0
 62
     7
 10
63.776499999999999
 20
223.82900000000001
 30
0.0
 11
61.566000000000003
 21
224.42199999999991
 31
0.0
  0
LINE
  5
1B5
  8
0
 62
     7
 10
61.566000000000003
 20
224.42199999999991
 30
0.0
 11
61.566000000000003
 21
223.23699999999991
 31
0.0
  0
LINE
  5
1B6
  8
0
 62
     7
 10
68.232600000000005
 20
223.23699999999991
 30
0.0
 11
70.443200000000004
 21
223.82900000000001
 31
0.0
  0
LINE
  5
1B7
  8
0
 62
     7
 10
70.443200000000004
 20
223.82900000000001
 30
0.0
 11
68.232600000000005
 21
224.42199999999991
 31
0.0
  0
LINE
  5
1B8
  8
0
 62
     7
 10
68.232600000000005
 20
224.42199999999991
 30
0.0
 11
68.232600000000005
 21
223.23699999999991
 31
0.0
  0
LINE
  5
1B9
  8
0
 62
     7
 10
57.109900000000003
 20
223.822
 30
0.0
 11
70.443200000000004
 21
223.822
 31
0.0
  0
LINE
  5
1BA
  8
0
 62
     7
 10
47.653699999999994
 20
173.4199999999999
 30
0.0
 11
45.443300000000001
 21
172.82799999999989
 31
0.0
  0
LINE
  5
1BB
  8
0
 62
     7
 10
45.443300000000001
 20
172.82799999999989
 30
0.0
 11
47.653699999999994
 21
172.2359999999999
 31
0.0
  0
LINE
  5
1BC
  8
0
 62
     7
 10
47.653699999999994
 20
172.2359999999999
 30
0.0
 11
47.653699999999994
 21
173.4199999999999
 31
0.0
  0
LINE
  5
1BD
  8
0
 62
     7
 10
39.320500000000003
 20
173.4199999999999
 30
0.0
 11
37.110100000000003
 21
172.82799999999989
 31
0.0
  0
LINE
  5
1BE
  8
0
 62
     7
 10
37.110100000000003
 20
172.82799999999989
 30
0.0
 11
39.320500000000003
 21
172.2359999999999
 31
0.0
  0
LINE
  5
1BF
  8
0
 62
     7
 10
39.320500000000003
 20
172.2359999999999
 30
0.0
 11
39.320500000000003
 21
173.4199999999999
 31
0.0
  0
LINE
  5
1C0
  8
0
 62
     7
 10
43.23279999999999
 20
172.25
 30
0.0
 11
45.443300000000001
 21
172.84200000000001
 31
0.0
  0
LINE
  5
1C1
  8
0
 62
     7
 10
45.443300000000001
 20
172.84200000000001
 30
0.0
 11
43.23279999999999
 21
173.435
 31
0.0
  0
LINE
  5
1C2
  8
0
 62
     7
 10
43.23279999999999
 20
173.435
 30
0.0
 11
43.23279999999999
 21
172.25
 31
0.0
  0
LINE
  5
1C3
  8
0
 62
     7
 10
79.899500000000003
 20
172.25
 30
0.0
 11
82.110099999999989
 21
172.84200000000001
 31
0.0
  0
LINE
  5
1C4
  8
0
 62
     7
 10
82.110099999999989
 20
172.84200000000001
 30
0.0
 11
79.899500000000003
 21
173.435
 31
0.0
  0
LINE
  5
1C5
  8
0
 62
     7
 10
79.899500000000003
 20
173.435
 30
0.0
 11
79.899500000000003
 21
172.25
 31
0.0
  0
LINE
  5
1C6
  8
0
 62
     7
 10
88.232900000000001
 20
172.25
 30
0.0
 11
90.443499999999986
 21
172.84200000000001
 31
0.0
  0
LINE
  5
1C7
  8
0
 62
     7
 10
90.443499999999986
 20
172.84200000000001
 30
0.0
 11
88.232900000000001
 21
173.435
 31
0.0
  0
LINE
  5
1C8
  8
0
 62
     7
 10
88.232900000000001
 20
173.435
 30
0.0
 11
88.232900000000001
 21
172.25
 31
0.0
  0
LINE
  5
1C9
  8
0
 62
     7
 10
37.109900000000003
 20
172.83500000000001
 30
0.0
 11
90.443499999999986
 21
172.83500000000001
 31
0.0
  0
LINE
  5
1CA
  8
0
 62
     7
 10
39.320500000000003
 20
167.185
 30
0.0
 11
37.110100000000003
 21
166.5929999999999
 31
0.0
  0
LINE
  5
1CB
  8
0
 62
     7
 10
37.110100000000003
 20
166.5929999999999
 30
0.0
 11
39.320500000000003
 21
166.0
 31
0.0
  0
LINE
  5
1CC
  8
0
 62
     7
 10
39.320500000000003
 20
166.0
 30
0.0
 11
39.320500000000003
 21
167.185
 31
0.0
  0
LINE
  5
1CD
  8
0
 62
     7
 10
88.232900000000001
 20
166.0149999999999
 30
0.0
 11
90.443499999999986
 21
166.60699999999991
 31
0.0
  0
LINE
  5
1CE
  8
0
 62
     7
 10
90.443499999999986
 20
166.60699999999991
 30
0.0
 11
88.232900000000001
 21
167.19900000000001
 31
0.0
  0
LINE
  5
1CF
  8
0
 62
     7
 10
88.232900000000001
 20
167.19900000000001
 30
0.0
 11
88.232900000000001
 21
166.0149999999999
 31
0.0
  0
LINE
  5
1D0
  8
0
 62
     7
 10
37.109900000000003
 20
166.59999999999991
 30
0.0
 11
90.443499999999986
 21
166.59999999999991
 31
0.0
  0
LINE
  5
1D1
  8
0
  6
AIGENLINE002
 62
     7
 10
57.109900000000003
 20
214.095
 30
0.0
 11
57.109900000000003
 21
209.3709999999999
 31
0.0
  0
LINE
  5
1D2
  8
0
  6
AIGENLINE002
 62
     7
 10
63.776499999999999
 20
217.24499999999989
 30
0.0
 11
63.776499999999999
 21
179.375
 31
0.0
  0
LINE
  5
1D3
  8
0
 62
     7
 10
90.443499999999986
 20
215.81700000000001
 30
0.0
 11
90.443499999999986
 21
183.15000000000001
 31
0.0
  0
LINE
  5
1D4
  8
0
 62
     7
 10
37.776600000000002
 20
182.48400000000001
 30
0.0
 11
89.776799999999994
 21
182.48400000000001
 31
0.0
  0
ARC
  5
1D5
  8
0
 62
     7
 10
89.751893999999993
 20
183.1751129999999
 30
0.0
 40
0.6920069999999999
 50
272.06489299999998
 51
357.94992000000002
  0
LINE
  5
1D6
  8
0
 62
     7
 10
37.109900000000003
 20
215.81700000000001
 30
0.0
 11
37.109900000000003
 21
183.15000000000001
 31
0.0
  0
ARC
  5
1D7
  8
0
 62
     7
 10
37.802326999999998
 20
183.1759339999999
 30
0.0
 40
0.692857
 50
182.115521
 51
267.86970600000001
  0
LINE
  5
1D8
  8
0
 62
     7
 10
37.109900000000003
 20
215.81700000000001
 30
0.0
 11
90.443499999999986
 21
215.81700000000001
 31
0.0
  0
LINE
  5
1D9
  8
_________2
 62
     7
 10
210.24000000000001
 20
148.93100000000001
 30
0.0
 11
188.49000000000001
 21
148.93100000000001
 31
0.0
  0
LINE
  5
1DA
  8
_________2
 62
     7
 10
105.2389999999999
 20
17.428499999999989
 30
0.0
 11
105.2389999999999
 21
0.4482100000000001
 31
0.0
  0
LINE
  5
1DB
  8
_________2
 62
     7
 10
105.2389999999999
 20
297.44999999999987
 30
0.0
 11
105.2389999999999
 21
280.42999999999989
 31
0.0
  0
LINE
  5
1DC
  8
_________2
 62
     7
 10
21.988499999999991
 20
148.93100000000001
 30
0.0
 11
0.238058
 21
148.93100000000001
 31
0.0
  0
LINE
  5
1DD
  8
_________2
 62
     7
 10
81.679900000000004
 20
51.324300000000001
 30
0.0
 11
79.493700000000004
 21
51.324300000000001
 31
0.0
  0
LINE
  5
1DE
  8
_________2
 62
     7
 10
82.172600000000017
 20
51.324300000000001
 30
0.0
 11
81.920400000000001
 21
51.324300000000001
 31
0.0
  0
LINE
  5
1DF
  8
_________2
 62
     7
 10
82.665199999999984
 20
51.324300000000001
 30
0.0
 11
85.590100000000007
 21
51.324300000000001
 31
0.0
  0
LINE
  5
1E0
  8
_________2
 62
     7
 10
82.172600000000017
 20
51.324300000000001
 30
0.0
 11
82.424800000000005
 21
51.324300000000001
 31
0.0
  0
LINE
  5
1E1
  8
_________2
 62
     7
 10
75.776399999999995
 20
51.324300000000001
 30
0.0
 11
73.589399999999998
 21
51.324300000000001
 31
0.0
  0
LINE
  5
1E2
  8
_________2
 62
     7
 10
76.2684
 20
51.324300000000001
 30
0.0
 11
76.016900000000007
 21
51.324300000000001
 31
0.0
  0
LINE
  5
1E3
  8
_________2
 62
     7
 10
76.2684
 20
51.817
 30
0.0
 11
76.2684
 21
54.003900000000002
 31
0.0
  0
LINE
  5
1E4
  8
_________2
 62
     7
 10
76.2684
 20
51.324300000000001
 30
0.0
 11
76.2684
 21
51.576500000000003
 31
0.0
  0
LINE
  5
1E5
  8
_________2
 62
     7
 10
76.76100000000001
 20
51.324300000000001
 30
0.0
 11
78.947999999999993
 21
51.324300000000001
 31
0.0
  0
LINE
  5
1E6
  8
_________2
 62
     7
 10
76.2684
 20
51.324300000000001
 30
0.0
 11
76.520499999999998
 21
51.324300000000001
 31
0.0
  0
LINE
  5
1E7
  8
_________2
 62
     7
 10
76.2684
 20
50.832399999999993
 30
0.0
 11
76.2684
 21
48.645400000000002
 31
0.0
  0
LINE
  5
1E8
  8
_________2
 62
     7
 10
76.2684
 20
51.324300000000001
 30
0.0
 11
76.2684
 21
51.072800000000001
 31
0.0
  0
LINE
  5
1E9
  8
_________2
 62
     7
 10
79.979399999999984
 20
50.104799999999997
 30
0.0
 11
85.157399999999996
 21
49.240000000000002
 31
0.0
  0
LINE
  5
1EA
  8
_________2
 62
     7
 10
79.979399999999984
 20
52.543900000000001
 30
0.0
 11
85.157399999999996
 21
53.409300000000002
 31
0.0
  0
LINE
  5
1EB
  8
_________2
 62
     7
 10
85.157399999999996
 20
49.240000000000002
 30
0.0
 11
85.157399999999996
 21
53.409300000000002
 31
0.0
  0
LINE
  5
1EC
  8
_________2
 62
     7
 10
79.979399999999984
 20
50.104799999999997
 30
0.0
 11
79.979399999999984
 21
52.543900000000001
 31
0.0
  0
ARC
  5
1ED
  8
_________2
 62
     7
 10
76.222110000000001
 20
51.277366999999991
 30
0.0
 40
1.2673709999999989
 50
2.1232950000000002
 51
87.909056000000007
  0
ARC
  5
1EE
  8
_________2
 62
     7
 10
76.315273000000005
 20
51.277400999999998
 30
0.0
 40
1.267363
 50
92.121785999999986
 51
177.878185
  0
ARC
  5
1EF
  8
_________2
 62
     7
 10
76.315273000000005
 20
51.371245999999992
 30
0.0
 40
1.267363
 50
182.12181499999991
 51
267.87821400000001
  0
ARC
  5
1F0
  8
_________2
 62
     7
 10
76.221461000000005
 20
51.371928999999987
 30
0.0
 40
1.2680439999999991
 50
272.11916400000001
 51
357.84848499999993
  0
ARC
  5
1F1
  8
_________2
 62
     7
 10
76.268349999999984
 20
51.324323
 30
0.0
 40
2.0849849999999992
 50
0.00001
 51
89.999980000000008
  0
ARC
  5
1F2
  8
_________2
 62
     7
 10
76.348388
 20
51.245001999999992
 30
0.0
 40
2.1657860000000002
 50
92.117855000000034
 51
177.90105299999991
  0
ARC
  5
1F3
  8
_________2
 62
     7
 10
76.348354
 20
51.404327000000002
 30
0.0
 40
2.1657779999999991
 50
182.11700400000001
 51
267.88302499999992
  0
ARC
  5
1F4
  8
_________2
 62
     7
 10
76.188378999999983
 20
51.405009999999997
 30
0.0
 40
2.1664590000000001
 50
272.11546800000002
 51
357.86560400000002
  0
TEXT
  5
1F5
  8
_________2
 62
     7
 10
109.5439999999999
 20
23.199100000000001
 30
0.0
 40
3.0923400000000001
  1
図番
 41
0.5
  0
LINE
  5
1F6
  8
_________2
 62
     7
 10
108.4889999999999
 20
27.4283
 30
0.0
 11
188.49000000000001
 21
27.4283
 31
0.0
  0
TEXT
  5
1F7
  8
_________2
 62
     7
 10
109.5439999999999
 20
33.198900000000002
 30
0.0
 40
3.0923400000000001
  1
品番
 41
0.5
  0
TEXT
  5
1F8
  8
_________2
 62
     7
 10
109.5439999999999
 20
53.337699999999998
 30
0.0
 40
3.0923400000000001
  1
名称
 41
0.5
  0
TEXT
  5
1F9
  8
_________2
 62
     7
 10
96.784058333333334
 20
48.341500000000011
 30
0.0
 40
3.6545800000000002
  1
mm
 41
0.5
 72
     1
 11
98.306799999999996
 21
48.341500000000011
 31
0.0
  0
TEXT
  5
1FA
  8
_________2
 62
     7
 10
90.582099999999997
 20
53.337699999999998
 30
0.0
 40
3.0923400000000001
  1
単位
 41
0.5
  0
TEXT
  5
1FB
  8
_________2
 62
     7
 10
90.582099999999997
 20
40.930399999999999
 30
0.0
 40
3.0923400000000001
  1
尺度
 41
0.5
  0
TEXT
  5
1FC
  8
_________2
 62
     7
 10
94.878562000000016
 20
34.73749999999999
 30
0.0
 40
3.6545800000000002
  1
1 ： 15
 41
0.5
 72
     1
 11
98.898600000000002
 21
34.73749999999999
 31
0.0
  0
TEXT
  5
1FD
  8
_________2
 62
     7
 10
138.64975000000001
 20
30.627400000000002
 30
0.0
 40
3.9357000000000002
  1
DV049180-00
 41
0.5
 72
     1
 11
148.489
 21
30.627400000000002
 31
0.0
  0
TEXT
  5
1FE
  8
_________2
 62
     7
 10
141.27354999999989
 20
20.626999999999988
 30
0.0
 40
3.9357000000000002
  1
DV049180
 41
0.5
 72
     1
 11
148.489
 21
20.626999999999988
 31
0.0
  0
TEXT
  5
1FF
  8
_________2
 62
     7
 10
29.525700000000001
 20
22.226900000000001
 30
0.0
 40
3.9357000000000002
  1
実容量：3.0L、重量：22kg、オーバーフロー付
 41
0.5
  0
TEXT
  5
200
  8
_________2
 62
     7
 10
25.539200000000001
 20
61.466700000000003
 30
0.0
 40
4.2168199999999993
  1
・壁取付部には厚さ30mm以上の補強を入れてください。
 41
0.5
  0
TEXT
  5
201
  8
_________2
 62
     7
 10
114.11799999999999
 20
45.7453
 30
0.0
 40
3.9357000000000002
  1
セカンドフロア 洗面器
 41
0.5
  0
TEXT
  5
202
  8
_________2
 62
     7
 10
44.303290666666669
 20
35.122599999999991
 30
0.0
 40
3.6545800000000002
  1
高橋
 41
0.5
 72
     1
 11
46.252400000000002
 21
35.122599999999991
 31
0.0
  0
TEXT
  5
203
  8
_________2
 62
     7
 10
25.72929066666666
 20
35.122599999999991
 30
0.0
 40
3.6545800000000002
  1
石原
 41
0.5
 72
     1
 11
27.6784
 21
35.122599999999991
 31
0.0
  0
TEXT
  5
204
  8
_________2
 62
     7
 10
72.724699999999999
 20
34.73749999999999
 30
0.0
 40
3.6545800000000002
  1
06.07.20
 41
0.5
  0
TEXT
  5
205
  8
_________2
 62
     7
 10
71.531999999999996
 20
40.930399999999999
 30
0.0
 40
3.0923400000000001
  1
日付
 41
0.5
  0
TEXT
  5
206
  8
_________2
 62
     7
 10
34.578299999999992
 20
40.930399999999999
 30
0.0
 40
3.0923400000000001
  1
検図
 41
0.5
  0
TEXT
  5
207
  8
_________2
 62
     7
 10
22.960000000000001
 20
26.730999999999991
 30
0.0
 40
3.0923400000000001
  1
備考
 41
0.5
  0
TEXT
  5
208
  8
_________2
 62
     7
 10
22.960000000000001
 20
40.930399999999999
 30
0.0
 40
3.0923400000000001
  1
製図
 41
0.5
  0
TEXT
  5
209
  8
_________2
 62
     7
 10
28.727365333333339
 20
49.456400000000002
 30
0.0
 40
4.4979399999999989
  1
セラトレーディング株式会社
 41
0.5
 72
     1
 11
46.119399999999992
 21
49.456400000000002
 31
0.0
  0
LINE
  5
20A
  8
_________2
 62
     7
 10
188.49000000000001
 20
17.428499999999989
 30
0.0
 11
21.988499999999991
 21
17.428499999999989
 31
0.0
  0
LINE
  5
20B
  8
_________2
 62
     7
 10
21.988499999999991
 20
17.428499999999989
 30
0.0
 11
21.988499999999991
 21
280.42999999999989
 31
0.0
  0
LINE
  5
20C
  8
_________2
 62
     7
 10
21.988499999999991
 20
280.42999999999989
 30
0.0
 11
188.49000000000001
 21
280.42999999999989
 31
0.0
  0
LINE
  5
20D
  8
_________2
 62
     7
 10
188.49000000000001
 20
280.42999999999989
 30
0.0
 11
188.49000000000001
 21
17.428499999999989
 31
0.0
  0
LINE
  5
20E
  8
_________2
 62
     7
 10
70.488799999999998
 20
30.9285
 30
0.0
 11
70.488799999999998
 21
57.428400000000011
 31
0.0
  0
LINE
  5
20F
  8
_________2
 62
     7
 10
89.488600000000005
 20
30.9285
 30
0.0
 11
89.488600000000005
 21
57.428400000000011
 31
0.0
  0
LINE
  5
210
  8
_________2
 62
     7
 10
108.4889999999999
 20
17.428499999999989
 30
0.0
 11
108.4889999999999
 21
57.428400000000011
 31
0.0
  0
LINE
  5
211
  8
_________2
 62
     7
 10
33.488300000000002
 20
30.9285
 30
0.0
 11
33.488300000000002
 21
44.928800000000003
 31
0.0
  0
LINE
  5
212
  8
_________2
 62
     7
 10
21.988499999999991
 20
30.9285
 30
0.0
 11
108.4889999999999
 21
30.9285
 31
0.0
  0
LINE
  5
213
  8
_________2
 62
     7
 10
21.988499999999991
 20
44.928800000000003
 30
0.0
 11
108.4889999999999
 21
44.928800000000003
 31
0.0
  0
LINE
  5
214
  8
_________2
 62
     7
 10
108.4889999999999
 20
37.428100000000001
 30
0.0
 11
188.49000000000001
 21
37.428100000000001
 31
0.0
  0
LINE
  5
215
  8
_________2
 62
     7
 10
21.988499999999991
 20
57.428400000000011
 30
0.0
 11
188.49000000000001
 21
57.428400000000011
 31
0.0
  0
ENDSEC
  0
EOF
