  0
SECTION
  2
HEADER
  9
$ACADVER
  1
AC1015
  9
$ACADMAINTVER
 70
     6
  9
$DWGCODEPAGE
  3
ANSI_932
  9
$INSBASE
 10
0.0
 20
0.0
 30
0.0
  9
$EXTMIN
 10
0.238058
 20
0.4482100000000001
 30
0.0
  9
$EXTMAX
 10
210.24
 20
297.4499999999999
 30
0.0
  9
$LIMMIN
 10
0.0
 20
0.0
  9
$LIMMAX
 10
12.0
 20
9.0
  9
$ORTHOMODE
 70
     0
  9
$REGENMODE
 70
     1
  9
$FILLMODE
 70
     1
  9
$QTEXTMODE
 70
     0
  9
$MIRRTEXT
 70
     1
  9
$LTSCALE
 40
1.0
  9
$ATTMODE
 70
     1
  9
$TEXTSIZE
 40
0.0
  9
$TRACEWID
 40
0.05
  9
$TEXTSTYLE
  7
STANDARD
  9
$CLAYER
  8
0
  9
$CELTYPE
  6
CONTINUOUS
  9
$CECOLOR
 62
   256
  9
$CELTSCALE
 40
1.0
  9
$DISPSILH
 70
     0
  9
$DIMSCALE
 40
1.0
  9
$DIMASZ
 40
0.18
  9
$DIMEXO
 40
0.0625
  9
$DIMDLI
 40
0.38
  9
$DIMRND
 40
0.0
  9
$DIMDLE
 40
0.0
  9
$DIMEXE
 40
0.18
  9
$DIMTP
 40
0.0
  9
$DIMTM
 40
0.0
  9
$DIMTXT
 40
0.18
  9
$DIMCEN
 40
0.09
  9
$DIMTSZ
 40
0.0
  9
$DIMTOL
 70
     0
  9
$DIMLIM
 70
     0
  9
$DIMTIH
 70
     1
  9
$DIMTOH
 70
     1
  9
$DIMSE1
 70
     0
  9
$DIMSE2
 70
     0
  9
$DIMTAD
 70
     0
  9
$DIMZIN
 70
     0
  9
$DIMBLK
  1

  9
$DIMASO
 70
     1
  9
$DIMSHO
 70
     1
  9
$DIMPOST
  1

  9
$DIMAPOST
  1

  9
$DIMALT
 70
     0
  9
$DIMALTD
 70
     2
  9
$DIMALTF
 40
25.4
  9
$DIMLFAC
 40
1.0
  9
$DIMTOFL
 70
     0
  9
$DIMTVP
 40
0.0
  9
$DIMTIX
 70
     0
  9
$DIMSOXD
 70
     0
  9
$DIMSAH
 70
     0
  9
$DIMBLK1
  1

  9
$DIMBLK2
  1

  9
$DIMSTYLE
  2
STANDARD
  9
$DIMCLRD
 70
     0
  9
$DIMCLRE
 70
     0
  9
$DIMCLRT
 70
     0
  9
$DIMTFAC
 40
1.0
  9
$DIMGAP
 40
0.09
  9
$DIMJUST
 70
     0
  9
$DIMSD1
 70
     0
  9
$DIMSD2
 70
     0
  9
$DIMTOLJ
 70
     1
  9
$DIMTZIN
 70
     0
  9
$DIMALTZ
 70
     0
  9
$DIMALTTZ
 70
     0
  9
$DIMUPT
 70
     0
  9
$DIMDEC
 70
     4
  9
$DIMTDEC
 70
     4
  9
$DIMALTU
 70
     2
  9
$DIMALTTD
 70
     2
  9
$DIMTXSTY
  7
STANDARD
  9
$DIMAUNIT
 70
     0
  9
$DIMADEC
 70
     0
  9
$DIMALTRND
 40
0.0
  9
$DIMAZIN
 70
     0
  9
$DIMDSEP
 70
    46
  9
$DIMATFIT
 70
     3
  9
$DIMFRAC
 70
     0
  9
$DIMLDRBLK
  1

  9
$DIMLUNIT
 70
     2
  9
$DIMLWD
 70
    -2
  9
$DIMLWE
 70
    -2
  9
$DIMTMOVE
 70
     0
  9
$LUNITS
 70
     2
  9
$LUPREC
 70
     4
  9
$SKETCHINC
 40
0.1
  9
$FILLETRAD
 40
0.0
  9
$AUNITS
 70
     0
  9
$AUPREC
 70
     0
  9
$MENU
  1
.
  9
$ELEVATION
 40
0.0
  9
$PELEVATION
 40
0.0
  9
$THICKNESS
 40
0.0
  9
$LIMCHECK
 70
     0
  9
$CHAMFERA
 40
0.0
  9
$CHAMFERB
 40
0.0
  9
$CHAMFERC
 40
0.0
  9
$CHAMFERD
 40
0.0
  9
$SKPOLY
 70
     0
  9
$TDCREATE
 40
2444972.375000000
  9
$TDUCREATE
 40
2444972.000000000
  9
$TDUPDATE
 40
2454568.729027939
  9
$TDUUPDATE
 40
2454568.354027940
  9
$TDINDWG
 40
0.0046615509
  9
$TDUSRTIMER
 40
0.0046615509
  9
$USRTIMER
 70
     1
  9
$ANGBASE
 50
0.0
  9
$ANGDIR
 70
     0
  9
$PDMODE
 70
     0
  9
$PDSIZE
 40
0.0
  9
$PLINEWID
 40
0.0
  9
$SPLFRAME
 70
     0
  9
$SPLINETYPE
 70
     6
  9
$SPLINESEGS
 70
     8
  9
$HANDSEED
  5
17F
  9
$SURFTAB1
 70
     6
  9
$SURFTAB2
 70
     6
  9
$SURFTYPE
 70
     6
  9
$SURFU
 70
     6
  9
$SURFV
 70
     6
  9
$UCSBASE
  2

  9
$UCSNAME
  2

  9
$UCSORG
 10
0.0
 20
0.0
 30
0.0
  9
$UCSXDIR
 10
1.0
 20
0.0
 30
0.0
  9
$UCSYDIR
 10
0.0
 20
1.0
 30
0.0
  9
$UCSORTHOREF
  2

  9
$UCSORTHOVIEW
 70
     0
  9
$UCSORGTOP
 10
0.0
 20
0.0
 30
0.0
  9
$UCSORGBOTTOM
 10
0.0
 20
0.0
 30
0.0
  9
$UCSORGLEFT
 10
0.0
 20
0.0
 30
0.0
  9
$UCSORGRIGHT
 10
0.0
 20
0.0
 30
0.0
  9
$UCSORGFRONT
 10
0.0
 20
0.0
 30
0.0
  9
$UCSORGBACK
 10
0.0
 20
0.0
 30
0.0
  9
$PUCSBASE
  2

  9
$PUCSNAME
  2

  9
$PUCSORG
 10
0.0
 20
0.0
 30
0.0
  9
$PUCSXDIR
 10
1.0
 20
0.0
 30
0.0
  9
$PUCSYDIR
 10
0.0
 20
1.0
 30
0.0
  9
$PUCSORTHOREF
  2

  9
$PUCSORTHOVIEW
 70
     0
  9
$PUCSORGTOP
 10
0.0
 20
0.0
 30
0.0
  9
$PUCSORGBOTTOM
 10
0.0
 20
0.0
 30
0.0
  9
$PUCSORGLEFT
 10
0.0
 20
0.0
 30
0.0
  9
$PUCSORGRIGHT
 10
0.0
 20
0.0
 30
0.0
  9
$PUCSORGFRONT
 10
0.0
 20
0.0
 30
0.0
  9
$PUCSORGBACK
 10
0.0
 20
0.0
 30
0.0
  9
$USERI1
 70
     0
  9
$USERI2
 70
     0
  9
$USERI3
 70
     0
  9
$USERI4
 70
     0
  9
$USERI5
 70
     0
  9
$USERR1
 40
0.0
  9
$USERR2
 40
0.0
  9
$USERR3
 40
0.0
  9
$USERR4
 40
0.0
  9
$USERR5
 40
0.0
  9
$WORLDVIEW
 70
     1
  9
$SHADEDGE
 70
     3
  9
$SHADEDIF
 70
    70
  9
$TILEMODE
 70
     1
  9
$MAXACTVP
 70
    48
  9
$PINSBASE
 10
0.0
 20
0.0
 30
0.0
  9
$PLIMCHECK
 70
     0
  9
$PEXTMIN
 10
1.000000000000000E+20
 20
1.000000000000000E+20
 30
1.000000000000000E+20
  9
$PEXTMAX
 10
-1.000000000000000E+20
 20
-1.000000000000000E+20
 30
-1.000000000000000E+20
  9
$PLIMMIN
 10
0.0
 20
0.0
  9
$PLIMMAX
 10
12.0
 20
9.0
  9
$UNITMODE
 70
     0
  9
$VISRETAIN
 70
     1
  9
$PLINEGEN
 70
     0
  9
$PSLTSCALE
 70
     1
  9
$TREEDEPTH
 70
  3020
  9
$CMLSTYLE
  2
STANDARD
  9
$CMLJUST
 70
     0
  9
$CMLSCALE
 40
1.0
  9
$PROXYGRAPHICS
 70
     1
  9
$MEASUREMENT
 70
     0
  9
$CELWEIGHT
370
    -1
  9
$ENDCAPS
280
     0
  9
$JOINSTYLE
280
     0
  9
$LWDISPLAY
290
     0
  9
$INSUNITS
 70
     0
  9
$HYPERLINKBASE
  1

  9
$STYLESHEET
  1

  9
$XEDIT
290
     1
  9
$CEPSNTYPE
380
     0
  9
$PSTYLEMODE
290
     1
  9
$FINGERPRINTGUID
  2
{58DC7CA2-300A-41F0-8A0A-3582B209DDD8}
  9
$VERSIONGUID
  2
{0982D7B2-9E7D-4E90-A0BB-A41DCF131F2E}
  9
$EXTNAMES
290
     1
  9
$PSVPSCALE
 40
0.0
  9
$OLESTARTUP
290
     0
  0
ENDSEC
  0
SECTION
  2
CLASSES
  0
CLASS
  1
ACDBDICTIONARYWDFLT
  2
AcDbDictionaryWithDefault
  3
AutoCAD 2000
 90
        0
280
     0
281
     0
  0
CLASS
  1
ACDBPLACEHOLDER
  2
AcDbPlaceHolder
  3
AutoCAD 2000
 90
        0
280
     0
281
     0
  0
CLASS
  1
LAYOUT
  2
AcDbLayout
  3
AutoCAD 2000
 90
        0
280
     0
281
     0
  0
ENDSEC
  0
SECTION
  2
TABLES
  0
TABLE
  2
VPORT
  5
8
330
0
100
AcDbSymbolTable
 70
     2
  0
VPORT
  5
17E
330
8
100
AcDbSymbolTableRecord
100
AcDbViewportTableRecord
  2
*Active
 70
     0
 10
0.0
 20
0.0
 11
1.0
 21
1.0
 12
148.7388614168841
 22
150.7387264107228
 13
0.0
 23
0.0
 14
1.0
 24
1.0
 15
0.0
 25
0.0
 16
0.0
 26
0.0
 36
1.0
 17
0.0
 27
0.0
 37
0.0
 40
303.8595835937101
 41
1.919607843137254
 42
50.0
 43
0.0
 44
0.0
 50
0.0
 51
0.0
 71
     0
 72
   100
 73
     1
 74
     1
 75
     0
 76
     0
 77
     0
 78
     0
281
     0
 65
     1
110
0.0
120
0.0
130
0.0
111
1.0
121
0.0
131
0.0
112
0.0
122
1.0
132
0.0
 79
     0
146
0.0
  0
ENDTAB
  0
TABLE
  2
LTYPE
  5
5
330
0
100
AcDbSymbolTable
 70
     3
  0
LTYPE
  5
12
330
5
100
AcDbSymbolTableRecord
100
AcDbLinetypeTableRecord
  2
BYBLOCK
 70
     0
  3

 72
    65
 73
     0
 40
0.0
  0
LTYPE
  5
13
330
5
100
AcDbSymbolTableRecord
100
AcDbLinetypeTableRecord
  2
BYLAYER
 70
     0
  3

 72
    65
 73
     0
 40
0.0
  0
LTYPE
  5
14
330
5
100
AcDbSymbolTableRecord
100
AcDbLinetypeTableRecord
  2
CONTINUOUS
 70
     0
  3
Solid line
 72
    65
 73
     0
 40
0.0
  0
LTYPE
  5
1F
330
5
100
AcDbSymbolTableRecord
100
AcDbLinetypeTableRecord
  2
AIGENLINE001
 70
     0
  3
generate AI->DXF Converter
 72
    65
 73
     4
 40
5.856144999999999
 49
3.5278
 74
     0
 49
-0.776115
 74
     0
 49
0.776115
 74
     0
 49
-0.776115
 74
     0
  0
LTYPE
  5
20
330
5
100
AcDbSymbolTableRecord
100
AcDbLinetypeTableRecord
  2
AIGENLINE002
 70
     0
  3
generate AI->DXF Converter
 72
    65
 73
     2
 40
1.552229999999999
 49
0.776115
 74
     0
 49
-0.776115
 74
     0
  0
ENDTAB
  0
TABLE
  2
LAYER
  5
2
330
0
100
AcDbSymbolTable
 70
     2
  0
LAYER
  5
E
330
2
100
AcDbSymbolTableRecord
100
AcDbLayerTableRecord
  2
0
 70
     0
 62
     7
  6
CONTINUOUS
370
    -3
390
164
  0
LAYER
  5
21
330
2
100
AcDbSymbolTableRecord
100
AcDbLayerTableRecord
  2
_________2
 70
     0
 62
     7
  6
CONTINUOUS
370
    -3
390
164
  0
ENDTAB
  0
TABLE
  2
STYLE
  5
3
330
0
100
AcDbSymbolTable
 70
     1
  0
STYLE
  5
F
330
3
100
AcDbSymbolTableRecord
100
AcDbTextStyleTableRecord
  2
STANDARD
 70
     0
 40
0.0
 41
0.0
 50
0.0
 71
     0
 42
0.0
  3
TXT
  4
BIGFONT
  0
ENDTAB
  0
TABLE
  2
VIEW
  5
6
330
0
100
AcDbSymbolTable
 70
     0
  0
ENDTAB
  0
TABLE
  2
UCS
  5
7
330
0
100
AcDbSymbolTable
 70
     0
  0
ENDTAB
  0
TABLE
  2
APPID
  5
9
330
0
100
AcDbSymbolTable
 70
     1
  0
APPID
  5
10
330
9
100
AcDbSymbolTableRecord
100
AcDbRegAppTableRecord
  2
ACAD
 70
     0
  0
ENDTAB
  0
TABLE
  2
DIMSTYLE
  5
A
330
0
100
AcDbSymbolTable
 70
     1
100
AcDbDimStyleTable
 71
     0
  0
DIMSTYLE
105
160
330
A
100
AcDbSymbolTableRecord
100
AcDbDimStyleTableRecord
  2
STANDARD
 70
     0
340
F
  0
ENDTAB
  0
TABLE
  2
BLOCK_RECORD
  5
1
330
0
100
AcDbSymbolTable
 70
     0
  0
BLOCK_RECORD
  5
18
330
1
100
AcDbSymbolTableRecord
100
AcDbBlockTableRecord
  2
*MODEL_SPACE
340
167
  0
BLOCK_RECORD
  5
15
330
1
100
AcDbSymbolTableRecord
100
AcDbBlockTableRecord
  2
*PAPER_SPACE
340
168
  0
ENDTAB
  0
ENDSEC
  0
SECTION
  2
BLOCKS
  0
BLOCK
  5
19
330
18
100
AcDbEntity
  8
0
100
AcDbBlockBegin
  2
*MODEL_SPACE
 70
     0
 10
0.0
 20
0.0
 30
0.0
  3
*MODEL_SPACE
  1

  0
ENDBLK
  5
1A
330
18
100
AcDbEntity
  8
0
100
AcDbBlockEnd
  0
BLOCK
  5
16
330
15
100
AcDbEntity
 67
     1
  8
0
100
AcDbBlockBegin
  2
*PAPER_SPACE
 70
     0
 10
0.0
 20
0.0
 30
0.0
  3
*PAPER_SPACE
  1

  0
ENDBLK
  5
17
330
15
100
AcDbEntity
 67
     1
  8
0
100
AcDbBlockEnd
  0
ENDSEC
  0
SECTION
  2
ENTITIES
  0
TEXT
  5
23
330
18
100
AcDbEntity
  8
0
100
AcDbText
 10
100.7364399999999
 20
213.8079999999999
 30
0.0
 40
3.09234
  1
%%c35
 41
0.5
 72
     1
 11
102.7979999999999
 21
213.8079999999999
 31
0.0
100
AcDbText
  0
TEXT
  5
24
330
18
100
AcDbEntity
  8
0
100
AcDbText
 10
88.51604
 20
202.819
 30
0.0
 40
3.09234
  1
%%c46
 41
0.5
 72
     1
 11
90.5776
 21
202.819
 31
0.0
100
AcDbText
  0
TEXT
  5
25
330
18
100
AcDbEntity
  8
0
100
AcDbText
 10
160.927135
 20
102.705
 30
0.0
 40
3.09234
  1
125
 41
0.5
 72
     1
 11
162.731
 21
102.705
 31
0.0
100
AcDbText
  0
TEXT
  5
26
330
18
100
AcDbEntity
  8
0
100
AcDbText
 10
106.208525
 20
183.8619999999999
 30
0.0
 40
3.09234
  1
65
 41
0.5
 72
     1
 11
107.497
 21
183.8619999999999
 31
0.0
100
AcDbText
  0
TEXT
  5
27
330
18
100
AcDbEntity
  8
0
100
AcDbText
 10
99.22752500000001
 20
183.8619999999999
 30
0.0
 40
3.09234
  1
45
 41
0.5
 72
     1
 11
100.516
 21
183.8619999999999
 31
0.0
100
AcDbText
  0
TEXT
  5
28
330
18
100
AcDbEntity
  8
0
100
AcDbText
 10
78.518135
 20
177.244
 30
0.0
 40
3.09234
  1
500
 41
0.5
 72
     1
 11
80.32200000000001
 21
177.244
 31
0.0
100
AcDbText
  0
TEXT
  5
29
330
18
100
AcDbEntity
  8
0
100
AcDbText
 10
78.3892875
 20
183.762
 30
0.0
 40
3.09234
  1
280
 41
0.5
 72
     1
 11
80.32200000000001
 21
183.762
 31
0.0
100
AcDbText
  0
TEXT
  5
2A
330
18
100
AcDbEntity
  8
0
100
AcDbText
 10
33.15699999999999
 20
64.0661
 30
0.0
 40
3.65458
  1
・壁取付部には厚さ30mm以上の補強木を入れてください。
 41
0.5
100
AcDbText
  0
TEXT
  5
2B
330
18
100
AcDbEntity
  8
0
100
AcDbText
 10
78.3892875
 20
139.007
 30
0.0
 40
3.09234
  1
360
 41
0.5
 72
     1
 11
80.32200000000001
 21
139.007
 31
0.0
100
AcDbText
  0
TEXT
  5
2C
330
18
100
AcDbEntity
  8
0
100
AcDbText
 10
38.1387
 20
220.318525
 30
0.0
 40
3.09234
  1
35
 50
90.0
 41
0.5
 72
     1
 11
38.1387
 21
221.607
 31
0.0
100
AcDbText
  0
TEXT
  5
2D
330
18
100
AcDbEntity
  8
0
100
AcDbText
 10
38.1387
 20
206.4989825
 30
0.0
 40
3.09234
  1
180
 50
90.0
 41
0.5
 72
     1
 11
38.1387
 21
208.1739999999999
 31
0.0
100
AcDbText
  0
TEXT
  5
2E
330
18
100
AcDbEntity
  8
0
100
AcDbText
 10
38.1387
 20
192.818525
 30
0.0
 40
3.09234
  1
35
 50
90.0
 41
0.5
 72
     1
 11
38.1387
 21
194.107
 31
0.0
100
AcDbText
  0
TEXT
  5
2F
330
18
100
AcDbEntity
  8
0
100
AcDbText
 10
76.3888
 20
121.16583
 30
0.0
 40
3.09234
  1
100
 50
90.0
 41
0.5
 72
     1
 11
76.3888
 21
122.7119999999999
 31
0.0
100
AcDbText
  0
TEXT
  5
30
330
18
100
AcDbEntity
  8
0
100
AcDbText
 10
38.1393
 20
124.7503725
 30
0.0
 40
3.09234
  1
50
 50
90.0
 41
0.5
 72
     1
 11
38.1393
 21
125.9099999999999
 31
0.0
100
AcDbText
  0
TEXT
  5
31
330
18
100
AcDbEntity
  8
0
100
AcDbText
 10
126.536
 20
117.9579825
 30
0.0
 40
3.09234
  1
150
 50
90.0
 41
0.5
 72
     1
 11
126.536
 21
119.6329999999999
 31
0.0
100
AcDbText
  0
TEXT
  5
32
330
18
100
AcDbEntity
  8
0
100
AcDbText
 10
118.9079999999999
 20
119.0969825
 30
0.0
 40
3.09234
  1
130
 50
90.0
 41
0.5
 72
     1
 11
118.9079999999999
 21
120.772
 31
0.0
100
AcDbText
  0
TEXT
  5
33
330
18
100
AcDbEntity
  8
0
100
AcDbText
 10
126.936
 20
206.1742874999999
 30
0.0
 40
3.09234
  1
250
 50
90.0
 41
0.5
 72
     1
 11
126.936
 21
208.1069999999999
 31
0.0
100
AcDbText
  0
TEXT
  5
34
330
18
100
AcDbEntity
  8
0
100
AcDbText
 10
119.208
 20
213.8841349999999
 30
0.0
 40
3.09234
  1
125
 50
90.0
 41
0.5
 72
     1
 11
119.208
 21
215.688
 31
0.0
100
AcDbText
  0
ARC
  5
35
330
18
100
AcDbEntity
  8
0
100
AcDbCircle
 10
94.696972
 20
112.8964929999999
 30
0.0
 40
0.624944
100
AcDbArc
 50
179.9999699999999
 51
270.00002
  0
ARC
  5
36
330
18
100
AcDbEntity
  8
0
100
AcDbCircle
 10
98.447154
 20
112.8964929999999
 30
0.0
 40
0.624944
100
AcDbArc
 50
270.00002
 51
359.9999899999999
  0
LINE
  5
37
330
18
100
AcDbEntity
  8
0
100
AcDbLine
 10
98.4472
 20
112.272
 30
0.0
 11
94.69700000000001
 21
112.272
 31
0.0
  0
ARC
  5
39
330
18
100
AcDbEntity
  8
0
100
AcDbCircle
 10
170.3648379999999
 20
112.8964929999999
 30
0.0
 40
0.624944
100
AcDbArc
 50
179.9999699999999
 51
270.00002
  0
ARC
  5
3A
330
18
100
AcDbEntity
  8
0
100
AcDbCircle
 10
65.946951
 20
112.8964929999999
 30
0.0
 40
0.624944
100
AcDbArc
 50
270.00002
 51
359.9999899999999
  0
ARC
  5
3B
330
18
100
AcDbEntity
  8
0
100
AcDbCircle
 10
62.19676899999999
 20
112.8964929999999
 30
0.0
 40
0.624944
100
AcDbArc
 50
179.9999699999999
 51
270.00002
  0
LINE
  5
3C
330
18
100
AcDbEntity
  8
0
100
AcDbLine
 10
157.575
 20
102.4499999999999
 30
0.0
 11
155.364
 21
101.8579999999999
 31
0.0
  0
LINE
  5
3D
330
18
100
AcDbEntity
  8
0
100
AcDbLine
 10
155.364
 20
101.8579999999999
 30
0.0
 11
157.575
 21
101.265
 31
0.0
  0
LINE
  5
3E
330
18
100
AcDbEntity
  8
0
100
AcDbLine
 10
157.575
 20
101.265
 30
0.0
 11
157.575
 21
102.4499999999999
 31
0.0
  0
LINE
  5
3F
330
18
100
AcDbEntity
  8
0
100
AcDbLine
 10
168.779
 20
101.2799999999999
 30
0.0
 11
170.99
 21
101.872
 31
0.0
  0
LINE
  5
40
330
18
100
AcDbEntity
  8
0
100
AcDbLine
 10
170.99
 20
101.872
 30
0.0
 11
168.779
 21
102.4639999999999
 31
0.0
  0
LINE
  5
41
330
18
100
AcDbEntity
  8
0
100
AcDbLine
 10
168.779
 20
102.4639999999999
 30
0.0
 11
168.779
 21
101.2799999999999
 31
0.0
  0
LINE
  5
42
330
18
100
AcDbEntity
  8
0
100
AcDbLine
 10
155.364
 20
101.865
 30
0.0
 11
170.99
 21
101.865
 31
0.0
  0
LINE
  5
43
330
18
100
AcDbEntity
  8
0
100
AcDbLine
 10
170.99
 20
111.874
 30
0.0
 11
170.99
 21
101.166
 31
0.0
  0
LINE
  5
44
330
18
100
AcDbEntity
  8
0
100
AcDbLine
 10
155.364
 20
107.1089999999999
 30
0.0
 11
155.364
 21
101.166
 31
0.0
  0
LINE
  5
45
330
18
100
AcDbEntity
  8
0
  6
AIGENLINE001
100
AcDbLine
 10
168.649
 20
122.897
 30
0.0
 11
173.722
 21
122.897
 31
0.0
  0
LINE
  5
46
330
18
100
AcDbEntity
  8
0
  6
AIGENLINE001
100
AcDbLine
 10
155.364
 20
107.777
 30
0.0
 11
155.364
 21
131.483
 31
0.0
  0
LINE
  5
47
330
18
100
AcDbEntity
  8
0
100
AcDbLine
 10
170.99
 20
129.147
 30
0.0
 11
140.988
 21
129.147
 31
0.0
  0
LINE
  5
48
330
18
100
AcDbEntity
  8
0
100
AcDbLine
 10
150.989
 20
112.8959999999999
 30
0.0
 11
150.989
 21
111.021
 31
0.0
  0
LINE
  5
49
330
18
100
AcDbEntity
  8
0
100
AcDbLine
 10
159.739
 20
112.8959999999999
 30
0.0
 11
159.739
 21
111.021
 31
0.0
  0
LINE
  5
4A
330
18
100
AcDbEntity
  8
0
100
AcDbLine
 10
159.114
 20
110.396
 30
0.0
 11
151.614
 21
110.396
 31
0.0
  0
ARC
  5
4B
330
18
100
AcDbEntity
  8
0
100
AcDbCircle
 10
159.091027
 20
111.044752
 30
0.0
 40
0.6488040000000001
100
AcDbArc
 50
272.070106
 51
357.929904
  0
ARC
  5
4C
330
18
100
AcDbEntity
  8
0
100
AcDbCircle
 10
151.637682
 20
111.045269
 30
0.0
 40
0.6493140000000001
100
AcDbArc
 50
182.114169
 51
267.948997
  0
LINE
  5
4D
330
18
100
AcDbEntity
  8
0
100
AcDbLine
 10
170.99
 20
112.8959999999999
 30
0.0
 11
170.99
 21
129.147
 31
0.0
  0
LINE
  5
4E
330
18
100
AcDbEntity
  8
0
100
AcDbLine
 10
139.739
 20
112.8959999999999
 30
0.0
 11
139.739
 21
127.897
 31
0.0
  0
ARC
  5
4F
330
18
100
AcDbEntity
  8
0
100
AcDbCircle
 10
141.035886
 20
127.850043
 30
0.0
 40
1.297595
100
AcDbArc
 50
92.10060799999999
 51
177.9467469999999
  0
LINE
  5
50
330
18
100
AcDbEntity
  8
0
100
AcDbLine
 10
170.99
 20
112.8959999999999
 30
0.0
 11
139.739
 21
112.8959999999999
 31
0.0
  0
LINE
  5
51
330
18
100
AcDbEntity
  8
0
100
AcDbLine
 10
85.8694
 20
110.396
 30
0.0
 11
128.2249999999999
 21
110.396
 31
0.0
  0
LINE
  5
52
330
18
100
AcDbEntity
  8
0
100
AcDbLine
 10
112.307
 20
112.8959999999999
 30
0.0
 11
120.479
 21
112.8959999999999
 31
0.0
  0
LINE
  5
53
330
18
100
AcDbEntity
  8
0
100
AcDbLine
 10
126.941
 20
112.607
 30
0.0
 11
127.5329999999999
 21
110.396
 31
0.0
  0
LINE
  5
54
330
18
100
AcDbEntity
  8
0
100
AcDbLine
 10
127.5329999999999
 20
110.396
 30
0.0
 11
128.125
 21
112.607
 31
0.0
  0
LINE
  5
55
330
18
100
AcDbEntity
  8
0
100
AcDbLine
 10
128.125
 20
112.607
 30
0.0
 11
126.941
 21
112.607
 31
0.0
  0
LINE
  5
56
330
18
100
AcDbEntity
  8
0
100
AcDbLine
 10
128.1109999999999
 20
126.936
 30
0.0
 11
127.519
 21
129.147
 31
0.0
  0
LINE
  5
57
330
18
100
AcDbEntity
  8
0
100
AcDbLine
 10
127.519
 20
129.147
 30
0.0
 11
126.926
 21
126.936
 31
0.0
  0
LINE
  5
58
330
18
100
AcDbEntity
  8
0
100
AcDbLine
 10
126.926
 20
126.936
 30
0.0
 11
128.1109999999999
 21
126.936
 31
0.0
  0
LINE
  5
59
330
18
100
AcDbEntity
  8
0
100
AcDbLine
 10
127.526
 20
110.396
 30
0.0
 11
127.526
 21
129.147
 31
0.0
  0
LINE
  5
5A
330
18
100
AcDbEntity
  8
0
100
AcDbLine
 10
120.3639999999999
 20
126.936
 30
0.0
 11
119.772
 21
129.147
 31
0.0
  0
LINE
  5
5B
330
18
100
AcDbEntity
  8
0
100
AcDbLine
 10
119.772
 20
129.147
 30
0.0
 11
119.18
 21
126.936
 31
0.0
  0
LINE
  5
5C
330
18
100
AcDbEntity
  8
0
100
AcDbLine
 10
119.18
 20
126.936
 30
0.0
 11
120.3639999999999
 21
126.936
 31
0.0
  0
LINE
  5
5D
330
18
100
AcDbEntity
  8
0
100
AcDbLine
 10
119.195
 20
115.107
 30
0.0
 11
119.7869999999999
 21
112.8959999999999
 31
0.0
  0
LINE
  5
5E
330
18
100
AcDbEntity
  8
0
100
AcDbLine
 10
119.7869999999999
 20
112.8959999999999
 30
0.0
 11
120.3789999999999
 21
115.107
 31
0.0
  0
LINE
  5
5F
330
18
100
AcDbEntity
  8
0
100
AcDbLine
 10
120.3789999999999
 20
115.107
 30
0.0
 11
119.195
 21
115.107
 31
0.0
  0
LINE
  5
60
330
18
100
AcDbEntity
  8
0
100
AcDbLine
 10
119.7789999999999
 20
129.147
 30
0.0
 11
119.7789999999999
 21
112.8959999999999
 31
0.0
  0
LINE
  5
61
330
18
100
AcDbEntity
  8
0
100
AcDbLine
 10
112.307
 20
129.147
 30
0.0
 11
128.2249999999999
 21
129.147
 31
0.0
  0
LINE
  5
62
330
18
100
AcDbEntity
  8
0
100
AcDbLine
 10
38.7464
 20
125.107
 30
0.0
 11
39.3386
 21
122.897
 31
0.0
  0
LINE
  5
63
330
18
100
AcDbEntity
  8
0
100
AcDbLine
 10
39.3386
 20
122.897
 30
0.0
 11
39.931
 21
125.107
 31
0.0
  0
LINE
  5
64
330
18
100
AcDbEntity
  8
0
100
AcDbLine
 10
39.931
 20
125.107
 30
0.0
 11
38.7464
 21
125.107
 31
0.0
  0
LINE
  5
65
330
18
100
AcDbEntity
  8
0
100
AcDbLine
 10
39.9163
 20
126.936
 30
0.0
 11
39.3241
 21
129.147
 31
0.0
  0
LINE
  5
66
330
18
100
AcDbEntity
  8
0
100
AcDbLine
 10
39.3241
 20
129.147
 30
0.0
 11
38.7317
 21
126.936
 31
0.0
  0
LINE
  5
67
330
18
100
AcDbEntity
  8
0
100
AcDbLine
 10
38.7317
 20
126.936
 30
0.0
 11
39.9163
 21
126.936
 31
0.0
  0
LINE
  5
68
330
18
100
AcDbEntity
  8
0
100
AcDbLine
 10
39.3314
 20
122.897
 30
0.0
 11
39.3314
 21
129.147
 31
0.0
  0
LINE
  5
69
330
18
100
AcDbEntity
  8
0
100
AcDbLine
 10
38.6308
 20
122.897
 30
0.0
 11
54.46889999999999
 21
122.897
 31
0.0
  0
LINE
  5
6A
330
18
100
AcDbEntity
  8
0
100
AcDbLine
 10
38.6308
 20
129.147
 30
0.0
 11
48.5777
 21
129.147
 31
0.0
  0
LINE
  5
6B
330
18
100
AcDbEntity
  8
0
100
AcDbLine
 10
57.82199999999999
 20
125.431
 30
0.0
 11
57.82199999999999
 21
138.763
 31
0.0
  0
LINE
  5
6C
330
18
100
AcDbEntity
  8
0
100
AcDbLine
 10
102.822
 20
125.431
 30
0.0
 11
102.822
 21
138.763
 31
0.0
  0
LINE
  5
6D
330
18
100
AcDbEntity
  8
0
100
AcDbLine
 10
60.0325
 20
138.649
 30
0.0
 11
57.8222
 21
138.057
 31
0.0
  0
LINE
  5
6E
330
18
100
AcDbEntity
  8
0
100
AcDbLine
 10
57.8222
 20
138.057
 30
0.0
 11
60.0325
 21
137.464
 31
0.0
  0
LINE
  5
6F
330
18
100
AcDbEntity
  8
0
100
AcDbLine
 10
60.0325
 20
137.464
 30
0.0
 11
60.0325
 21
138.649
 31
0.0
  0
LINE
  5
70
330
18
100
AcDbEntity
  8
0
100
AcDbLine
 10
100.612
 20
137.4789999999999
 30
0.0
 11
102.822
 21
138.071
 31
0.0
  0
LINE
  5
71
330
18
100
AcDbEntity
  8
0
100
AcDbLine
 10
102.822
 20
138.071
 30
0.0
 11
100.612
 21
138.6629999999999
 31
0.0
  0
LINE
  5
72
330
18
100
AcDbEntity
  8
0
100
AcDbLine
 10
100.612
 20
138.6629999999999
 30
0.0
 11
100.612
 21
137.4789999999999
 31
0.0
  0
LINE
  5
73
330
18
100
AcDbEntity
  8
0
100
AcDbLine
 10
57.82199999999999
 20
138.0639999999999
 30
0.0
 11
102.822
 21
138.0639999999999
 31
0.0
  0
LINE
  5
74
330
18
100
AcDbEntity
  8
0
100
AcDbLine
 10
77.7341
 20
126.936
 30
0.0
 11
77.14190000000001
 21
129.147
 31
0.0
  0
LINE
  5
75
330
18
100
AcDbEntity
  8
0
100
AcDbLine
 10
77.14190000000001
 20
129.147
 30
0.0
 11
76.54949999999999
 21
126.936
 31
0.0
  0
LINE
  5
76
330
18
100
AcDbEntity
  8
0
100
AcDbLine
 10
76.54949999999999
 20
126.936
 30
0.0
 11
77.7341
 21
126.936
 31
0.0
  0
LINE
  5
77
330
18
100
AcDbEntity
  8
0
100
AcDbLine
 10
76.5641
 20
118.857
 30
0.0
 11
77.1563
 21
116.647
 31
0.0
  0
LINE
  5
78
330
18
100
AcDbEntity
  8
0
100
AcDbLine
 10
77.1563
 20
116.647
 30
0.0
 11
77.74869999999999
 21
118.857
 31
0.0
  0
LINE
  5
79
330
18
100
AcDbEntity
  8
0
100
AcDbLine
 10
77.74869999999999
 20
118.857
 30
0.0
 11
76.5641
 21
118.857
 31
0.0
  0
LINE
  5
7A
330
18
100
AcDbEntity
  8
0
100
AcDbLine
 10
77.1491
 20
129.147
 30
0.0
 11
77.1491
 21
116.647
 31
0.0
  0
LINE
  5
7B
330
18
100
AcDbEntity
  8
0
  6
AIGENLINE002
100
AcDbLine
 10
58.44689999999999
 20
121.647
 30
0.0
 11
57.1967
 21
121.647
 31
0.0
  0
LINE
  5
7C
330
18
100
AcDbEntity
  8
0
  6
AIGENLINE002
100
AcDbLine
 10
58.44689999999999
 20
124.147
 30
0.0
 11
57.1967
 21
124.147
 31
0.0
  0
ARC
  5
7D
330
18
100
AcDbEntity
  8
0
  6
AIGENLINE002
100
AcDbCircle
 10
58.446931
 20
122.896635
 30
0.0
 40
1.249889
100
AcDbArc
 50
270.00002
 51
359.9999899999999
  0
ARC
  5
7E
330
18
100
AcDbEntity
  8
0
  6
AIGENLINE002
100
AcDbCircle
 10
58.446931
 20
122.896634
 30
0.0
 40
1.249889
100
AcDbArc
 50
0.00001
 51
89.99998000000001
  0
ARC
  5
7F
330
18
100
AcDbEntity
  8
0
  6
AIGENLINE002
100
AcDbCircle
 10
57.24420799999999
 20
122.849124
 30
0.0
 40
1.298267999999999
100
AcDbArc
 50
92.0972
 51
177.90277
  0
ARC
  5
80
330
18
100
AcDbEntity
  8
0
  6
AIGENLINE002
100
AcDbCircle
 10
57.24459
 20
122.944527
 30
0.0
 40
1.298664
100
AcDbArc
 50
182.113455
 51
267.8865739999999
  0
LINE
  5
81
330
18
100
AcDbEntity
  8
0
  6
AIGENLINE001
100
AcDbLine
 10
55.04319999999999
 20
122.897
 30
0.0
 11
60.4706
 21
122.897
 31
0.0
  0
LINE
  5
82
330
18
100
AcDbEntity
  8
0
  6
AIGENLINE001
100
AcDbLine
 10
57.82199999999999
 20
125.052
 30
0.0
 11
57.82199999999999
 21
120.916
 31
0.0
  0
LINE
  5
83
330
18
100
AcDbEntity
  8
0
  6
AIGENLINE002
100
AcDbLine
 10
64.89270000000001
 20
118.5629999999999
 30
0.0
 11
63.0196
 21
128.137
 31
0.0
  0
ARC
  5
84
330
18
100
AcDbEntity
  8
0
  6
AIGENLINE002
100
AcDbCircle
 10
61.759158
 20
127.855811
 30
0.0
 40
1.291386
100
AcDbArc
 50
12.560919
 51
88.521218
  0
LINE
  5
85
330
18
100
AcDbEntity
  8
0
  6
AIGENLINE002
100
AcDbLine
 10
73.7414
 20
115.319
 30
0.0
 11
75.49299999999999
 21
115.1529999999999
 31
0.0
  0
LINE
  5
86
330
18
100
AcDbEntity
  8
0
  6
AIGENLINE002
100
AcDbLine
 10
66.0017
 20
117.5579999999999
 30
0.0
 11
75.6343
 21
116.647
 31
0.0
  0
ARC
  5
87
330
18
100
AcDbEntity
  8
0
  6
AIGENLINE002
100
AcDbCircle
 10
66.14958
 20
118.836384
 30
0.0
 40
1.286483
100
AcDbArc
 50
192.252515
 51
263.400614
  0
LINE
  5
88
330
18
100
AcDbEntity
  8
0
  6
AIGENLINE002
100
AcDbLine
 10
75.49299999999999
 20
115.1529999999999
 30
0.0
 11
75.9467
 21
114.683
 31
0.0
  0
LINE
  5
89
330
18
100
AcDbEntity
  8
0
  6
AIGENLINE002
100
AcDbLine
 10
77.44679999999999
 20
110.396
 30
0.0
 11
77.44679999999999
 21
114.771
 31
0.0
  0
LINE
  5
8A
330
18
100
AcDbEntity
  8
0
  6
AIGENLINE002
100
AcDbLine
 10
75.6343
 20
116.647
 30
0.0
 11
77.44679999999999
 21
114.771
 31
0.0
  0
LINE
  5
8B
330
18
100
AcDbEntity
  8
0
  6
AIGENLINE002
100
AcDbLine
 10
75.9467
 20
114.683
 30
0.0
 11
75.9467
 21
112.8959999999999
 31
0.0
  0
LINE
  5
8C
330
18
100
AcDbEntity
  8
0
  6
AIGENLINE002
100
AcDbLine
 10
102.197
 20
121.647
 30
0.0
 11
103.447
 21
121.647
 31
0.0
  0
LINE
  5
8D
330
18
100
AcDbEntity
  8
0
  6
AIGENLINE002
100
AcDbLine
 10
102.197
 20
124.147
 30
0.0
 11
103.447
 21
124.147
 31
0.0
  0
ARC
  5
8E
330
18
100
AcDbEntity
  8
0
  6
AIGENLINE002
100
AcDbCircle
 10
102.196992
 20
122.896807
 30
0.0
 40
1.249716999999999
100
AcDbArc
 50
90.007897
 51
180.007907
  0
ARC
  5
8F
330
18
100
AcDbEntity
  8
0
  6
AIGENLINE002
100
AcDbCircle
 10
102.196992
 20
122.896462
 30
0.0
 40
1.249716
100
AcDbArc
 50
179.992073
 51
269.9921219999999
  0
ARC
  5
90
330
18
100
AcDbEntity
  8
0
  6
AIGENLINE002
100
AcDbCircle
 10
103.447225
 20
122.896807
 30
0.0
 40
1.250061
100
AcDbArc
 50
269.992125
 51
359.992095
  0
ARC
  5
91
330
18
100
AcDbEntity
  8
0
  6
AIGENLINE002
100
AcDbCircle
 10
103.447225
 20
122.896462
 30
0.0
 40
1.250061
100
AcDbArc
 50
0.007905
 51
90.00787500000001
  0
LINE
  5
92
330
18
100
AcDbEntity
  8
0
  6
AIGENLINE001
100
AcDbLine
 10
105.6
 20
122.897
 30
0.0
 11
100.1739999999999
 21
122.897
 31
0.0
  0
LINE
  5
93
330
18
100
AcDbEntity
  8
0
  6
AIGENLINE001
100
AcDbLine
 10
102.822
 20
125.052
 30
0.0
 11
102.822
 21
120.916
 31
0.0
  0
LINE
  5
94
330
18
100
AcDbEntity
  8
0
  6
AIGENLINE001
100
AcDbLine
 10
103.447
 20
125.9079999999999
 30
0.0
 11
103.447
 21
131.834
 31
0.0
  0
ARC
  5
95
330
18
100
AcDbEntity
  8
0
  6
AIGENLINE002
100
AcDbCircle
 10
80.278988
 20
124.353579
 30
0.0
 40
1.168684
100
AcDbArc
 50
2.111537
 51
87.88845300000001
  0
ARC
  5
96
330
18
100
AcDbEntity
  8
0
  6
AIGENLINE002
100
AcDbCircle
 10
80.36550099999999
 20
124.352827
 30
0.0
 40
1.16945
100
AcDbArc
 50
92.12943
 51
177.852995
  0
ARC
  5
97
330
18
100
AcDbEntity
  8
0
  6
AIGENLINE002
100
AcDbCircle
 10
80.365123
 20
124.439714
 30
0.0
 40
1.169043999999999
100
AcDbArc
 50
182.1116379999999
 51
267.888392
  0
ARC
  5
98
330
18
100
AcDbEntity
  8
0
  6
AIGENLINE002
100
AcDbCircle
 10
80.321875
 20
124.3964669999999
 30
0.0
 40
1.125002999999999
100
AcDbArc
 50
270.008793
 51
0.008763
  0
LINE
  5
9A
330
18
100
AcDbEntity
  8
0
  6
AIGENLINE001
100
AcDbLine
 10
80.32200000000001
 20
107.777
 30
0.0
 11
80.32200000000001
 21
131.483
 31
0.0
  0
LINE
  5
9B
330
18
100
AcDbEntity
  8
0
100
AcDbLine
 10
110.322
 20
129.147
 30
0.0
 11
50.32199999999999
 21
129.147
 31
0.0
  0
LINE
  5
9C
330
18
100
AcDbEntity
  8
0
  6
AIGENLINE002
100
AcDbLine
 10
95.75169999999999
 20
118.5629999999999
 30
0.0
 11
97.62450000000001
 21
128.137
 31
0.0
  0
ARC
  5
9D
330
18
100
AcDbEntity
  8
0
  6
AIGENLINE002
100
AcDbCircle
 10
98.88384399999999
 20
127.8571499999999
 30
0.0
 40
1.290028
100
AcDbArc
 50
91.447058
 51
167.486553
  0
LINE
  5
9E
330
18
100
AcDbEntity
  8
0
  6
AIGENLINE002
100
AcDbLine
 10
86.9022
 20
115.319
 30
0.0
 11
85.15109999999999
 21
115.1529999999999
 31
0.0
  0
LINE
  5
9F
330
18
100
AcDbEntity
  8
0
  6
AIGENLINE002
100
AcDbLine
 10
94.6424
 20
117.5579999999999
 30
0.0
 11
85.0098
 21
116.647
 31
0.0
  0
ARC
  5
A0
330
18
100
AcDbEntity
  8
0
  6
AIGENLINE002
100
AcDbCircle
 10
94.495459
 20
118.835343
 30
0.0
 40
1.285339999999999
100
AcDbArc
 50
276.5629759999999
 51
347.7839349999999
  0
LINE
  5
A1
330
18
100
AcDbEntity
  8
0
  6
AIGENLINE002
100
AcDbLine
 10
85.15109999999999
 20
115.1529999999999
 30
0.0
 11
84.69700000000001
 21
114.683
 31
0.0
  0
LINE
  5
A2
330
18
100
AcDbEntity
  8
0
  6
AIGENLINE002
100
AcDbLine
 10
83.197
 20
110.396
 30
0.0
 11
83.197
 21
114.771
 31
0.0
  0
LINE
  5
A3
330
18
100
AcDbEntity
  8
0
  6
AIGENLINE002
100
AcDbLine
 10
85.0098
 20
116.647
 30
0.0
 11
83.197
 21
114.771
 31
0.0
  0
LINE
  5
A4
330
18
100
AcDbEntity
  8
0
  6
AIGENLINE002
100
AcDbLine
 10
85.0098
 20
116.647
 30
0.0
 11
75.6346
 21
116.647
 31
0.0
  0
LINE
  5
A5
330
18
100
AcDbEntity
  8
0
  6
AIGENLINE002
100
AcDbLine
 10
83.197
 20
114.771
 30
0.0
 11
77.44710000000001
 21
114.771
 31
0.0
  0
LINE
  5
A6
330
18
100
AcDbEntity
  8
0
100
AcDbLine
 10
75.9467
 20
112.8959999999999
 30
0.0
 11
75.9467
 21
111.021
 31
0.0
  0
LINE
  5
A7
330
18
100
AcDbEntity
  8
0
  6
AIGENLINE002
100
AcDbLine
 10
84.69700000000001
 20
114.683
 30
0.0
 11
84.69700000000001
 21
112.8959999999999
 31
0.0
  0
LINE
  5
A8
330
18
100
AcDbEntity
  8
0
100
AcDbLine
 10
84.69700000000001
 20
112.8959999999999
 30
0.0
 11
84.69700000000001
 21
111.021
 31
0.0
  0
LINE
  5
A9
330
18
100
AcDbEntity
  8
0
100
AcDbLine
 10
84.0721
 20
110.396
 30
0.0
 11
76.572
 21
110.396
 31
0.0
  0
ARC
  5
AA
330
18
100
AcDbEntity
  8
0
100
AcDbCircle
 10
84.048622
 20
111.044752
 30
0.0
 40
0.6488040000000001
100
AcDbArc
 50
272.070106
 51
357.929904
  0
ARC
  5
AB
330
18
100
AcDbEntity
  8
0
100
AcDbCircle
 10
76.59560899999999
 20
111.0452449999999
 30
0.0
 40
0.649301
100
AcDbArc
 50
182.1120569999999
 51
267.919549
  0
LINE
  5
AC
330
18
100
AcDbEntity
  8
0
100
AcDbLine
 10
111.572
 20
112.8959999999999
 30
0.0
 11
111.572
 21
127.897
 31
0.0
  0
ARC
  5
AD
330
18
100
AcDbEntity
  8
0
100
AcDbCircle
 10
110.2744519999999
 20
127.849042
 30
0.0
 40
1.298607
100
AcDbArc
 50
2.095845
 51
87.88835400000001
  0
LINE
  5
AE
330
18
100
AcDbEntity
  8
0
100
AcDbLine
 10
62.1968
 20
112.272
 30
0.0
 11
65.947
 21
112.272
 31
0.0
  0
LINE
  5
AF
330
18
100
AcDbEntity
  8
0
100
AcDbLine
 10
49.0717
 20
112.8959999999999
 30
0.0
 11
49.0717
 21
127.897
 31
0.0
  0
ARC
  5
B0
330
18
100
AcDbEntity
  8
0
100
AcDbCircle
 10
50.369477
 20
127.849023
 30
0.0
 40
1.298613
100
AcDbArc
 50
92.09666700000001
 51
177.903303
  0
LINE
  5
B1
330
18
100
AcDbEntity
  8
0
100
AcDbLine
 10
111.572
 20
112.8959999999999
 30
0.0
 11
49.0721
 21
112.8959999999999
 31
0.0
  0
LINE
  5
B2
330
18
100
AcDbEntity
  8
0
100
AcDbLine
 10
93.5261
 20
201.527
 30
0.0
 11
86.8082
 21
201.527
 31
0.0
  0
LINE
  5
B3
330
18
100
AcDbEntity
  8
0
100
AcDbLine
 10
84.33150000000001
 20
204.8309999999999
 30
0.0
 11
82.3497
 21
205.9759999999999
 31
0.0
  0
LINE
  5
B4
330
18
100
AcDbEntity
  8
0
100
AcDbLine
 10
82.3497
 20
205.9759999999999
 30
0.0
 11
83.4938
 21
203.994
 31
0.0
  0
LINE
  5
B5
330
18
100
AcDbEntity
  8
0
100
AcDbLine
 10
83.4938
 20
203.994
 30
0.0
 11
84.33150000000001
 21
204.8309999999999
 31
0.0
  0
LINE
  5
B6
330
18
100
AcDbEntity
  8
0
100
AcDbLine
 10
76.3124
 20
211.1959999999999
 30
0.0
 11
78.29430000000001
 21
210.0509999999999
 31
0.0
  0
LINE
  5
B7
330
18
100
AcDbEntity
  8
0
100
AcDbLine
 10
78.29430000000001
 20
210.0509999999999
 30
0.0
 11
77.15009999999999
 21
212.033
 31
0.0
  0
LINE
  5
B8
330
18
100
AcDbEntity
  8
0
100
AcDbLine
 10
77.15009999999999
 20
212.033
 30
0.0
 11
76.3124
 21
211.1959999999999
 31
0.0
  0
LINE
  5
B9
330
18
100
AcDbEntity
  8
0
100
AcDbLine
 10
75.0128
 20
213.3229999999999
 30
0.0
 11
86.8082
 21
201.527
 31
0.0
  0
LINE
  5
BA
330
18
100
AcDbEntity
  8
0
100
AcDbLine
 10
39.9236
 20
190.178
 30
0.0
 11
39.3314
 21
192.388
 31
0.0
  0
LINE
  5
BB
330
18
100
AcDbEntity
  8
0
100
AcDbLine
 10
39.3314
 20
192.388
 30
0.0
 11
38.739
 21
190.178
 31
0.0
  0
LINE
  5
BC
330
18
100
AcDbEntity
  8
0
100
AcDbLine
 10
38.739
 20
190.178
 30
0.0
 11
39.9236
 21
190.178
 31
0.0
  0
LINE
  5
BD
330
18
100
AcDbEntity
  8
0
100
AcDbLine
 10
39.9236
 20
217.0529999999999
 30
0.0
 11
39.3314
 21
219.263
 31
0.0
  0
LINE
  5
BE
330
18
100
AcDbEntity
  8
0
100
AcDbLine
 10
39.3314
 20
219.263
 30
0.0
 11
38.739
 21
217.0529999999999
 31
0.0
  0
LINE
  5
BF
330
18
100
AcDbEntity
  8
0
100
AcDbLine
 10
38.739
 20
217.0529999999999
 30
0.0
 11
39.9236
 21
217.0529999999999
 31
0.0
  0
LINE
  5
C0
330
18
100
AcDbEntity
  8
0
100
AcDbLine
 10
38.7536
 20
225.849
 30
0.0
 11
39.3458
 21
223.638
 31
0.0
  0
LINE
  5
C1
330
18
100
AcDbEntity
  8
0
100
AcDbLine
 10
39.3458
 20
223.638
 30
0.0
 11
39.9382
 21
225.849
 31
0.0
  0
LINE
  5
C2
330
18
100
AcDbEntity
  8
0
100
AcDbLine
 10
39.9382
 20
225.849
 30
0.0
 11
38.7536
 21
225.849
 31
0.0
  0
LINE
  5
C3
330
18
100
AcDbEntity
  8
0
100
AcDbLine
 10
38.7536
 20
198.974
 30
0.0
 11
39.3458
 21
196.7629999999999
 31
0.0
  0
LINE
  5
C4
330
18
100
AcDbEntity
  8
0
100
AcDbLine
 10
39.3458
 20
196.7629999999999
 30
0.0
 11
39.9382
 21
198.974
 31
0.0
  0
LINE
  5
C5
330
18
100
AcDbEntity
  8
0
100
AcDbLine
 10
39.9382
 20
198.974
 30
0.0
 11
38.7536
 21
198.974
 31
0.0
  0
LINE
  5
C6
330
18
100
AcDbEntity
  8
0
100
AcDbLine
 10
39.3386
 20
228.0
 30
0.0
 11
39.3386
 21
189.242
 31
0.0
  0
LINE
  5
C7
330
18
100
AcDbEntity
  8
0
100
AcDbLine
 10
38.638
 20
196.7629999999999
 30
0.0
 11
61.766
 21
196.7629999999999
 31
0.0
  0
LINE
  5
C8
330
18
100
AcDbEntity
  8
0
100
AcDbLine
 10
38.638
 20
219.263
 30
0.0
 11
61.766
 21
219.263
 31
0.0
  0
LINE
  5
C9
330
18
100
AcDbEntity
  8
0
100
AcDbLine
 10
109.362
 20
175.7459999999999
 30
0.0
 11
111.572
 21
176.339
 31
0.0
  0
LINE
  5
CA
330
18
100
AcDbEntity
  8
0
100
AcDbLine
 10
111.572
 20
176.339
 30
0.0
 11
109.362
 21
176.9309999999999
 31
0.0
  0
LINE
  5
CB
330
18
100
AcDbEntity
  8
0
100
AcDbLine
 10
109.362
 20
176.9309999999999
 30
0.0
 11
109.362
 21
175.7459999999999
 31
0.0
  0
LINE
  5
CC
330
18
100
AcDbEntity
  8
0
100
AcDbLine
 10
51.2823
 20
176.917
 30
0.0
 11
49.07189999999999
 21
176.324
 31
0.0
  0
LINE
  5
CD
330
18
100
AcDbEntity
  8
0
100
AcDbLine
 10
49.07189999999999
 20
176.324
 30
0.0
 11
51.2823
 21
175.7319999999999
 31
0.0
  0
LINE
  5
CE
330
18
100
AcDbEntity
  8
0
100
AcDbLine
 10
51.2823
 20
175.7319999999999
 30
0.0
 11
51.2823
 21
176.917
 31
0.0
  0
LINE
  5
CF
330
18
100
AcDbEntity
  8
0
100
AcDbLine
 10
111.572
 20
176.3309999999999
 30
0.0
 11
49.0717
 21
176.3309999999999
 31
0.0
  0
LINE
  5
D0
330
18
100
AcDbEntity
  8
0
100
AcDbLine
 10
95.6118
 20
182.2869999999999
 30
0.0
 11
97.8222
 21
182.88
 31
0.0
  0
LINE
  5
D1
330
18
100
AcDbEntity
  8
0
100
AcDbLine
 10
97.8222
 20
182.88
 30
0.0
 11
95.6118
 21
183.472
 31
0.0
  0
LINE
  5
D2
330
18
100
AcDbEntity
  8
0
100
AcDbLine
 10
95.6118
 20
183.472
 30
0.0
 11
95.6118
 21
182.2869999999999
 31
0.0
  0
LINE
  5
D3
330
18
100
AcDbEntity
  8
0
100
AcDbLine
 10
101.237
 20
182.2869999999999
 30
0.0
 11
103.447
 21
182.88
 31
0.0
  0
LINE
  5
D4
330
18
100
AcDbEntity
  8
0
100
AcDbLine
 10
103.447
 20
182.88
 30
0.0
 11
101.237
 21
183.472
 31
0.0
  0
LINE
  5
D5
330
18
100
AcDbEntity
  8
0
100
AcDbLine
 10
101.237
 20
183.472
 30
0.0
 11
101.237
 21
182.2869999999999
 31
0.0
  0
LINE
  5
D6
330
18
100
AcDbEntity
  8
0
100
AcDbLine
 10
109.362
 20
182.2869999999999
 30
0.0
 11
111.572
 21
182.88
 31
0.0
  0
LINE
  5
D7
330
18
100
AcDbEntity
  8
0
100
AcDbLine
 10
111.572
 20
182.88
 30
0.0
 11
109.362
 21
183.472
 31
0.0
  0
LINE
  5
D8
330
18
100
AcDbEntity
  8
0
100
AcDbLine
 10
109.362
 20
183.472
 30
0.0
 11
109.362
 21
182.2869999999999
 31
0.0
  0
LINE
  5
D9
330
18
100
AcDbEntity
  8
0
100
AcDbLine
 10
100.0329999999999
 20
183.457
 30
0.0
 11
97.8222
 21
182.865
 31
0.0
  0
LINE
  5
DA
330
18
100
AcDbEntity
  8
0
100
AcDbLine
 10
97.8222
 20
182.865
 30
0.0
 11
100.0329999999999
 21
182.2729999999999
 31
0.0
  0
LINE
  5
DB
330
18
100
AcDbEntity
  8
0
100
AcDbLine
 10
100.0329999999999
 20
182.2729999999999
 30
0.0
 11
100.0329999999999
 21
183.457
 31
0.0
  0
LINE
  5
DC
330
18
100
AcDbEntity
  8
0
100
AcDbLine
 10
105.6579999999999
 20
183.457
 30
0.0
 11
103.447
 21
182.865
 31
0.0
  0
LINE
  5
DD
330
18
100
AcDbEntity
  8
0
100
AcDbLine
 10
103.447
 20
182.865
 30
0.0
 11
105.6579999999999
 21
182.2729999999999
 31
0.0
  0
LINE
  5
DE
330
18
100
AcDbEntity
  8
0
100
AcDbLine
 10
105.6579999999999
 20
182.2729999999999
 30
0.0
 11
105.6579999999999
 21
183.457
 31
0.0
  0
LINE
  5
DF
330
18
100
AcDbEntity
  8
0
100
AcDbLine
 10
65.03239999999999
 20
183.457
 30
0.0
 11
62.8221
 21
182.865
 31
0.0
  0
LINE
  5
E0
330
18
100
AcDbEntity
  8
0
100
AcDbLine
 10
62.8221
 20
182.865
 30
0.0
 11
65.03239999999999
 21
182.2729999999999
 31
0.0
  0
LINE
  5
E1
330
18
100
AcDbEntity
  8
0
100
AcDbLine
 10
65.03239999999999
 20
182.2729999999999
 30
0.0
 11
65.03239999999999
 21
183.457
 31
0.0
  0
LINE
  5
E2
330
18
100
AcDbEntity
  8
0
100
AcDbLine
 10
111.572
 20
182.872
 30
0.0
 11
62.82189999999999
 21
182.872
 31
0.0
  0
LINE
  5
E3
330
18
100
AcDbEntity
  8
0
100
AcDbLine
 10
62.82189999999999
 20
196.4059999999999
 30
0.0
 11
62.82189999999999
 21
182.172
 31
0.0
  0
LINE
  5
E4
330
18
100
AcDbEntity
  8
0
100
AcDbLine
 10
97.8222
 20
196.4059999999999
 30
0.0
 11
97.8222
 21
182.172
 31
0.0
  0
LINE
  5
E5
330
18
100
AcDbEntity
  8
0
100
AcDbLine
 10
103.447
 20
203.5709999999999
 30
0.0
 11
103.447
 21
182.172
 31
0.0
  0
LINE
  5
E6
330
18
100
AcDbEntity
  8
0
100
AcDbLine
 10
127.141
 20
194.599
 30
0.0
 11
127.7329999999999
 21
192.388
 31
0.0
  0
LINE
  5
E7
330
18
100
AcDbEntity
  8
0
100
AcDbLine
 10
127.7329999999999
 20
192.388
 30
0.0
 11
128.3249999999999
 21
194.599
 31
0.0
  0
LINE
  5
E8
330
18
100
AcDbEntity
  8
0
100
AcDbLine
 10
128.3249999999999
 20
194.599
 30
0.0
 11
127.141
 21
194.599
 31
0.0
  0
LINE
  5
E9
330
18
100
AcDbEntity
  8
0
100
AcDbLine
 10
128.311
 20
221.428
 30
0.0
 11
127.7179999999999
 21
223.638
 31
0.0
  0
LINE
  5
EA
330
18
100
AcDbEntity
  8
0
100
AcDbLine
 10
127.7179999999999
 20
223.638
 30
0.0
 11
127.126
 21
221.428
 31
0.0
  0
LINE
  5
EB
330
18
100
AcDbEntity
  8
0
100
AcDbLine
 10
127.126
 20
221.428
 30
0.0
 11
128.311
 21
221.428
 31
0.0
  0
LINE
  5
EC
330
18
100
AcDbEntity
  8
0
100
AcDbLine
 10
127.726
 20
192.388
 30
0.0
 11
127.726
 21
223.638
 31
0.0
  0
LINE
  5
ED
330
18
100
AcDbEntity
  8
0
100
AcDbLine
 10
120.564
 20
221.428
 30
0.0
 11
119.972
 21
223.638
 31
0.0
  0
LINE
  5
EE
330
18
100
AcDbEntity
  8
0
100
AcDbLine
 10
119.972
 20
223.638
 30
0.0
 11
119.3799999999999
 21
221.428
 31
0.0
  0
LINE
  5
EF
330
18
100
AcDbEntity
  8
0
100
AcDbLine
 10
119.3799999999999
 20
221.428
 30
0.0
 11
120.564
 21
221.428
 31
0.0
  0
LINE
  5
F0
330
18
100
AcDbEntity
  8
0
100
AcDbLine
 10
119.394
 20
210.224
 30
0.0
 11
119.987
 21
208.013
 31
0.0
  0
LINE
  5
F1
330
18
100
AcDbEntity
  8
0
100
AcDbLine
 10
119.987
 20
208.013
 30
0.0
 11
120.5789999999999
 21
210.224
 31
0.0
  0
LINE
  5
F2
330
18
100
AcDbEntity
  8
0
100
AcDbLine
 10
120.5789999999999
 20
210.224
 30
0.0
 11
119.394
 21
210.224
 31
0.0
  0
LINE
  5
F3
330
18
100
AcDbEntity
  8
0
100
AcDbLine
 10
119.9789999999999
 20
223.638
 30
0.0
 11
119.9789999999999
 21
208.013
 31
0.0
  0
LINE
  5
F4
330
18
100
AcDbEntity
  8
0
100
AcDbLine
 10
98.8316
 20
212.629
 30
0.0
 11
105.949
 21
212.629
 31
0.0
  0
LINE
  5
F5
330
18
100
AcDbEntity
  8
0
100
AcDbLine
 10
106.971
 20
205.3179999999999
 30
0.0
 11
104.9889999999999
 21
206.462
 31
0.0
  0
LINE
  5
F6
330
18
100
AcDbEntity
  8
0
100
AcDbLine
 10
104.9889999999999
 20
206.462
 30
0.0
 11
106.1329999999999
 21
204.4799999999999
 31
0.0
  0
LINE
  5
F7
330
18
100
AcDbEntity
  8
0
100
AcDbLine
 10
106.1329999999999
 20
204.4799999999999
 30
0.0
 11
106.971
 21
205.3179999999999
 31
0.0
  0
LINE
  5
F8
330
18
100
AcDbEntity
  8
0
100
AcDbLine
 10
99.92370000000001
 20
210.7089999999999
 30
0.0
 11
101.905
 21
209.565
 31
0.0
  0
LINE
  5
F9
330
18
100
AcDbEntity
  8
0
100
AcDbLine
 10
101.905
 20
209.565
 30
0.0
 11
100.761
 21
211.547
 31
0.0
  0
LINE
  5
FA
330
18
100
AcDbEntity
  8
0
100
AcDbLine
 10
100.761
 20
211.547
 30
0.0
 11
99.92370000000001
 21
210.7089999999999
 31
0.0
  0
LINE
  5
FB
330
18
100
AcDbEntity
  8
0
100
AcDbLine
 10
98.8316
 20
212.629
 30
0.0
 11
107.44
 21
204.02
 31
0.0
  0
LINE
  5
FC
330
18
100
AcDbEntity
  8
0
  6
AIGENLINE001
100
AcDbLine
 10
102.822
 20
226.5629999999999
 30
0.0
 11
102.822
 21
220.578
 31
0.0
  0
LINE
  5
FD
330
18
100
AcDbEntity
  8
0
  6
AIGENLINE001
100
AcDbLine
 10
57.82199999999999
 20
226.5629999999999
 30
0.0
 11
57.82199999999999
 21
220.578
 31
0.0
  0
ARC
  5
FE
330
18
100
AcDbEntity
  8
0
100
AcDbCircle
 10
80.32204699999999
 20
208.013424
 30
0.0
 40
2.874950999999999
100
AcDbArc
 50
0.00001
 51
89.99998000000001
  0
ARC
  5
FF
330
18
100
AcDbEntity
  8
0
100
AcDbCircle
 10
80.321876
 20
208.0132519999999
 30
0.0
 40
2.875122999999999
100
AcDbArc
 50
89.996567
 51
179.996537
  0
ARC
  5
100
330
18
100
AcDbEntity
  8
0
100
AcDbCircle
 10
80.321875
 20
208.013596
 30
0.0
 40
2.875122
100
AcDbArc
 50
180.0034429999999
 51
270.0034529999999
  0
ARC
  5
101
330
18
100
AcDbEntity
  8
0
100
AcDbCircle
 10
80.32204699999999
 20
208.0134249999999
 30
0.0
 40
2.874950999999999
100
AcDbArc
 50
270.00002
 51
359.9999899999999
  0
ARC
  5
102
330
18
100
AcDbEntity
  8
0
100
AcDbCircle
 10
80.32204699999999
 20
208.013424
 30
0.0
 40
4.687771999999999
100
AcDbArc
 50
0.00001
 51
89.99998000000001
  0
ARC
  5
103
330
18
100
AcDbEntity
  8
0
100
AcDbCircle
 10
80.322221
 20
208.013596
 30
0.0
 40
4.687599999999999
100
AcDbArc
 50
90.00210499999999
 51
180.002115
  0
ARC
  5
104
330
18
100
AcDbEntity
  8
0
100
AcDbCircle
 10
80.32204699999999
 20
208.013424
 30
0.0
 40
4.687426
100
AcDbArc
 50
179.9999699999999
 51
270.00002
  0
ARC
  5
105
330
18
100
AcDbEntity
  8
0
100
AcDbCircle
 10
80.32221899999999
 20
208.013597
 30
0.0
 40
4.687599999999999
100
AcDbArc
 50
269.997914
 51
359.9978849999999
  0
LINE
  5
106
330
18
100
AcDbEntity
  8
0
  6
AIGENLINE001
100
AcDbLine
 10
80.32200000000001
 20
190.109
 30
0.0
 11
80.32200000000001
 21
226.5629999999999
 31
0.0
  0
ARC
  5
107
330
18
100
AcDbEntity
  8
0
100
AcDbCircle
 10
103.363439
 20
207.929274
 30
0.0
 40
2.272993999999999
100
AcDbArc
 50
2.121674
 51
87.891851
  0
ARC
  5
108
330
18
100
AcDbEntity
  8
0
100
AcDbCircle
 10
103.446881
 20
208.0132519999999
 30
0.0
 40
2.187478
100
AcDbArc
 50
89.99548799999999
 51
179.995458
  0
ARC
  5
109
330
18
100
AcDbEntity
  8
0
100
AcDbCircle
 10
103.4470519999999
 20
208.013424
 30
0.0
 40
2.187648999999999
100
AcDbArc
 50
179.9999699999999
 51
270.00002
  0
ARC
  5
10A
330
18
100
AcDbEntity
  8
0
100
AcDbCircle
 10
103.363713
 20
208.0969429999999
 30
0.0
 40
2.272696999999999
100
AcDbArc
 50
272.1015299999999
 51
357.893968
  0
LINE
  5
10B
330
18
100
AcDbEntity
  8
0
  6
AIGENLINE001
100
AcDbLine
 10
46.5554
 20
208.013
 30
0.0
 11
113.613
 21
208.013
 31
0.0
  0
LINE
  5
10C
330
18
100
AcDbEntity
  8
0
100
AcDbLine
 10
64.0721
 20
196.7629999999999
 30
0.0
 11
96.57200000000001
 21
196.7629999999999
 31
0.0
  0
LINE
  5
10D
330
18
100
AcDbEntity
  8
0
100
AcDbLine
 10
62.82189999999999
 20
198.013
 30
0.0
 11
62.82189999999999
 21
218.014
 31
0.0
  0
ARC
  5
10E
330
18
100
AcDbEntity
  8
0
100
AcDbCircle
 10
64.071946
 20
198.013454
 30
0.0
 40
1.250061
100
AcDbArc
 50
180.0079049999999
 51
270.0079149999999
  0
LINE
  5
10F
330
18
100
AcDbEntity
  8
0
100
AcDbLine
 10
97.8222
 20
198.013
 30
0.0
 11
97.8222
 21
218.014
 31
0.0
  0
ARC
  5
110
330
18
100
AcDbEntity
  8
0
100
AcDbCircle
 10
96.57214899999999
 20
198.013455
 30
0.0
 40
1.250061
100
AcDbArc
 50
269.992125
 51
359.992095
  0
LINE
  5
111
330
18
100
AcDbEntity
  8
0
100
AcDbLine
 10
64.0721
 20
219.263
 30
0.0
 11
96.57200000000001
 21
219.263
 31
0.0
  0
ARC
  5
112
330
18
100
AcDbEntity
  8
0
100
AcDbCircle
 10
96.52401500000001
 20
217.965247
 30
0.0
 40
1.299093
100
AcDbArc
 50
2.131585999999999
 51
87.884194
  0
ARC
  5
113
330
18
100
AcDbEntity
  8
0
100
AcDbCircle
 10
64.12039399999999
 20
217.964933
 30
0.0
 40
1.299419
100
AcDbArc
 50
92.12912000000001
 51
177.85506
  0
LINE
  5
114
330
18
100
AcDbEntity
  8
0
  6
AIGENLINE001
100
AcDbLine
 10
103.447
 20
204.2559999999999
 30
0.0
 11
103.447
 21
211.737
 31
0.0
  0
LINE
  5
115
330
18
100
AcDbEntity
  8
0
100
AcDbLine
 10
114.566
 20
208.013
 30
0.0
 11
120.479
 21
208.013
 31
0.0
  0
LINE
  5
116
330
18
100
AcDbEntity
  8
0
100
AcDbLine
 10
111.572
 20
194.263
 30
0.0
 11
111.572
 21
223.0129999999999
 31
0.0
  0
LINE
  5
117
330
18
100
AcDbEntity
  8
0
100
AcDbLine
 10
111.572
 20
175.6309999999999
 30
0.0
 11
111.572
 21
191.27
 31
0.0
  0
LINE
  5
118
330
18
100
AcDbEntity
  8
0
100
AcDbLine
 10
111.873
 20
192.388
 30
0.0
 11
128.2249999999999
 21
192.388
 31
0.0
  0
LINE
  5
119
330
18
100
AcDbEntity
  8
0
100
AcDbLine
 10
50.9466
 20
192.388
 30
0.0
 11
109.6969999999999
 21
192.388
 31
0.0
  0
ARC
  5
11A
330
18
100
AcDbEntity
  8
0
100
AcDbCircle
 10
109.625034
 20
194.335264
 30
0.0
 40
1.948486
100
AcDbArc
 50
272.1069089999999
 51
357.8825759999999
  0
LINE
  5
11B
330
18
100
AcDbEntity
  8
0
100
AcDbLine
 10
38.638
 20
192.388
 30
0.0
 11
47.9545
 21
192.388
 31
0.0
  0
LINE
  5
11C
330
18
100
AcDbEntity
  8
0
100
AcDbLine
 10
49.0717
 20
194.263
 30
0.0
 11
49.0717
 21
223.0129999999999
 31
0.0
  0
LINE
  5
11D
330
18
100
AcDbEntity
  8
0
100
AcDbLine
 10
49.0717
 20
175.6309999999999
 30
0.0
 11
49.0717
 21
191.27
 31
0.0
  0
ARC
  5
11E
330
18
100
AcDbEntity
  8
0
100
AcDbCircle
 10
51.018965
 20
194.335313
 30
0.0
 40
1.948563
100
AcDbArc
 50
182.118788
 51
267.870714
  0
LINE
  5
11F
330
18
100
AcDbEntity
  8
0
100
AcDbLine
 10
113.1229999999999
 20
223.638
 30
0.0
 11
128.2249999999999
 21
223.638
 31
0.0
  0
LINE
  5
120
330
18
100
AcDbEntity
  8
0
100
AcDbLine
 10
49.6967
 20
223.638
 30
0.0
 11
110.9469999999999
 21
223.638
 31
0.0
  0
ARC
  5
121
330
18
100
AcDbEntity
  8
0
100
AcDbCircle
 10
110.9233509999999
 20
222.98957
 30
0.0
 40
0.6492790000000001
100
AcDbArc
 50
2.109084
 51
87.89090599999999
  0
LINE
  5
122
330
18
100
AcDbEntity
  8
0
100
AcDbLine
 10
38.638
 20
223.638
 30
0.0
 11
46.7042
 21
223.638
 31
0.0
  0
ARC
  5
123
330
18
100
AcDbEntity
  8
0
100
AcDbCircle
 10
49.720173
 20
222.98997
 30
0.0
 40
0.6488649999999999
100
AcDbArc
 50
92.07508500000001
 51
177.924885
  0
LINE
  5
124
330
18
100
AcDbEntity
  8
_________2
100
AcDbLine
 10
210.24
 20
148.931
 30
0.0
 11
188.49
 21
148.931
 31
0.0
  0
LINE
  5
125
330
18
100
AcDbEntity
  8
_________2
100
AcDbLine
 10
105.2389999999999
 20
17.42849999999999
 30
0.0
 11
105.2389999999999
 21
0.4482100000000001
 31
0.0
  0
LINE
  5
126
330
18
100
AcDbEntity
  8
_________2
100
AcDbLine
 10
105.2389999999999
 20
297.4499999999999
 30
0.0
 11
105.2389999999999
 21
280.4299999999999
 31
0.0
  0
LINE
  5
127
330
18
100
AcDbEntity
  8
_________2
100
AcDbLine
 10
21.98849999999999
 20
148.931
 30
0.0
 11
0.238058
 21
148.931
 31
0.0
  0
LINE
  5
128
330
18
100
AcDbEntity
  8
_________2
100
AcDbLine
 10
81.67990000000001
 20
51.3243
 30
0.0
 11
79.4937
 21
51.3243
 31
0.0
  0
LINE
  5
129
330
18
100
AcDbEntity
  8
_________2
100
AcDbLine
 10
82.17260000000001
 20
51.3243
 30
0.0
 11
81.9204
 21
51.3243
 31
0.0
  0
LINE
  5
12A
330
18
100
AcDbEntity
  8
_________2
100
AcDbLine
 10
82.66519999999999
 20
51.3243
 30
0.0
 11
85.5901
 21
51.3243
 31
0.0
  0
LINE
  5
12B
330
18
100
AcDbEntity
  8
_________2
100
AcDbLine
 10
82.17260000000001
 20
51.3243
 30
0.0
 11
82.4248
 21
51.3243
 31
0.0
  0
LINE
  5
12C
330
18
100
AcDbEntity
  8
_________2
100
AcDbLine
 10
75.77639999999999
 20
51.3243
 30
0.0
 11
73.5894
 21
51.3243
 31
0.0
  0
LINE
  5
12D
330
18
100
AcDbEntity
  8
_________2
100
AcDbLine
 10
76.2684
 20
51.3243
 30
0.0
 11
76.01690000000001
 21
51.3243
 31
0.0
  0
LINE
  5
12E
330
18
100
AcDbEntity
  8
_________2
100
AcDbLine
 10
76.2684
 20
51.817
 30
0.0
 11
76.2684
 21
54.0039
 31
0.0
  0
LINE
  5
12F
330
18
100
AcDbEntity
  8
_________2
100
AcDbLine
 10
76.2684
 20
51.3243
 30
0.0
 11
76.2684
 21
51.5765
 31
0.0
  0
LINE
  5
130
330
18
100
AcDbEntity
  8
_________2
100
AcDbLine
 10
76.76100000000001
 20
51.3243
 30
0.0
 11
78.948
 21
51.3243
 31
0.0
  0
LINE
  5
131
330
18
100
AcDbEntity
  8
_________2
100
AcDbLine
 10
76.2684
 20
51.3243
 30
0.0
 11
76.5205
 21
51.3243
 31
0.0
  0
LINE
  5
132
330
18
100
AcDbEntity
  8
_________2
100
AcDbLine
 10
76.2684
 20
50.83239999999999
 30
0.0
 11
76.2684
 21
48.6454
 31
0.0
  0
LINE
  5
133
330
18
100
AcDbEntity
  8
_________2
100
AcDbLine
 10
76.2684
 20
51.3243
 30
0.0
 11
76.2684
 21
51.0728
 31
0.0
  0
LINE
  5
134
330
18
100
AcDbEntity
  8
_________2
100
AcDbLine
 10
79.97939999999999
 20
50.1048
 30
0.0
 11
85.15739999999999
 21
49.24
 31
0.0
  0
LINE
  5
135
330
18
100
AcDbEntity
  8
_________2
100
AcDbLine
 10
79.97939999999999
 20
52.5439
 30
0.0
 11
85.15739999999999
 21
53.4093
 31
0.0
  0
LINE
  5
136
330
18
100
AcDbEntity
  8
_________2
100
AcDbLine
 10
85.15739999999999
 20
49.24
 30
0.0
 11
85.15739999999999
 21
53.4093
 31
0.0
  0
LINE
  5
137
330
18
100
AcDbEntity
  8
_________2
100
AcDbLine
 10
79.97939999999999
 20
50.1048
 30
0.0
 11
79.97939999999999
 21
52.5439
 31
0.0
  0
ARC
  5
138
330
18
100
AcDbEntity
  8
_________2
100
AcDbCircle
 10
76.22211
 20
51.27736699999999
 30
0.0
 40
1.267370999999999
100
AcDbArc
 50
2.123295
 51
87.909056
  0
ARC
  5
139
330
18
100
AcDbEntity
  8
_________2
100
AcDbCircle
 10
76.31527300000001
 20
51.277401
 30
0.0
 40
1.267363
100
AcDbArc
 50
92.12178599999999
 51
177.878185
  0
ARC
  5
13A
330
18
100
AcDbEntity
  8
_________2
100
AcDbCircle
 10
76.31527300000001
 20
51.37124599999999
 30
0.0
 40
1.267363
100
AcDbArc
 50
182.1218149999999
 51
267.878214
  0
ARC
  5
13B
330
18
100
AcDbEntity
  8
_________2
100
AcDbCircle
 10
76.22146100000001
 20
51.37192899999999
 30
0.0
 40
1.268043999999999
100
AcDbArc
 50
272.119164
 51
357.8484849999999
  0
ARC
  5
13C
330
18
100
AcDbEntity
  8
_________2
100
AcDbCircle
 10
76.26834999999999
 20
51.324323
 30
0.0
 40
2.084984999999999
100
AcDbArc
 50
0.00001
 51
89.99998000000001
  0
ARC
  5
13D
330
18
100
AcDbEntity
  8
_________2
100
AcDbCircle
 10
76.348388
 20
51.24500199999999
 30
0.0
 40
2.165786
100
AcDbArc
 50
92.11785500000003
 51
177.9010529999999
  0
ARC
  5
13E
330
18
100
AcDbEntity
  8
_________2
100
AcDbCircle
 10
76.348354
 20
51.404327
 30
0.0
 40
2.165777999999999
100
AcDbArc
 50
182.117004
 51
267.8830249999999
  0
ARC
  5
13F
330
18
100
AcDbEntity
  8
_________2
100
AcDbCircle
 10
76.18837899999999
 20
51.40501
 30
0.0
 40
2.166459
100
AcDbArc
 50
272.115468
 51
357.865604
  0
TEXT
  5
140
330
18
100
AcDbEntity
  8
_________2
100
AcDbText
 10
109.5439999999999
 20
23.1991
 30
0.0
 40
3.09234
  1
図番
 41
0.5
100
AcDbText
  0
LINE
  5
141
330
18
100
AcDbEntity
  8
_________2
100
AcDbLine
 10
108.4889999999999
 20
27.4283
 30
0.0
 11
188.49
 21
27.4283
 31
0.0
  0
TEXT
  5
142
330
18
100
AcDbEntity
  8
_________2
100
AcDbText
 10
109.5439999999999
 20
33.1989
 30
0.0
 40
3.09234
  1
品番
 41
0.5
100
AcDbText
  0
TEXT
  5
143
330
18
100
AcDbEntity
  8
_________2
100
AcDbText
 10
109.5439999999999
 20
53.3377
 30
0.0
 40
3.09234
  1
名称
 41
0.5
100
AcDbText
  0
TEXT
  5
144
330
18
100
AcDbEntity
  8
_________2
100
AcDbText
 10
96.78405833333334
 20
48.34150000000001
 30
0.0
 40
3.65458
  1
mm
 41
0.5
 72
     1
 11
98.3068
 21
48.34150000000001
 31
0.0
100
AcDbText
  0
TEXT
  5
145
330
18
100
AcDbEntity
  8
_________2
100
AcDbText
 10
90.5821
 20
53.3377
 30
0.0
 40
3.09234
  1
単位
 41
0.5
100
AcDbText
  0
TEXT
  5
146
330
18
100
AcDbEntity
  8
_________2
100
AcDbText
 10
90.5821
 20
40.9304
 30
0.0
 40
3.09234
  1
尺度
 41
0.5
100
AcDbText
  0
TEXT
  5
147
330
18
100
AcDbEntity
  8
_________2
100
AcDbText
 10
95.48765866666668
 20
34.73749999999999
 30
0.0
 40
3.65458
  1
1 ： 8
 41
0.5
 72
     1
 11
98.8986
 21
34.73749999999999
 31
0.0
100
AcDbText
  0
TEXT
  5
148
330
18
100
AcDbEntity
  8
_________2
100
AcDbText
 10
138.4857624999999
 20
30.6274
 30
0.0
 40
3.9357
  1
DV070350-00
 41
0.5
 72
     1
 11
148.489
 21
30.6274
 31
0.0
100
AcDbText
  0
TEXT
  5
149
330
18
100
AcDbEntity
  8
_________2
100
AcDbText
 10
141.1095625
 20
20.62699999999999
 30
0.0
 40
3.9357
  1
DV070350
 41
0.5
 72
     1
 11
148.489
 21
20.62699999999999
 31
0.0
100
AcDbText
  0
TEXT
  5
14A
330
18
100
AcDbEntity
  8
_________2
100
AcDbText
 10
29.5257
 20
22.2269
 30
0.0
 40
3.9357
  1
実容量：2.6L、重量：10kg オーバーフロー付
 41
0.5
100
AcDbText
  0
TEXT
  5
14B
330
18
100
AcDbEntity
  8
_________2
100
AcDbText
 10
114.118
 20
45.7453
 30
0.0
 40
3.9357
  1
ヴェーロ　壁掛式手洗器
 41
0.5
100
AcDbText
  0
TEXT
  5
14C
330
18
100
AcDbEntity
  8
_________2
100
AcDbText
 10
44.30329066666667
 20
35.12259999999999
 30
0.0
 40
3.65458
  1
高橋
 41
0.5
 72
     1
 11
46.2524
 21
35.12259999999999
 31
0.0
100
AcDbText
  0
TEXT
  5
14D
330
18
100
AcDbEntity
  8
_________2
100
AcDbText
 10
25.72929066666667
 20
35.12259999999999
 30
0.0
 40
3.65458
  1
石原
 41
0.5
 72
     1
 11
27.6784
 21
35.12259999999999
 31
0.0
100
AcDbText
  0
TEXT
  5
14E
330
18
100
AcDbEntity
  8
_________2
100
AcDbText
 10
72.7247
 20
34.73749999999999
 30
0.0
 40
3.65458
  1
08.03.28
 41
0.5
100
AcDbText
  0
TEXT
  5
14F
330
18
100
AcDbEntity
  8
_________2
100
AcDbText
 10
71.532
 20
40.9304
 30
0.0
 40
3.09234
  1
日付
 41
0.5
100
AcDbText
  0
TEXT
  5
150
330
18
100
AcDbEntity
  8
_________2
100
AcDbText
 10
34.57829999999999
 20
40.9304
 30
0.0
 40
3.09234
  1
検図
 41
0.5
100
AcDbText
  0
TEXT
  5
151
330
18
100
AcDbEntity
  8
_________2
100
AcDbText
 10
22.96
 20
26.73099999999999
 30
0.0
 40
3.09234
  1
備考
 41
0.5
100
AcDbText
  0
TEXT
  5
152
330
18
100
AcDbEntity
  8
_________2
100
AcDbText
 10
22.96
 20
40.9304
 30
0.0
 40
3.09234
  1
製図
 41
0.5
100
AcDbText
  0
TEXT
  5
153
330
18
100
AcDbEntity
  8
_________2
100
AcDbText
 10
28.80233099999999
 20
49.4564
 30
0.0
 40
4.497939999999999
  1
セラトレーディング株式会社
 41
0.5
 72
     1
 11
46.11939999999999
 21
49.4564
 31
0.0
100
AcDbText
  0
LINE
  5
154
330
18
100
AcDbEntity
  8
_________2
100
AcDbLine
 10
188.49
 20
17.42849999999999
 30
0.0
 11
21.98849999999999
 21
17.42849999999999
 31
0.0
  0
LINE
  5
155
330
18
100
AcDbEntity
  8
_________2
100
AcDbLine
 10
21.98849999999999
 20
17.42849999999999
 30
0.0
 11
21.98849999999999
 21
280.4299999999999
 31
0.0
  0
LINE
  5
156
330
18
100
AcDbEntity
  8
_________2
100
AcDbLine
 10
21.98849999999999
 20
280.4299999999999
 30
0.0
 11
188.49
 21
280.4299999999999
 31
0.0
  0
LINE
  5
157
330
18
100
AcDbEntity
  8
_________2
100
AcDbLine
 10
188.49
 20
280.4299999999999
 30
0.0
 11
188.49
 21
17.42849999999999
 31
0.0
  0
LINE
  5
158
330
18
100
AcDbEntity
  8
_________2
100
AcDbLine
 10
70.4888
 20
30.9285
 30
0.0
 11
70.4888
 21
57.42840000000001
 31
0.0
  0
LINE
  5
159
330
18
100
AcDbEntity
  8
_________2
100
AcDbLine
 10
89.48860000000001
 20
30.9285
 30
0.0
 11
89.48860000000001
 21
57.42840000000001
 31
0.0
  0
LINE
  5
15A
330
18
100
AcDbEntity
  8
_________2
100
AcDbLine
 10
108.4889999999999
 20
17.42849999999999
 30
0.0
 11
108.4889999999999
 21
57.42840000000001
 31
0.0
  0
LINE
  5
15B
330
18
100
AcDbEntity
  8
_________2
100
AcDbLine
 10
33.4883
 20
30.9285
 30
0.0
 11
33.4883
 21
44.9288
 31
0.0
  0
LINE
  5
15C
330
18
100
AcDbEntity
  8
_________2
100
AcDbLine
 10
21.98849999999999
 20
30.9285
 30
0.0
 11
108.4889999999999
 21
30.9285
 31
0.0
  0
LINE
  5
15D
330
18
100
AcDbEntity
  8
_________2
100
AcDbLine
 10
21.98849999999999
 20
44.9288
 30
0.0
 11
108.4889999999999
 21
44.9288
 31
0.0
  0
LINE
  5
15E
330
18
100
AcDbEntity
  8
_________2
100
AcDbLine
 10
108.4889999999999
 20
37.4281
 30
0.0
 11
188.49
 21
37.4281
 31
0.0
  0
LINE
  5
15F
330
18
100
AcDbEntity
  8
_________2
100
AcDbLine
 10
21.98849999999999
 20
57.42840000000001
 30
0.0
 11
188.49
 21
57.42840000000001
 31
0.0
  0
LINE
  5
170
330
18
100
AcDbEntity
  8
0
  6
Continuous
100
AcDbLine
 10
170.3648382181465
 20
112.271549
 30
0.0
 11
170.9900915369078
 21
112.2645928386525
 31
0.0
  0
LINE
  5
171
330
18
100
AcDbEntity
  8
0
  6
Continuous
100
AcDbLine
 10
170.9900915369078
 20
112.2645928386525
 30
0.0
 11
170.99
 21
112.8959999999999
 31
0.0
  0
ENDSEC
  0
SECTION
  2
OBJECTS
  0
DICTIONARY
  5
C
330
0
100
AcDbDictionary
281
     1
  3
ACAD_GROUP
350
D
  3
ACAD_LAYOUT
350
165
  3
ACAD_MLINESTYLE
350
1B
  3
ACAD_PLOTSETTINGS
350
166
  3
ACAD_PLOTSTYLENAME
350
163
  0
DICTIONARY
  5
D
102
{ACAD_REACTORS
330
C
102
}
330
C
100
AcDbDictionary
281
     1
  0
DICTIONARY
  5
165
102
{ACAD_REACTORS
330
C
102
}
330
C
100
AcDbDictionary
281
     1
  3
Model
350
167
  3
ﾚｲｱｳﾄ1
350
168
  0
DICTIONARY
  5
1B
102
{ACAD_REACTORS
330
C
102
}
330
C
100
AcDbDictionary
281
     1
  3
STANDARD
350
1C
  0
DICTIONARY
  5
166
102
{ACAD_REACTORS
330
C
102
}
330
C
100
AcDbDictionary
281
     1
  0
ACDBDICTIONARYWDFLT
  5
163
102
{ACAD_REACTORS
330
C
102
}
330
C
100
AcDbDictionary
281
     1
  3
Normal
350
164
100
AcDbDictionaryWithDefault
340
164
  0
LAYOUT
  5
167
102
{ACAD_REACTORS
330
165
102
}
330
165
100
AcDbPlotSettings
  1

  2
FX DocuPrint 181 XPL2
  4

  6

 40
0.0
 41
0.0
 42
0.0
 43
0.0
 44
0.0
 45
0.0
 46
0.0
 47
0.0
 48
0.0
 49
0.0
140
0.0
141
0.0
142
1.0
143
1.0
 70
  1712
 72
     0
 73
     0
 74
     0
  7

 75
     0
147
1.0
148
0.0
149
0.0
100
AcDbLayout
  1
Model
 70
     1
 71
     0
 10
0.0
 20
0.0
 11
12.0
 21
9.0
 12
0.0
 22
0.0
 32
0.0
 14
0.0
 24
0.0
 34
0.0
 15
0.0
 25
0.0
 35
0.0
146
0.0
 13
0.0
 23
0.0
 33
0.0
 16
1.0
 26
0.0
 36
0.0
 17
0.0
 27
1.0
 37
0.0
 76
     0
330
18
  0
LAYOUT
  5
168
102
{ACAD_REACTORS
330
165
102
}
330
165
100
AcDbPlotSettings
  1

  2
FX DocuPrint 181 XPL2
  4

  6

 40
0.0
 41
0.0
 42
0.0
 43
0.0
 44
0.0
 45
0.0
 46
0.0
 47
0.0
 48
0.0
 49
0.0
140
0.0
141
0.0
142
1.0
143
1.0
 70
   688
 72
     0
 73
     0
 74
     5
  7

 75
    16
147
1.0
148
0.0
149
0.0
100
AcDbLayout
  1
ﾚｲｱｳﾄ1
 70
     1
 71
     1
 10
0.0
 20
0.0
 11
12.0
 21
9.0
 12
0.0
 22
0.0
 32
0.0
 14
1.000000000000000E+20
 24
1.000000000000000E+20
 34
1.000000000000000E+20
 15
-1.000000000000000E+20
 25
-1.000000000000000E+20
 35
-1.000000000000000E+20
146
0.0
 13
0.0
 23
0.0
 33
0.0
 16
1.0
 26
0.0
 36
0.0
 17
0.0
 27
1.0
 37
0.0
 76
     0
330
15
  0
MLINESTYLE
  5
1C
102
{ACAD_REACTORS
330
1B
102
}
330
1B
100
AcDbMlineStyle
  2
STANDARD
 70
     0
  3

 62
   256
 51
90.0
 52
90.0
 71
     2
 49
0.5
 62
   256
  6
BYLAYER
 49
-0.5
 62
   256
  6
BYLAYER
  0
ACDBPLACEHOLDER
  5
164
102
{ACAD_REACTORS
330
163
102
}
330
163
  0
ENDSEC
  0
EOF
