  0
SECTION
  2
HEADER
  9
$ACADVER
  1
AC1009
  9
$INSBASE
 10
0.0
 20
0.0
 30
0.0
  9
$EXTMIN
 10
-4.70052
 20
-21.070999999999991
 30
0.0
  9
$EXTMAX
 10
205.30099999999999
 20
275.93099999999993
 30
0.0
  9
$LIMMIN
 10
0.0
 20
0.0
  9
$LIMMAX
 10
12.0
 20
9.0
  9
$ORTHOMODE
 70
     0
  9
$REGENMODE
 70
     1
  9
$FILLMODE
 70
     1
  9
$QTEXTMODE
 70
     0
  9
$MIRRTEXT
 70
     1
  9
$DRAGMODE
 70
     2
  9
$LTSCALE
 40
1.0
  9
$OSMODE
 70
    37
  9
$ATTMODE
 70
     1
  9
$TEXTSIZE
 40
0.0
  9
$TRACEWID
 40
0.05
  9
$TEXTSTYLE
  7
STANDARD
  9
$CLAYER
  8
0
  9
$CELTYPE
  6
CONTINUOUS
  9
$CECOLOR
 62
   256
  9
$DIMSCALE
 40
1.0
  9
$DIMASZ
 40
0.18
  9
$DIMEXO
 40
0.0625
  9
$DIMDLI
 40
0.38
  9
$DIMRND
 40
0.0
  9
$DIMDLE
 40
0.0
  9
$DIMEXE
 40
0.18
  9
$DIMTP
 40
0.0
  9
$DIMTM
 40
0.0
  9
$DIMTXT
 40
0.18
  9
$DIMCEN
 40
0.09
  9
$DIMTSZ
 40
0.0
  9
$DIMTOL
 70
     0
  9
$DIMLIM
 70
     0
  9
$DIMTIH
 70
     1
  9
$DIMTOH
 70
     1
  9
$DIMSE1
 70
     0
  9
$DIMSE2
 70
     0
  9
$DIMTAD
 70
     0
  9
$DIMZIN
 70
     0
  9
$DIMBLK
  1

  9
$DIMASO
 70
     1
  9
$DIMSHO
 70
     1
  9
$DIMPOST
  1

  9
$DIMAPOST
  1

  9
$DIMALT
 70
     0
  9
$DIMALTD
 70
     2
  9
$DIMALTF
 40
25.399999999999999
  9
$DIMLFAC
 40
1.0
  9
$DIMTOFL
 70
     0
  9
$DIMTVP
 40
0.0
  9
$DIMTIX
 70
     0
  9
$DIMSOXD
 70
     0
  9
$DIMSAH
 70
     0
  9
$DIMBLK1
  1

  9
$DIMBLK2
  1

  9
$DIMSTYLE
  2
STANDARD
  9
$DIMCLRD
 70
     0
  9
$DIMCLRE
 70
     0
  9
$DIMCLRT
 70
     0
  9
$DIMTFAC
 40
1.0
  9
$DIMGAP
 40
0.09
  9
$LUNITS
 70
     2
  9
$LUPREC
 70
     4
  9
$SKETCHINC
 40
0.1
  9
$FILLETRAD
 40
0.0
  9
$AUNITS
 70
     0
  9
$AUPREC
 70
     0
  9
$MENU
  1
.
  9
$ELEVATION
 40
0.0
  9
$PELEVATION
 40
0.0
  9
$THICKNESS
 40
0.0
  9
$LIMCHECK
 70
     0
  9
$BLIPMODE
 70
     0
  9
$CHAMFERA
 40
0.0
  9
$CHAMFERB
 40
0.0
  9
$SKPOLY
 70
     0
  9
$TDCREATE
 40
2444972.375
  9
$TDUPDATE
 40
2453620.255842546
  9
$TDINDWG
 40
0.0000133218
  9
$TDUSRTIMER
 40
0.0000133218
  9
$USRTIMER
 70
     1
  9
$ANGBASE
 50
0.0
  9
$ANGDIR
 70
     0
  9
$PDMODE
 70
     0
  9
$PDSIZE
 40
0.0
  9
$PLINEWID
 40
0.0
  9
$COORDS
 70
     1
  9
$SPLFRAME
 70
     0
  9
$SPLINETYPE
 70
     6
  9
$SPLINESEGS
 70
     8
  9
$ATTDIA
 70
     0
  9
$ATTREQ
 70
     1
  9
$HANDLING
 70
 22529
  9
$HANDSEED
  5
166
  9
$SURFTAB1
 70
     6
  9
$SURFTAB2
 70
     6
  9
$SURFTYPE
 70
     6
  9
$SURFU
 70
     6
  9
$SURFV
 70
     6
  9
$UCSNAME
  2

  9
$UCSORG
 10
0.0
 20
0.0
 30
0.0
  9
$UCSXDIR
 10
1.0
 20
0.0
 30
0.0
  9
$UCSYDIR
 10
0.0
 20
1.0
 30
0.0
  9
$PUCSNAME
  2

  9
$PUCSORG
 10
0.0
 20
0.0
 30
0.0
  9
$PUCSXDIR
 10
1.0
 20
0.0
 30
0.0
  9
$PUCSYDIR
 10
0.0
 20
1.0
 30
0.0
  9
$USERI1
 70
     0
  9
$USERI2
 70
     0
  9
$USERI3
 70
     0
  9
$USERI4
 70
     0
  9
$USERI5
 70
     0
  9
$USERR1
 40
0.0
  9
$USERR2
 40
0.0
  9
$USERR3
 40
0.0
  9
$USERR4
 40
0.0
  9
$USERR5
 40
0.0
  9
$WORLDVIEW
 70
     1
  9
$SHADEDGE
 70
     3
  9
$SHADEDIF
 70
    70
  9
$TILEMODE
 70
     1
  9
$MAXACTVP
 70
    48
  9
$PLIMCHECK
 70
     0
  9
$PEXTMIN
 10
1.0000000000000000E+020
 20
1.0000000000000000E+020
 30
1.0000000000000000E+020
  9
$PEXTMAX
 10
-1.0000000000000000E+020
 20
-1.0000000000000000E+020
 30
-1.0000000000000000E+020
  9
$PLIMMIN
 10
0.0
 20
0.0
  9
$PLIMMAX
 10
12.0
 20
9.0
  9
$UNITMODE
 70
     0
  9
$VISRETAIN
 70
     1
  9
$PLINEGEN
 70
     0
  9
$PSLTSCALE
 70
     1
  0
ENDSEC
  0
SECTION
  2
TABLES
  0
TABLE
  2
VPORT
 70
     2
  0
VPORT
  2
*ACTIVE
 70
     0
 10
0.0
 20
0.0
 11
1.0
 21
1.0
 12
189.56073629873211
 22
127.42999999999989
 13
0.0
 23
0.0
 14
1.0
 24
1.0
 15
0.0
 25
0.0
 16
0.0
 26
0.0
 36
1.0
 17
0.0
 27
0.0
 37
0.0
 40
299.24634760705283
 41
2.1842105263157889
 42
50.0
 43
0.0
 44
0.0
 50
0.0
 51
0.0
 71
     0
 72
   100
 73
     1
 74
     1
 75
     0
 76
     0
 77
     0
 78
     0
  0
ENDTAB
  0
TABLE
  2
LTYPE
 70
     3
  0
LTYPE
  2
CONTINUOUS
 70
     0
  3
Solid line
 72
    65
 73
     0
 40
0.0
  0
LTYPE
  2
AIGENLINE001
 70
     0
  3
generate AI->DXF Converter
 72
    65
 73
     4
 40
5.1241209999999988
 49
3.0868299999999991
 49
-0.6790970000000001
 49
0.6790970000000001
 49
-0.6790970000000001
  0
LTYPE
  2
AIGENLINE002
 70
     0
  3
generate AI->DXF Converter
 72
    65
 73
     2
 40
1.3581939999999999
 49
0.6790970000000001
 49
-0.6790970000000001
  0
ENDTAB
  0
TABLE
  2
LAYER
 70
     2
  0
LAYER
  2
0
 70
     0
 62
     7
  6
CONTINUOUS
  0
LAYER
  2
_________2
 70
     0
 62
     7
  6
CONTINUOUS
  0
ENDTAB
  0
TABLE
  2
STYLE
 70
     1
  0
STYLE
  2
STANDARD
 70
     0
 40
0.0
 41
0.0
 50
0.0
 71
     0
 42
0.0
  3
TXT
  4
EXTFONT.SHX
  0
ENDTAB
  0
TABLE
  2
VIEW
 70
     0
  0
ENDTAB
  0
TABLE
  2
UCS
 70
     0
  0
ENDTAB
  0
TABLE
  2
APPID
 70
     1
  0
APPID
  2
ACAD
 70
     0
  0
ENDTAB
  0
TABLE
  2
DIMSTYLE
 70
     1
  0
DIMSTYLE
  2
STANDARD
 70
     0
  3

  4

  5

  6

  7

 40
1.0
 41
0.18
 42
0.0625
 43
0.38
 44
0.18
 45
0.0
 46
0.0
 47
0.0
 48
0.0
140
0.18
141
0.09
142
0.0
143
25.399999999999999
144
1.0
145
0.0
146
1.0
147
0.09
 71
     0
 72
     0
 73
     1
 74
     1
 75
     0
 76
     0
 77
     0
 78
     0
170
     0
171
     2
172
     0
173
     0
174
     0
175
     0
176
     0
177
     0
178
     0
  0
ENDTAB
  0
ENDSEC
  0
SECTION
  2
BLOCKS
  0
BLOCK
  8
0
  2
$MODEL_SPACE
 70
     0
 10
0.0
 20
0.0
 30
0.0
  3
$MODEL_SPACE
  1

  0
ENDBLK
  5
1A
  8
0
  0
BLOCK
 67
     1
  8
0
  2
$PAPER_SPACE
 70
     0
 10
0.0
 20
0.0
 30
0.0
  3
$PAPER_SPACE
  1

  0
ENDBLK
  5
17
 67
     1
  8
0
  0
ENDSEC
  0
SECTION
  2
ENTITIES
  0
TEXT
  5
23
  8
0
 62
     7
 10
41.878
 20
97.851085999999995
 30
0.0
 40
3.0923400000000001
  1
60±10
 50
90.0
 41
0.5
 72
     2
 11
41.878
 21
104.3449999999999
 31
0.0
  0
TEXT
  5
24
  8
0
 62
     7
 10
35.80919999999999
 20
97.042029999999997
 30
0.0
 40
3.0923400000000001
  1
100
 50
90.0
 41
0.5
 72
     1
 11
35.80919999999999
 21
98.588200000000015
 31
0.0
  0
TEXT
  5
25
  8
0
 62
     7
 10
100.8589999999999
 20
93.841582500000001
 30
0.0
 40
3.0923400000000001
  1
150
 50
90.0
 41
0.5
 72
     1
 11
100.8589999999999
 21
95.516599999999997
 31
0.0
  0
TEXT
  5
26
  8
0
 62
     7
 10
99.643100000000004
 20
201.27237249999999
 30
0.0
 40
3.0923400000000001
  1
60
 50
90.0
 41
0.5
 72
     1
 11
99.643100000000004
 21
202.43199999999999
 31
0.0
  0
TEXT
  5
27
  8
0
 62
     7
 10
34.052900000000001
 20
181.0512875
 30
0.0
 40
3.0923400000000001
  1
380
 50
90.0
 41
0.5
 72
     1
 11
34.052900000000001
 21
182.98400000000001
 31
0.0
  0
TEXT
  5
28
  8
0
 62
     7
 10
41.3309
 20
191.8661349999999
 30
0.0
 40
3.0923400000000001
  1
200
 50
90.0
 41
0.5
 72
     1
 11
41.3309
 21
193.6699999999999
 31
0.0
  0
TEXT
  5
29
  8
0
 62
     7
 10
97.627740000000003
 20
210.25700000000001
 30
0.0
 40
3.0923400000000001
  1
%%c35
 41
0.5
 72
     1
 11
99.689300000000003
 21
210.25700000000001
 31
0.0
  0
TEXT
  5
2A
  8
0
 62
     7
 10
76.935817469382954
 20
175.3873113275601
 30
0.0
 40
3.0923400000000001
  1
%%c300
 50
2.06128
 41
0.5
 72
     1
 11
79.511099999999985
 21
175.4799999999999
 31
0.0
  0
TEXT
  5
2B
  8
0
 62
     7
 10
79.023240000000001
 20
188.4079999999999
 30
0.0
 40
3.0923400000000001
  1
%%c46
 41
0.5
 72
     1
 11
81.084800000000001
 21
188.4079999999999
 31
0.0
  0
TEXT
  5
2C
  8
0
 62
     7
 10
69.623435000000001
 20
112.78099999999991
 30
0.0
 40
3.0923400000000001
  1
200
 41
0.5
 72
     1
 11
71.427300000000002
 21
112.78099999999991
 31
0.0
  0
TEXT
  5
2D
  8
0
 62
     7
 10
77.24503
 20
214.07599999999991
 30
0.0
 40
3.0923400000000001
  1
115
 41
0.5
 72
     1
 11
78.791200000000003
 21
214.07599999999991
 31
0.0
  0
TEXT
  5
2E
  8
0
 62
     7
 10
69.586587500000007
 20
150.57299999999989
 30
0.0
 40
3.0923400000000001
  1
360
 41
0.5
 72
     1
 11
71.519300000000001
 21
150.57299999999989
 31
0.0
  0
ARC
  5
2F
  8
0
 62
     7
 10
71.707156999999995
 20
136.436353
 30
0.0
 40
48.618301000000002
 50
269.91437899999988
 51
275.44662499999993
  0
ARC
  5
30
  8
0
 62
     7
 10
73.790193000000002
 20
111.57536899999999
 30
0.0
 40
23.673573999999991
 50
276.13914699999998
 51
281.42600199999993
  0
ARC
  5
31
  8
0
 62
     7
 10
75.760131000000001
 20
101.519066
 30
0.0
 40
13.426463
 50
281.68749400000002
 51
293.4939589999999
  0
ARC
  5
32
  8
0
 62
     7
 10
77.660620999999992
 20
96.807907999999998
 30
0.0
 40
8.3493099999999991
 50
294.42158699999987
 51
328.23769199999992
  0
ARC
  5
33
  8
0
 62
     7
 10
71.504578000000009
 20
135.2169759999999
 30
0.0
 40
47.399048000000001
 50
264.48217799999998
 51
270.15705400000002
  0
ARC
  5
34
  8
0
 62
     7
 10
69.478705000000005
 20
111.5747409999999
 30
0.0
 40
23.672957999999991
 50
258.57372299999992
 51
263.86052100000001
  0
ARC
  5
35
  8
0
 62
     7
 10
67.508808000000002
 20
101.518776
 30
0.0
 40
13.426188
 50
246.50566599999999
 51
258.31211000000002
  0
ARC
  5
36
  8
0
 62
     7
 10
65.608395000000002
 20
96.807907000000014
 30
0.0
 40
8.3493300000000001
 50
211.76223300000001
 51
245.5781089999999
  0
LINE
  5
37
  8
0
  6
AIGENLINE001
 62
     7
 10
166.69900000000001
 20
97.412400000000005
 30
0.0
 11
174.404
 21
97.412400000000005
 31
0.0
  0
LINE
  5
38
  8
0
 62
     7
 10
141.5449999999999
 20
89.177499999999995
 30
0.0
 11
150.8899999999999
 21
89.177499999999995
 31
0.0
  0
LINE
  5
39
  8
0
 62
     7
 10
154.80299999999991
 20
89.545100000000005
 30
0.0
 11
168.35400000000001
 21
90.710999999999984
 31
0.0
  0
ARC
  5
3A
  8
0
 62
     7
 10
154.79495499999999
 20
89.749232999999975
 30
0.0
 40
0.214485
 50
124.08886099999999
 51
210.22495299999991
  0
ARC
  5
3B
  8
0
 62
     7
 10
154.78780699999999
 20
89.757218999999992
 30
0.0
 40
0.212588
 50
213.055736
 51
273.97800699999999
  0
LINE
  5
3C
  8
0
 62
     7
 10
169.42500000000001
 20
101.7239999999999
 30
0.0
 11
169.42500000000001
 21
91.877499999999984
 31
0.0
  0
ARC
  5
3D
  8
0
 62
     7
 10
168.21327899999989
 20
91.915057999999988
 30
0.0
 40
1.2123129999999991
 50
276.67845999999997
 51
358.22407700000002
  0
LINE
  5
3E
  8
0
 62
     7
 10
171.21799999999999
 20
101.79300000000001
 30
0.0
 11
170.821
 21
101.456
 31
0.0
  0
LINE
  5
3F
  8
0
 62
     7
 10
170.64699999999999
 20
101.0799999999999
 30
0.0
 11
170.64699999999999
 21
89.758700000000005
 31
0.0
  0
ARC
  5
40
  8
0
 62
     7
 10
171.14998
 20
101.075413
 30
0.0
 40
0.503008
 50
130.901895
 51
179.46781399999989
  0
LINE
  5
41
  8
0
 62
     7
 10
169.84899999999999
 20
102.333
 30
0.0
 11
169.61500000000001
 21
102.1339999999999
 31
0.0
  0
ARC
  5
42
  8
0
 62
     7
 10
169.97133600000001
 20
101.719902
 30
0.0
 40
0.546338
 50
130.779946
 51
179.608688
  0
LINE
  5
43
  8
0
 62
     7
 10
169.97900000000001
 20
103.28700000000001
 30
0.0
 11
169.97900000000001
 21
102.6149999999999
 31
0.0
  0
ARC
  5
44
  8
0
 62
     7
 10
169.60101499999999
 20
102.618362
 30
0.0
 40
0.37833
 50
310.97631200000001
 51
359.473412
  0
LINE
  5
45
  8
0
 62
     7
 10
169.65899999999999
 20
103.607
 30
0.0
 11
166.369
 21
103.607
 31
0.0
  0
ARC
  5
46
  8
0
 62
     7
 10
169.6466879999999
 20
103.274781
 30
0.0
 40
0.332868
 50
2.1084009999999989
 51
87.891588999999996
  0
ARC
  5
47
  8
0
 62
     7
 10
166.379154
 20
103.00195600000001
 30
0.0
 40
0.6055540000000002
 50
90.975243000000006
 51
157.33003600000001
  0
LINE
  5
48
  8
0
 62
     7
 10
149.25999999999991
 20
87.588999999999999
 30
0.0
 11
149.25999999999991
 21
86.162700000000001
 31
0.0
  0
LINE
  5
49
  8
0
 62
     7
 10
149.52799999999991
 20
88.133300000000006
 30
0.0
 11
150.63599999999991
 21
88.989099999999979
 31
0.0
  0
ARC
  5
4A
  8
0
 62
     7
 10
149.95876699999991
 20
87.583381000000017
 30
0.0
 40
0.69874
 50
128.087908
 51
179.53870900000001
  0
ARC
  5
4B
  8
0
 62
     7
 10
155.562072
 20
82.596543999999994
 30
0.0
 40
8.0705690000000008
 50
111.55763
 51
127.61941899999999
  0
ARC
  5
4C
  8
0
 62
     7
 10
146.4826709999999
 20
105.558211
 30
0.0
 40
16.621002999999991
 50
291.58286399999997
 51
317.16315800000001
  0
ARC
  5
4D
  8
0
 62
     7
 10
165.95470399999991
 20
103.7183109999999
 30
0.0
 40
1.1943189999999999
 50
91.039368999999979
 51
159.53410199999999
  0
ARC
  5
4E
  8
0
 62
     7
 10
139.57914199999991
 20
113.03586899999991
 30
0.0
 40
26.778618000000002
 50
315.4726609999999
 51
340.58988499999992
  0
ARC
  5
4F
  8
0
 62
     7
 10
139.78669099999991
 20
113.716212
 30
0.0
 40
28.063984000000001
 50
302.03950600000002
 51
338.07216499999993
  0
LINE
  5
50
  8
0
 62
     7
 10
131.762
 20
93.876299999999986
 30
0.0
 11
133.108
 21
92.799700000000001
 31
0.0
  0
LINE
  5
51
  8
0
 62
     7
 10
141.53
 20
87.192099999999996
 30
0.0
 11
141.53
 21
86.162700000000001
 31
0.0
  0
ARC
  5
52
  8
0
 62
     7
 10
139.92768000000001
 20
87.159481999999997
 30
0.0
 40
1.6028929999999999
 50
1.1670359999999991
 51
71.598945000000001
  0
ARC
  5
53
  8
0
 62
     7
 10
146.43032400000001
 20
107.91741499999991
 30
0.0
 40
20.150166999999989
 50
228.61207899999999
 51
252.7276159999999
  0
LINE
  5
54
  8
0
 62
     7
 10
143.17599999999999
 20
87.588999999999999
 30
0.0
 11
143.17599999999999
 21
86.162700000000001
 31
0.0
  0
LINE
  5
55
  8
0
 62
     7
 10
142.9079999999999
 20
88.133300000000006
 30
0.0
 11
141.80000000000001
 21
88.989099999999979
 31
0.0
  0
ARC
  5
56
  8
0
 62
     7
 10
142.477498
 20
87.583669
 30
0.0
 40
0.6981510000000001
 50
0.4379920000000001
 51
51.935352000000002
  0
ARC
  5
57
  8
0
 62
     7
 10
136.88516699999991
 20
82.619338999999997
 30
0.0
 40
8.0452469999999998
 50
52.348625000000013
 51
68.456993000000011
  0
ARC
  5
58
  8
0
 62
     7
 10
145.94286199999999
 20
105.543885
 30
0.0
 40
16.603822999999998
 50
222.82441499999999
 51
248.43263200000001
  0
LINE
  5
59
  8
0
 62
     7
 10
126.5029999999999
 20
104.91200000000001
 30
0.0
 11
171.21799999999999
 21
104.91200000000001
 31
0.0
  0
LINE
  5
5A
  8
0
 62
     7
 10
124.967
 20
104.91200000000001
 30
0.0
 11
126.5029999999999
 21
104.91200000000001
 31
0.0
  0
ARC
  5
5B
  8
0
 62
     7
 10
126.48083099999999
 20
103.718108
 30
0.0
 40
1.194523999999999
 50
20.47257699999999
 51
88.953913
  0
ARC
  5
5C
  8
0
 62
     7
 10
152.860985
 20
113.0373139999999
 30
0.0
 40
26.783294000000001
 50
199.40988699999991
 51
224.52185399999999
  0
LINE
  5
5D
  8
0
 62
     7
 10
151.55500000000001
 20
88.117099999999994
 30
0.0
 11
171.21799999999999
 21
89.808400000000006
 31
0.0
  0
LINE
  5
5E
  8
0
 62
     7
 10
150.905
 20
87.473900000000015
 30
0.0
 11
151.1929999999999
 21
87.903899999999993
 31
0.0
  0
ARC
  5
5F
  8
0
 62
     7
 10
151.60157599999991
 20
87.625022000000001
 30
0.0
 40
0.4943020000000001
 50
95.385019999999983
 51
145.65567799999991
  0
LINE
  5
60
  8
0
 62
     7
 10
125.631
 20
92.412899999999993
 30
0.0
 11
133.56
 21
92.412899999999993
 31
0.0
  0
LINE
  5
61
  8
0
 62
     7
 10
124.967
 20
92.412899999999993
 30
0.0
 11
125.631
 21
92.412899999999993
 31
0.0
  0
ARC
  5
62
  8
0
 62
     7
 10
125.618047
 20
93.614331000000007
 30
0.0
 40
1.201546
 50
270.63528400000001
 51
327.93652099999991
  0
LINE
  5
63
  8
0
 62
     7
 10
126.089
 20
103.607
 30
0.0
 11
125.3209999999999
 21
103.607
 31
0.0
  0
ARC
  5
64
  8
0
 62
     7
 10
126.08013699999999
 20
103.03733200000001
 30
0.0
 40
0.5701520000000001
 50
22.554473000000002
 51
89.15594200000001
  0
LINE
  5
65
  8
0
 62
     7
 10
124.8799999999999
 20
103.166
 30
0.0
 11
124.8799999999999
 21
94.081699999999998
 31
0.0
  0
ARC
  5
66
  8
0
 62
     7
 10
125.3377909999999
 20
103.1492889999999
 30
0.0
 40
0.4584430000000001
 50
92.103534999999994
 51
177.94114500000001
  0
ARC
  5
67
  8
0
 62
     7
 10
131.1117899999999
 20
95.418956999999992
 30
0.0
 40
0.193989
 50
247.35564099999999
 51
333.33729299999999
  0
ARC
  5
68
  8
0
 62
     7
 10
131.11921499999991
 20
95.410263999999984
 30
0.0
 40
0.183506
 50
334.72287499999987
 51
359.95239900000001
  0
ARC
  5
69
  8
0
 62
     7
 10
131.11139199999991
 20
95.409071999999995
 30
0.0
 40
0.191331
 50
0.311101
 51
44.464095
  0
ARC
  5
6A
  8
0
 62
     7
 10
125.5288249999999
 20
94.10556600000001
 30
0.0
 40
0.64962
 50
182.10772800000001
 51
267.89230099999992
  0
ARC
  5
6B
  8
0
 62
     7
 10
125.498272
 20
94.092555999999988
 30
0.0
 40
0.636205
 50
270.59987000000001
 51
327.37624599999992
  0
ARC
  5
6C
  8
0
 62
     7
 10
129.6165399999999
 20
90.982184999999987
 30
0.0
 40
3.6031769999999992
 50
53.429918999999998
 51
139.19443499999991
  0
ARC
  5
6D
  8
0
 62
     7
 10
129.7208169999999
 20
91.080918999999994
 30
0.0
 40
3.6204059999999991
 50
141.456199
 51
148.427491
  0
ARC
  5
6E
  8
0
 62
     7
 10
129.43628200000001
 20
91.472293999999977
 30
0.0
 40
4.0936099999999991
 50
66.979934999999983
 51
146.21137300000001
  0
ARC
  5
6F
  8
0
 62
     7
 10
152.535751
 20
113.60507199999989
 30
0.0
 40
27.917701000000001
 50
201.760244
 51
220.341553
  0
LINE
  5
70
  8
0
 62
     7
 10
150.905
 20
87.473900000000015
 30
0.0
 11
150.905
 21
86.162700000000001
 31
0.0
  0
LINE
  5
71
  8
0
 62
     7
 10
143.0089999999999
 20
88.037599999999998
 30
0.0
 11
149.42599999999999
 21
88.037599999999998
 31
0.0
  0
LINE
  5
72
  8
0
 62
     7
 10
141.53
 20
86.162700000000001
 30
0.0
 11
150.905
 21
86.162700000000001
 31
0.0
  0
LINE
  5
73
  8
0
  6
AIGENLINE001
 62
     7
 10
146.2179999999999
 20
107.065
 30
0.0
 11
146.2179999999999
 21
83.915499999999994
 31
0.0
  0
LINE
  5
74
  8
0
 62
     7
 10
171.21799999999999
 20
104.91200000000001
 30
0.0
 11
171.21799999999999
 21
89.808400000000006
 31
0.0
  0
LINE
  5
75
  8
0
 62
     7
 10
123.7179999999999
 20
103.6629999999999
 30
0.0
 11
123.7179999999999
 21
93.662700000000001
 31
0.0
  0
ARC
  5
76
  8
0
 62
     7
 10
124.967494
 20
93.662746999999996
 30
0.0
 40
1.249887999999999
 50
179.99996999999991
 51
270.00002000000001
  0
ARC
  5
77
  8
0
 62
     7
 10
124.9674949999999
 20
103.66254499999999
 30
0.0
 40
1.249889
 50
90.0
 51
179.99996999999991
  0
LINE
  5
78
  8
0
 62
     7
 10
101.30500000000001
 20
88.096800000000002
 30
0.0
 11
101.82299999999989
 21
86.162700000000001
 31
0.0
  0
LINE
  5
79
  8
0
 62
     7
 10
101.82299999999989
 20
86.162700000000001
 30
0.0
 11
102.34099999999999
 21
88.096800000000002
 31
0.0
  0
LINE
  5
7A
  8
0
 62
     7
 10
102.34099999999999
 20
88.096800000000002
 30
0.0
 11
101.30500000000001
 21
88.096800000000002
 31
0.0
  0
LINE
  5
7B
  8
0
 62
     7
 10
102.32899999999999
 20
102.97799999999989
 30
0.0
 11
101.81100000000001
 21
104.9129999999999
 31
0.0
  0
LINE
  5
7C
  8
0
 62
     7
 10
101.81100000000001
 20
104.9129999999999
 30
0.0
 11
101.29299999999991
 21
102.97799999999989
 31
0.0
  0
LINE
  5
7D
  8
0
 62
     7
 10
101.29299999999991
 20
102.97799999999989
 30
0.0
 11
102.32899999999999
 21
102.97799999999989
 31
0.0
  0
LINE
  5
7E
  8
0
 62
     7
 10
101.81699999999999
 20
86.162700000000001
 30
0.0
 11
101.81699999999999
 21
104.91200000000001
 31
0.0
  0
LINE
  5
7F
  8
0
 62
     7
 10
102.471
 20
104.91200000000001
 30
0.0
 11
94.495800000000003
 21
104.91200000000001
 31
0.0
  0
LINE
  5
80
  8
0
 62
     7
 10
102.471
 20
86.162700000000001
 30
0.0
 11
77.332400000000007
 21
86.162700000000001
 31
0.0
  0
LINE
  5
81
  8
0
 62
     7
 10
76.321899999999999
 20
88.037599999999998
 30
0.0
 11
76.321899999999999
 21
86.162700000000001
 31
0.0
  0
LINE
  5
82
  8
0
 62
     7
 10
66.946899999999999
 20
88.037599999999998
 30
0.0
 11
66.946899999999999
 21
86.162700000000001
 31
0.0
  0
LINE
  5
83
  8
0
 62
     7
 10
66.946899999999999
 20
86.162700000000001
 30
0.0
 11
76.321899999999999
 21
86.162700000000001
 31
0.0
  0
LINE
  5
84
  8
0
 62
     7
 10
36.166800000000002
 20
94.346900000000005
 30
0.0
 11
36.685000000000002
 21
92.412899999999993
 31
0.0
  0
LINE
  5
85
  8
0
 62
     7
 10
36.685000000000002
 20
92.412899999999993
 30
0.0
 11
37.203299999999999
 21
94.346900000000005
 31
0.0
  0
LINE
  5
86
  8
0
 62
     7
 10
37.203299999999999
 20
94.346900000000005
 30
0.0
 11
36.166800000000002
 21
94.346900000000005
 31
0.0
  0
LINE
  5
87
  8
0
 62
     7
 10
37.190600000000003
 20
102.97799999999989
 30
0.0
 11
36.672400000000003
 21
104.9129999999999
 31
0.0
  0
LINE
  5
88
  8
0
 62
     7
 10
36.672400000000003
 20
104.9129999999999
 30
0.0
 11
36.1541
 21
102.97799999999989
 31
0.0
  0
LINE
  5
89
  8
0
 62
     7
 10
36.1541
 20
102.97799999999989
 30
0.0
 11
37.190600000000003
 21
102.97799999999989
 31
0.0
  0
LINE
  5
8A
  8
0
 62
     7
 10
36.678800000000003
 20
92.412899999999993
 30
0.0
 11
36.678800000000003
 21
104.91200000000001
 31
0.0
  0
LINE
  5
8B
  8
0
 62
     7
 10
36.1233
 20
92.412899999999993
 30
0.0
 11
49.014400000000002
 21
92.412899999999993
 31
0.0
  0
LINE
  5
8C
  8
0
 62
     7
 10
42.572699999999998
 20
99.346800000000002
 30
0.0
 11
43.090999999999987
 21
97.412400000000005
 31
0.0
  0
LINE
  5
8D
  8
0
 62
     7
 10
43.090999999999987
 20
97.412400000000005
 30
0.0
 11
43.60929999999999
 21
99.346800000000002
 31
0.0
  0
LINE
  5
8E
  8
0
 62
     7
 10
43.60929999999999
 20
99.346800000000002
 30
0.0
 11
42.572699999999998
 21
99.346800000000002
 31
0.0
  0
LINE
  5
8F
  8
0
 62
     7
 10
43.596400000000003
 20
102.97799999999989
 30
0.0
 11
43.078299999999999
 21
104.9129999999999
 31
0.0
  0
LINE
  5
90
  8
0
 62
     7
 10
43.078299999999999
 20
104.9129999999999
 30
0.0
 11
42.559899999999992
 21
102.97799999999989
 31
0.0
  0
LINE
  5
91
  8
0
 62
     7
 10
42.559899999999992
 20
102.97799999999989
 30
0.0
 11
43.596400000000003
 21
102.97799999999989
 31
0.0
  0
LINE
  5
92
  8
0
 62
     7
 10
43.084600000000002
 20
97.412400000000005
 30
0.0
 11
43.084600000000002
 21
104.91200000000001
 31
0.0
  0
LINE
  5
93
  8
0
 62
     7
 10
36.049199999999992
 20
104.91200000000001
 30
0.0
 11
49.069800000000001
 21
104.91200000000001
 31
0.0
  0
LINE
  5
94
  8
0
 62
     7
 10
42.417999999999999
 20
97.412400000000005
 30
0.0
 11
55.229399999999998
 21
97.412400000000005
 31
0.0
  0
LINE
  5
95
  8
0
 62
     7
 10
82.200500000000005
 20
111.33499999999999
 30
0.0
 11
84.134600000000006
 21
111.854
 31
0.0
  0
LINE
  5
96
  8
0
 62
     7
 10
84.134600000000006
 20
111.854
 30
0.0
 11
82.200500000000005
 21
112.372
 31
0.0
  0
LINE
  5
97
  8
0
 62
     7
 10
82.200500000000005
 20
112.372
 30
0.0
 11
82.200500000000005
 21
111.33499999999999
 31
0.0
  0
LINE
  5
98
  8
0
 62
     7
 10
61.068300000000001
 20
112.3589999999999
 30
0.0
 11
59.1342
 21
111.84099999999999
 31
0.0
  0
LINE
  5
99
  8
0
 62
     7
 10
59.1342
 20
111.84099999999999
 30
0.0
 11
61.068300000000001
 21
111.322
 31
0.0
  0
LINE
  5
9A
  8
0
 62
     7
 10
61.068300000000001
 20
111.322
 30
0.0
 11
61.068300000000001
 21
112.3589999999999
 31
0.0
  0
LINE
  5
9B
  8
0
 62
     7
 10
84.134600000000006
 20
111.84699999999999
 30
0.0
 11
59.1342
 21
111.84699999999999
 31
0.0
  0
LINE
  5
9C
  8
0
 62
     7
 10
84.134600000000006
 20
100.6139999999999
 30
0.0
 11
84.134600000000006
 21
112.402
 31
0.0
  0
LINE
  5
9D
  8
0
  6
AIGENLINE001
 62
     7
 10
86.963399999999993
 20
97.412400000000005
 30
0.0
 11
81.045699999999997
 21
97.412400000000005
 31
0.0
  0
LINE
  5
9E
  8
0
  6
AIGENLINE001
 62
     7
 10
84.134600000000006
 20
99.934900000000013
 30
0.0
 11
84.134600000000006
 21
94.692099999999996
 31
0.0
  0
LINE
  5
9F
  8
0
  6
AIGENLINE002
 62
     7
 10
83.509600000000006
 20
98.662999999999997
 30
0.0
 11
84.759500000000003
 21
98.662999999999997
 31
0.0
  0
LINE
  5
A0
  8
0
  6
AIGENLINE002
 62
     7
 10
83.509600000000006
 20
96.162499999999994
 30
0.0
 11
84.759500000000003
 21
96.162499999999994
 31
0.0
  0
ARC
  5
A1
  8
0
  6
AIGENLINE002
 62
     7
 10
84.712029999999999
 20
97.460093000000001
 30
0.0
 40
1.2984379999999991
 50
272.09654599999988
 51
357.89556800000003
  0
ARC
  5
A2
  8
0
  6
AIGENLINE002
 62
     7
 10
84.711117999999999
 20
97.364536999999999
 30
0.0
 40
1.2993559999999991
 50
2.1116229999999989
 51
87.864685999999992
  0
ARC
  5
A3
  8
0
  6
AIGENLINE002
 62
     7
 10
83.557186999999999
 20
97.365405000000024
 30
0.0
 40
1.2984569999999991
 50
92.098414000000005
 51
177.92523700000001
  0
ARC
  5
A4
  8
0
  6
AIGENLINE002
 62
     7
 10
83.557367999999997
 20
97.460318000000001
 30
0.0
 40
1.2986699999999991
 50
182.11398299999999
 51
267.89394299999998
  0
LINE
  5
A5
  8
0
 62
     7
 10
59.1342
 20
100.6139999999999
 30
0.0
 11
59.1342
 21
112.402
 31
0.0
  0
LINE
  5
A6
  8
0
  6
AIGENLINE001
 62
     7
 10
61.963200000000001
 20
97.412400000000005
 30
0.0
 11
56.04549999999999
 21
97.412400000000005
 31
0.0
  0
LINE
  5
A7
  8
0
  6
AIGENLINE001
 62
     7
 10
59.1342
 20
99.934900000000013
 30
0.0
 11
59.1342
 21
94.692099999999996
 31
0.0
  0
LINE
  5
A8
  8
0
  6
AIGENLINE002
 62
     7
 10
58.509500000000003
 20
98.662999999999997
 30
0.0
 11
59.759300000000003
 21
98.662999999999997
 31
0.0
  0
LINE
  5
A9
  8
0
  6
AIGENLINE002
 62
     7
 10
58.509500000000003
 20
96.162499999999994
 30
0.0
 11
59.759300000000003
 21
96.162499999999994
 31
0.0
  0
ARC
  5
AA
  8
0
  6
AIGENLINE002
 62
     7
 10
59.759433999999999
 20
97.412499999999994
 30
0.0
 40
1.2499750000000001
 50
269.99607200000003
 51
359.99604199999987
  0
ARC
  5
AB
  8
0
  6
AIGENLINE002
 62
     7
 10
59.710934999999999
 20
97.364536999999999
 30
0.0
 40
1.2993559999999991
 50
2.1116229999999989
 51
87.864685999999992
  0
ARC
  5
AC
  8
0
  6
AIGENLINE002
 62
     7
 10
58.556999999999988
 20
97.365231000000009
 30
0.0
 40
1.2986299999999991
 50
92.097930000000005
 51
177.91782599999999
  0
ARC
  5
AD
  8
0
  6
AIGENLINE002
 62
     7
 10
58.509287999999998
 20
97.412585000000007
 30
0.0
 40
1.2500610000000001
 50
180.00790499999991
 51
270.00791499999991
  0
LINE
  5
AE
  8
0
  6
AIGENLINE001
 62
     7
 10
71.634500000000003
 20
107.065
 30
0.0
 11
71.634500000000003
 21
83.915499999999994
 31
0.0
  0
LINE
  5
AF
  8
0
 62
     7
 10
94.134699999999995
 20
103.6629999999999
 30
0.0
 11
94.134699999999995
 21
93.662700000000001
 31
0.0
  0
LINE
  5
B0
  8
0
 62
     7
 10
50.384300000000003
 20
92.412899999999993
 30
0.0
 11
92.884799999999984
 21
92.412899999999993
 31
0.0
  0
ARC
  5
B1
  8
0
 62
     7
 10
92.884839999999997
 20
93.662747999999993
 30
0.0
 40
1.249889
 50
270.00002000000001
 51
359.99998999999991
  0
LINE
  5
B2
  8
0
 62
     7
 10
50.384300000000003
 20
104.91200000000001
 30
0.0
 11
92.884799999999984
 21
104.91200000000001
 31
0.0
  0
ARC
  5
B3
  8
0
 62
     7
 10
92.884839999999997
 20
103.66254499999999
 30
0.0
 40
1.249889
 50
0.00001
 51
89.999980000000008
  0
LINE
  5
B4
  8
0
 62
     7
 10
49.134399999999999
 20
103.6629999999999
 30
0.0
 11
49.134399999999999
 21
93.662700000000001
 31
0.0
  0
ARC
  5
B5
  8
0
 62
     7
 10
50.384323000000002
 20
93.662746999999996
 30
0.0
 40
1.249887999999999
 50
179.99996999999991
 51
270.00002000000001
  0
ARC
  5
B6
  8
0
 62
     7
 10
50.384323000000002
 20
103.66254499999999
 30
0.0
 40
1.249889
 50
90.0
 51
179.99996999999991
  0
LINE
  5
B7
  8
0
 62
     7
 10
33.897199999999998
 20
158.654
 30
0.0
 11
65.382499999999993
 21
158.654
 31
0.0
  0
LINE
  5
B8
  8
0
 62
     7
 10
35.606699999999996
 20
204.22
 30
0.0
 11
35.088500000000003
 21
206.154
 31
0.0
  0
LINE
  5
B9
  8
0
 62
     7
 10
35.088500000000003
 20
206.154
 30
0.0
 11
34.570199999999993
 21
204.22
 31
0.0
  0
LINE
  5
BA
  8
0
 62
     7
 10
34.570199999999993
 20
204.22
 30
0.0
 11
35.606699999999996
 21
204.22
 31
0.0
  0
LINE
  5
BB
  8
0
 62
     7
 10
34.583100000000002
 20
160.58799999999991
 30
0.0
 11
35.101300000000002
 21
158.654
 31
0.0
  0
LINE
  5
BC
  8
0
 62
     7
 10
35.101300000000002
 20
158.654
 30
0.0
 11
35.619599999999998
 21
160.58799999999991
 31
0.0
  0
LINE
  5
BD
  8
0
 62
     7
 10
35.619599999999998
 20
160.58799999999991
 30
0.0
 11
34.583100000000002
 21
160.58799999999991
 31
0.0
  0
LINE
  5
BE
  8
0
 62
     7
 10
35.094900000000003
 20
206.154
 30
0.0
 11
35.094900000000003
 21
158.654
 31
0.0
  0
LINE
  5
BF
  8
0
 62
     7
 10
42.684100000000001
 20
204.22
 30
0.0
 11
42.165999999999997
 21
206.154
 31
0.0
  0
LINE
  5
C0
  8
0
 62
     7
 10
42.165999999999997
 20
206.154
 30
0.0
 11
41.647699999999993
 21
204.22
 31
0.0
  0
LINE
  5
C1
  8
0
 62
     7
 10
41.647699999999993
 20
204.22
 30
0.0
 11
42.684100000000001
 21
204.22
 31
0.0
  0
LINE
  5
C2
  8
0
 62
     7
 10
41.660400000000003
 20
183.08799999999999
 30
0.0
 11
42.178600000000003
 21
181.154
 31
0.0
  0
LINE
  5
C3
  8
0
 62
     7
 10
42.178600000000003
 20
181.154
 30
0.0
 11
42.696899999999992
 21
183.08799999999999
 31
0.0
  0
LINE
  5
C4
  8
0
 62
     7
 10
42.696899999999992
 20
183.08799999999999
 30
0.0
 11
41.660400000000003
 21
183.08799999999999
 31
0.0
  0
LINE
  5
C5
  8
0
 62
     7
 10
42.172400000000003
 20
206.154
 30
0.0
 11
42.172400000000003
 21
181.154
 31
0.0
  0
LINE
  5
C6
  8
0
 62
     7
 10
47.716599999999993
 20
206.154
 30
0.0
 11
33.597799999999999
 21
206.154
 31
0.0
  0
LINE
  5
C7
  8
0
 62
     7
 10
64.0351
 20
181.154
 30
0.0
 11
40.974699999999999
 21
181.154
 31
0.0
  0
LINE
  5
C8
  8
0
 62
     7
 10
103.262
 20
208.95500000000001
 30
0.0
 11
96.310299999999998
 21
208.95500000000001
 31
0.0
  0
LINE
  5
C9
  8
0
 62
     7
 10
88.557800000000015
 20
201.935
 30
0.0
 11
87.556399999999996
 21
200.20099999999991
 31
0.0
  0
LINE
  5
CA
  8
0
 62
     7
 10
87.556399999999996
 20
200.20099999999991
 30
0.0
 11
89.290700000000015
 21
201.202
 31
0.0
  0
LINE
  5
CB
  8
0
 62
     7
 10
89.290700000000015
 20
201.202
 30
0.0
 11
88.557800000000015
 21
201.935
 31
0.0
  0
LINE
  5
CC
  8
0
 62
     7
 10
83.461399999999998
 20
195.37299999999999
 30
0.0
 11
84.462900000000005
 21
197.107
 31
0.0
  0
LINE
  5
CD
  8
0
 62
     7
 10
84.462900000000005
 20
197.107
 30
0.0
 11
82.728599999999986
 21
196.10599999999991
 31
0.0
  0
LINE
  5
CE
  8
0
 62
     7
 10
82.728599999999986
 20
196.10599999999991
 30
0.0
 11
83.461399999999998
 21
195.37299999999999
 31
0.0
  0
LINE
  5
CF
  8
0
 62
     7
 10
82.649199999999993
 20
195.29400000000001
 30
0.0
 11
96.310299999999998
 21
208.95500000000001
 31
0.0
  0
LINE
  5
D0
  8
0
 62
     7
 10
84.538499999999999
 20
187.10599999999991
 30
0.0
 11
77.586799999999997
 21
187.10599999999991
 31
0.0
  0
LINE
  5
D1
  8
0
 62
     7
 10
74.672899999999998
 20
184.91599999999991
 30
0.0
 11
73.671599999999998
 21
183.18199999999999
 31
0.0
  0
LINE
  5
D2
  8
0
 62
     7
 10
73.671599999999998
 20
183.18199999999999
 30
0.0
 11
75.405900000000003
 21
184.18299999999991
 31
0.0
  0
LINE
  5
D3
  8
0
 62
     7
 10
75.405900000000003
 20
184.18299999999991
 30
0.0
 11
74.672899999999998
 21
184.91599999999991
 31
0.0
  0
LINE
  5
D4
  8
0
 62
     7
 10
68.600200000000001
 20
177.387
 30
0.0
 11
69.601500000000001
 21
179.1209999999999
 31
0.0
  0
LINE
  5
D5
  8
0
 62
     7
 10
69.601500000000001
 20
179.1209999999999
 30
0.0
 11
67.8673
 21
178.12
 31
0.0
  0
LINE
  5
D6
  8
0
 62
     7
 10
67.8673
 20
178.12
 30
0.0
 11
68.600200000000001
 21
177.387
 31
0.0
  0
LINE
  5
D7
  8
0
 62
     7
 10
66.134
 20
175.654
 30
0.0
 11
77.586799999999997
 21
187.10599999999991
 31
0.0
  0
LINE
  5
D8
  8
0
 62
     7
 10
60.090600000000002
 20
193.392
 30
0.0
 11
58.356499999999997
 21
194.393
 31
0.0
  0
LINE
  5
D9
  8
0
 62
     7
 10
58.356499999999997
 20
194.393
 30
0.0
 11
59.357599999999998
 21
192.65899999999999
 31
0.0
  0
LINE
  5
DA
  8
0
 62
     7
 10
59.357599999999998
 20
192.65899999999999
 30
0.0
 11
60.090600000000002
 21
193.392
 31
0.0
  0
LINE
  5
DB
  8
0
 62
     7
 10
83.138900000000007
 20
168.8779999999999
 30
0.0
 11
84.87299999999999
 21
167.87599999999989
 31
0.0
  0
LINE
  5
DC
  8
0
 62
     7
 10
84.87299999999999
 20
167.87599999999989
 30
0.0
 11
83.872100000000003
 21
169.61099999999999
 31
0.0
  0
LINE
  5
DD
  8
0
 62
     7
 10
83.872100000000003
 20
169.61099999999999
 30
0.0
 11
83.138900000000007
 21
168.8779999999999
 31
0.0
  0
LINE
  5
DE
  8
0
 62
     7
 10
58.356499999999997
 20
194.393
 30
0.0
 11
84.87299999999999
 21
167.87599999999989
 31
0.0
  0
LINE
  5
DF
  8
0
  6
AIGENLINE001
 62
     7
 10
78.107699999999994
 20
181.154
 30
0.0
 11
65.083100000000002
 21
181.154
 31
0.0
  0
LINE
  5
E0
  8
0
 62
     7
 10
51.0685
 20
150.10599999999999
 30
0.0
 11
49.134399999999999
 21
149.58799999999991
 31
0.0
  0
LINE
  5
E1
  8
0
 62
     7
 10
49.134399999999999
 20
149.58799999999991
 30
0.0
 11
51.0685
 21
149.06999999999991
 31
0.0
  0
LINE
  5
E2
  8
0
 62
     7
 10
51.0685
 20
149.06999999999991
 30
0.0
 11
51.0685
 21
150.10599999999999
 31
0.0
  0
LINE
  5
E3
  8
0
 62
     7
 10
92.200599999999994
 20
149.083
 30
0.0
 11
94.134699999999995
 21
149.601
 31
0.0
  0
LINE
  5
E4
  8
0
 62
     7
 10
94.134699999999995
 20
149.601
 30
0.0
 11
92.200599999999994
 21
150.119
 31
0.0
  0
LINE
  5
E5
  8
0
 62
     7
 10
92.200599999999994
 20
150.119
 30
0.0
 11
92.200599999999994
 21
149.083
 31
0.0
  0
LINE
  5
E6
  8
0
 62
     7
 10
49.134399999999999
 20
149.595
 30
0.0
 11
94.134699999999995
 21
149.595
 31
0.0
  0
LINE
  5
E7
  8
0
 62
     7
 10
49.134399999999999
 20
173.81099999999989
 30
0.0
 11
49.134399999999999
 21
148.81099999999989
 31
0.0
  0
LINE
  5
E8
  8
0
 62
     7
 10
94.134699999999995
 20
173.81099999999989
 30
0.0
 11
94.134699999999995
 21
148.81099999999989
 31
0.0
  0
LINE
  5
E9
  8
0
 62
     7
 10
100.2639999999999
 20
200.58799999999991
 30
0.0
 11
100.782
 21
198.654
 31
0.0
  0
LINE
  5
EA
  8
0
 62
     7
 10
100.782
 20
198.654
 30
0.0
 11
101.2999999999999
 21
200.58799999999991
 31
0.0
  0
LINE
  5
EB
  8
0
 62
     7
 10
101.2999999999999
 20
200.58799999999991
 30
0.0
 11
100.2639999999999
 21
200.58799999999991
 31
0.0
  0
LINE
  5
EC
  8
0
 62
     7
 10
101.28700000000001
 20
204.22
 30
0.0
 11
100.76899999999991
 21
206.154
 31
0.0
  0
LINE
  5
ED
  8
0
 62
     7
 10
100.76899999999991
 20
206.154
 30
0.0
 11
100.251
 21
204.22
 31
0.0
  0
LINE
  5
EE
  8
0
 62
     7
 10
100.251
 20
204.22
 30
0.0
 11
101.28700000000001
 21
204.22
 31
0.0
  0
LINE
  5
EF
  8
0
 62
     7
 10
100.776
 20
198.654
 30
0.0
 11
100.776
 21
206.154
 31
0.0
  0
LINE
  5
F0
  8
0
 62
     7
 10
101.87
 20
198.654
 30
0.0
 11
90.769199999999984
 21
198.654
 31
0.0
  0
LINE
  5
F1
  8
0
 62
     7
 10
101.81100000000001
 20
206.154
 30
0.0
 11
95.149000000000001
 21
206.154
 31
0.0
  0
LINE
  5
F2
  8
0
 62
     7
 10
73.568799999999996
 20
213.5979999999999
 30
0.0
 11
71.634699999999995
 21
213.08000000000001
 31
0.0
  0
LINE
  5
F3
  8
0
 62
     7
 10
71.634699999999995
 20
213.08000000000001
 30
0.0
 11
73.568799999999996
 21
212.56099999999989
 31
0.0
  0
LINE
  5
F4
  8
0
 62
     7
 10
73.568799999999996
 20
212.56099999999989
 30
0.0
 11
73.568799999999996
 21
213.5979999999999
 31
0.0
  0
LINE
  5
F5
  8
0
 62
     7
 10
84.075500000000005
 20
212.5739999999999
 30
0.0
 11
86.009600000000006
 21
213.09200000000001
 31
0.0
  0
LINE
  5
F6
  8
0
 62
     7
 10
86.009600000000006
 20
213.09200000000001
 30
0.0
 11
84.075500000000005
 21
213.6109999999999
 31
0.0
  0
LINE
  5
F7
  8
0
 62
     7
 10
84.075500000000005
 20
213.6109999999999
 30
0.0
 11
84.075500000000005
 21
212.5739999999999
 31
0.0
  0
LINE
  5
F8
  8
0
 62
     7
 10
71.634699999999995
 20
213.0859999999999
 30
0.0
 11
86.009600000000006
 21
213.0859999999999
 31
0.0
  0
LINE
  5
F9
  8
0
 62
     7
 10
86.009600000000006
 20
203.465
 30
0.0
 11
86.009600000000006
 21
214.04300000000001
 31
0.0
  0
LINE
  5
FA
  8
0
  6
AIGENLINE001
 62
     7
 10
89.674300000000002
 20
198.654
 30
0.0
 11
82.4268
 21
198.654
 31
0.0
  0
LINE
  5
FB
  8
0
  6
AIGENLINE001
 62
     7
 10
86.009600000000006
 20
202.5079999999999
 30
0.0
 11
86.009600000000006
 21
194.41200000000001
 31
0.0
  0
ARC
  5
FC
  8
0
 62
     7
 10
86.009591
 20
198.65407400000001
 30
0.0
 40
2.1876500000000001
 50
0.00001
 51
89.999980000000008
  0
ARC
  5
FD
  8
0
 62
     7
 10
86.009764000000004
 20
198.654246
 30
0.0
 40
2.187478
 50
90.004512000000005
 51
180.00452200000001
  0
ARC
  5
FE
  8
0
 62
     7
 10
86.009764000000004
 20
198.65390199999999
 30
0.0
 40
2.187476999999999
 50
179.99545800000001
 51
269.99550799999997
  0
ARC
  5
FF
  8
0
 62
     7
 10
86.009591
 20
198.65407499999989
 30
0.0
 40
2.1876500000000001
 50
270.00002000000001
 51
359.99998999999991
  0
LINE
  5
100
  8
0
 62
     7
 10
71.634500000000003
 20
209.62
 30
0.0
 11
71.634500000000003
 21
214.16099999999989
 31
0.0
  0
LINE
  5
101
  8
0
  6
AIGENLINE001
 62
     7
 10
59.134399999999999
 20
208.63499999999991
 30
0.0
 11
59.134399999999999
 21
203.48699999999999
 31
0.0
  0
LINE
  5
102
  8
0
  6
AIGENLINE001
 62
     7
 10
84.134600000000006
 20
208.63499999999991
 30
0.0
 11
84.134600000000006
 21
203.48699999999999
 31
0.0
  0
LINE
  5
103
  8
0
  6
AIGENLINE001
 62
     7
 10
71.634500000000003
 20
208.63499999999991
 30
0.0
 11
71.634500000000003
 21
154.39899999999989
 31
0.0
  0
ARC
  5
104
  8
0
 62
     7
 10
71.634322999999995
 20
181.15408400000001
 30
0.0
 40
2.8749509999999989
 50
359.996577
 51
89.996546999999978
  0
ARC
  5
105
  8
0
 62
     7
 10
71.634495999999984
 20
181.15391199999999
 30
0.0
 40
2.875122999999999
 50
90.0
 51
179.99996999999991
  0
ARC
  5
106
  8
0
 62
     7
 10
71.634408999999991
 20
181.153998
 30
0.0
 40
2.8750360000000001
 50
180.00172599999991
 51
270.00173599999988
  0
ARC
  5
107
  8
0
 62
     7
 10
71.634408999999991
 20
181.15382600000001
 30
0.0
 40
2.8748649999999998
 50
270.00173599999988
 51
0.001707
  0
ARC
  5
108
  8
0
 62
     7
 10
71.634495000000001
 20
181.15391099999999
 30
0.0
 40
4.6874269999999987
 50
0.00001
 51
89.999980000000008
  0
ARC
  5
109
  8
0
 62
     7
 10
71.634410000000003
 20
181.15382500000001
 30
0.0
 40
4.687513
 50
89.998947000000015
 51
179.99891700000001
  0
ARC
  5
10A
  8
0
 62
     7
 10
71.634495000000001
 20
181.15391099999999
 30
0.0
 40
4.6875980000000004
 50
179.99996999999991
 51
270.00002000000001
  0
ARC
  5
10B
  8
0
 62
     7
 10
71.634408999999991
 20
181.15382699999989
 30
0.0
 40
4.687513
 50
270.00107300000002
 51
0.001043
  0
LINE
  5
10C
  8
0
 62
     7
 10
49.134399999999999
 20
206.154
 30
0.0
 11
94.134699999999995
 21
206.154
 31
0.0
  0
LINE
  5
10D
  8
0
 62
     7
 10
49.134399999999999
 20
206.154
 30
0.0
 11
49.134399999999999
 21
181.154
 31
0.0
  0
LINE
  5
10E
  8
0
 62
     7
 10
94.134699999999995
 20
206.154
 30
0.0
 11
94.134699999999995
 21
181.154
 31
0.0
  0
ARC
  5
10F
  8
0
 62
     7
 10
71.634406000000013
 20
181.15399500000001
 30
0.0
 40
18.750139999999998
 50
359.99974700000001
 51
89.999717000000004
  0
ARC
  5
110
  8
0
 62
     7
 10
71.634585000000001
 20
181.15399500000001
 30
0.0
 40
18.750139999999998
 50
90.000263000000004
 51
180.00027299999991
  0
ARC
  5
111
  8
0
 62
     7
 10
71.634492000000009
 20
181.153909
 30
0.0
 40
18.750046999999991
 50
179.99996999999991
 51
270.00002000000001
  0
ARC
  5
112
  8
0
 62
     7
 10
71.634492000000009
 20
181.1539149999999
 30
0.0
 40
18.750053999999999
 50
270.00002000000001
 51
359.99998999999991
  0
ARC
  5
113
  8
0
 62
     7
 10
71.634492000000009
 20
181.153908
 30
0.0
 40
22.500057000000002
 50
179.99996999999991
 51
270.00002000000001
  0
ARC
  5
114
  8
0
 62
     7
 10
71.634578000000005
 20
181.15400199999991
 30
0.0
 40
22.500150999999999
 50
269.99980099999988
 51
359.99977100000001
  0
TEXT
  5
115
  8
_________2
 62
     7
 10
20.3005
 20
40.489400000000003
 30
0.0
 40
3.9357000000000002
  1
※壁取付部には厚さ20mm以上の補強木を入れてください。
 41
0.5
  0
LINE
  5
116
  8
_________2
 62
     7
 10
205.30099999999999
 20
127.411
 30
0.0
 11
183.55099999999999
 21
127.411
 31
0.0
  0
LINE
  5
117
  8
_________2
 62
     7
 10
100.2999999999999
 20
-4.0907299999999998
 30
0.0
 11
100.2999999999999
 21
-21.070999999999991
 31
0.0
  0
LINE
  5
118
  8
_________2
 62
     7
 10
100.2999999999999
 20
275.93099999999993
 30
0.0
 11
100.2999999999999
 21
258.911
 31
0.0
  0
LINE
  5
119
  8
_________2
 62
     7
 10
17.049900000000001
 20
127.411
 30
0.0
 11
-4.70052
 21
127.411
 31
0.0
  0
LINE
  5
11A
  8
_________2
 62
     7
 10
76.741399999999999
 20
29.805099999999999
 30
0.0
 11
74.555099999999996
 21
29.805099999999999
 31
0.0
  0
LINE
  5
11B
  8
_________2
 62
     7
 10
77.233999999999995
 20
29.805099999999999
 30
0.0
 11
76.981800000000007
 21
29.805099999999999
 31
0.0
  0
LINE
  5
11C
  8
_________2
 62
     7
 10
77.726699999999994
 20
29.805099999999999
 30
0.0
 11
80.651600000000002
 21
29.805099999999999
 31
0.0
  0
LINE
  5
11D
  8
_________2
 62
     7
 10
77.233999999999995
 20
29.805099999999999
 30
0.0
 11
77.485900000000001
 21
29.805099999999999
 31
0.0
  0
LINE
  5
11E
  8
_________2
 62
     7
 10
70.837500000000006
 20
29.805099999999999
 30
0.0
 11
68.650899999999993
 21
29.805099999999999
 31
0.0
  0
LINE
  5
11F
  8
_________2
 62
     7
 10
71.329800000000006
 20
29.805099999999999
 30
0.0
 11
71.0779
 21
29.805099999999999
 31
0.0
  0
LINE
  5
120
  8
_________2
 62
     7
 10
71.329800000000006
 20
30.2974
 30
0.0
 11
71.329800000000006
 21
32.484400000000001
 31
0.0
  0
LINE
  5
121
  8
_________2
 62
     7
 10
71.329800000000006
 20
29.805099999999999
 30
0.0
 11
71.329800000000006
 21
30.057300000000001
 31
0.0
  0
LINE
  5
122
  8
_________2
 62
     7
 10
71.822400000000002
 20
29.805099999999999
 30
0.0
 11
74.009399999999999
 21
29.805099999999999
 31
0.0
  0
LINE
  5
123
  8
_________2
 62
     7
 10
71.329800000000006
 20
29.805099999999999
 30
0.0
 11
71.581999999999994
 21
29.805099999999999
 31
0.0
  0
LINE
  5
124
  8
_________2
 62
     7
 10
71.329800000000006
 20
29.312799999999999
 30
0.0
 11
71.329800000000006
 21
27.125800000000002
 31
0.0
  0
LINE
  5
125
  8
_________2
 62
     7
 10
71.329800000000006
 20
29.805099999999999
 30
0.0
 11
71.329800000000006
 21
29.5532
 31
0.0
  0
LINE
  5
126
  8
_________2
 62
     7
 10
75.040899999999993
 20
28.5855
 30
0.0
 11
80.218900000000005
 21
27.720400000000001
 31
0.0
  0
LINE
  5
127
  8
_________2
 62
     7
 10
75.040899999999993
 20
31.024699999999999
 30
0.0
 11
80.218900000000005
 21
31.889700000000001
 31
0.0
  0
LINE
  5
128
  8
_________2
 62
     7
 10
80.218900000000005
 20
27.720400000000001
 30
0.0
 11
80.218900000000005
 21
31.889700000000001
 31
0.0
  0
LINE
  5
129
  8
_________2
 62
     7
 10
75.040899999999993
 20
28.5855
 30
0.0
 11
75.040899999999993
 21
31.024699999999999
 31
0.0
  0
ARC
  5
12A
  8
_________2
 62
     7
 10
71.283191000000002
 20
29.758146
 30
0.0
 40
1.2673700000000001
 50
2.1226560000000001
 51
87.893517000000003
  0
ARC
  5
12B
  8
_________2
 62
     7
 10
71.376305000000002
 20
29.758557
 30
0.0
 40
1.2669559999999991
 50
92.104701000000006
 51
177.8952689999999
  0
ARC
  5
12C
  8
_________2
 62
     7
 10
71.376693000000003
 20
29.852004999999991
 30
0.0
 40
1.2673579999999991
 50
182.1215939999999
 51
267.87843500000002
  0
ARC
  5
12D
  8
_________2
 62
     7
 10
71.282876000000002
 20
29.852343999999992
 30
0.0
 40
1.267695999999999
 50
272.12015300000002
 51
357.863674
  0
ARC
  5
12E
  8
_________2
 62
     7
 10
71.329947000000004
 20
29.804915000000001
 30
0.0
 40
2.084813
 50
0.004744
 51
90.004714000000007
  0
ARC
  5
12F
  8
_________2
 62
     7
 10
71.329774999999984
 20
29.805087
 30
0.0
 40
2.0846409999999991
 50
90.0
 51
179.99996999999991
  0
ARC
  5
130
  8
_________2
 62
     7
 10
71.409789000000004
 20
29.885100999999999
 30
0.0
 40
2.1661329999999999
 50
182.116929
 51
267.88310000000001
  0
ARC
  5
131
  8
_________2
 62
     7
 10
71.249779000000004
 20
29.885441
 30
0.0
 40
2.166471
 50
272.1161009999999
 51
357.87444099999999
  0
TEXT
  5
132
  8
_________2
 62
     7
 10
104.605
 20
1.6794899999999999
 30
0.0
 40
3.0923400000000001
  1
図番
 41
0.5
  0
LINE
  5
133
  8
_________2
 62
     7
 10
103.55
 20
5.9087199999999989
 30
0.0
 11
183.55099999999999
 21
5.9087199999999989
 31
0.0
  0
TEXT
  5
134
  8
_________2
 62
     7
 10
104.605
 20
11.679600000000001
 30
0.0
 40
3.0923400000000001
  1
品番
 41
0.5
  0
TEXT
  5
135
  8
_________2
 62
     7
 10
104.605
 20
31.818100000000001
 30
0.0
 40
3.0923400000000001
  1
名称
 41
0.5
  0
TEXT
  5
136
  8
_________2
 62
     7
 10
91.84545833333334
 20
26.821999999999989
 30
0.0
 40
3.6545800000000002
  1
mm
 41
0.5
 72
     1
 11
93.368200000000016
 21
26.821999999999989
 31
0.0
  0
TEXT
  5
137
  8
_________2
 62
     7
 10
85.643500000000003
 20
31.818100000000001
 30
0.0
 40
3.0923400000000001
  1
単位
 41
0.5
  0
TEXT
  5
138
  8
_________2
 62
     7
 10
85.643500000000003
 20
19.411200000000001
 30
0.0
 40
3.0923400000000001
  1
尺度
 41
0.5
  0
TEXT
  5
139
  8
_________2
 62
     7
 10
90.549158666666656
 20
13.218199999999991
 30
0.0
 40
3.6545800000000002
  1
1 ： 8
 41
0.5
 72
     1
 11
93.960099999999997
 21
13.218199999999991
 31
0.0
  0
TEXT
  5
13A
  8
_________2
 62
     7
 10
132.23486249999999
 20
9.1078600000000005
 30
0.0
 40
3.9357000000000002
  1
DV076635R-00
 41
0.5
 72
     1
 11
143.55000000000001
 21
9.1078600000000005
 31
0.0
  0
TEXT
  5
13B
  8
_________2
 62
     7
 10
134.85866250000001
 20
-0.892285
 30
0.0
 40
3.9357000000000002
  1
DV076635R
 41
0.5
 72
     1
 11
143.55000000000001
 21
-0.892285
 31
0.0
  0
TEXT
  5
13C
  8
_________2
 62
     7
 10
24.587099999999989
 20
0.707627
 30
0.0
 40
3.9357000000000002
  1
重量：7.5kg、オーバーフローなし
 41
0.5
  0
TEXT
  5
13D
  8
_________2
 62
     7
 10
109.179
 20
24.226099999999999
 30
0.0
 40
3.9357000000000002
  1
アーキテック　手洗器
 41
0.5
  0
TEXT
  5
13E
  8
_________2
 62
     7
 10
39.425600333333328
 20
13.603
 30
0.0
 40
3.6545800000000002
  1
福田
 41
0.5
 72
     1
 11
41.313800000000001
 21
13.603
 31
0.0
  0
TEXT
  5
13F
  8
_________2
 62
     7
 10
20.79039066666666
 20
13.603
 30
0.0
 40
3.6545800000000002
  1
石原
 41
0.5
 72
     1
 11
22.7395
 21
13.603
 31
0.0
  0
TEXT
  5
140
  8
_________2
 62
     7
 10
67.785799999999995
 20
13.218199999999991
 30
0.0
 40
3.6545800000000002
  1
05.09.01
 41
0.5
  0
TEXT
  5
141
  8
_________2
 62
     7
 10
66.593400000000003
 20
19.411200000000001
 30
0.0
 40
3.0923400000000001
  1
日付
 41
0.5
  0
TEXT
  5
142
  8
_________2
 62
     7
 10
29.639700000000001
 20
19.411200000000001
 30
0.0
 40
3.0923400000000001
  1
検図
 41
0.5
  0
TEXT
  5
143
  8
_________2
 62
     7
 10
18.021399999999989
 20
5.2117699999999987
 30
0.0
 40
3.0923400000000001
  1
備考
 41
0.5
  0
TEXT
  5
144
  8
_________2
 62
     7
 10
18.021399999999989
 20
19.411200000000001
 30
0.0
 40
3.0923400000000001
  1
製図
 41
0.5
  0
TEXT
  5
145
  8
_________2
 62
     7
 10
23.78886533333333
 20
27.936800000000002
 30
0.0
 40
4.4979399999999989
  1
セラトレーディング株式会社
 41
0.5
 72
     1
 11
41.180900000000001
 21
27.936800000000002
 31
0.0
  0
LINE
  5
146
  8
_________2
 62
     7
 10
183.55099999999999
 20
-4.0910799999999998
 30
0.0
 11
17.049900000000001
 21
-4.0910799999999998
 31
0.0
  0
LINE
  5
147
  8
_________2
 62
     7
 10
17.049900000000001
 20
-4.0910799999999998
 30
0.0
 11
17.049900000000001
 21
258.911
 31
0.0
  0
LINE
  5
148
  8
_________2
 62
     7
 10
17.049900000000001
 20
258.911
 30
0.0
 11
183.55099999999999
 21
258.911
 31
0.0
  0
LINE
  5
149
  8
_________2
 62
     7
 10
183.55099999999999
 20
258.911
 30
0.0
 11
183.55099999999999
 21
-4.0910799999999998
 31
0.0
  0
LINE
  5
14A
  8
_________2
 62
     7
 10
65.549899999999994
 20
9.4092999999999982
 30
0.0
 11
65.549899999999994
 21
35.909100000000002
 31
0.0
  0
LINE
  5
14B
  8
_________2
 62
     7
 10
84.550099999999986
 20
9.4092999999999982
 30
0.0
 11
84.550099999999986
 21
35.909100000000002
 31
0.0
  0
LINE
  5
14C
  8
_________2
 62
     7
 10
103.55
 20
-4.0910799999999998
 30
0.0
 11
103.55
 21
35.909100000000002
 31
0.0
  0
LINE
  5
14D
  8
_________2
 62
     7
 10
28.549700000000001
 20
9.4092999999999982
 30
0.0
 11
28.549700000000001
 21
23.409199999999998
 31
0.0
  0
LINE
  5
14E
  8
_________2
 62
     7
 10
17.049900000000001
 20
9.4092999999999982
 30
0.0
 11
103.55
 21
9.4092999999999982
 31
0.0
  0
LINE
  5
14F
  8
_________2
 62
     7
 10
17.049900000000001
 20
23.409199999999998
 30
0.0
 11
103.55
 21
23.409199999999998
 31
0.0
  0
LINE
  5
150
  8
_________2
 62
     7
 10
103.55
 20
15.90889999999999
 30
0.0
 11
183.55099999999999
 21
15.90889999999999
 31
0.0
  0
LINE
  5
151
  8
_________2
 62
     7
 10
17.049900000000001
 20
35.909100000000002
 30
0.0
 11
183.55099999999999
 21
35.909100000000002
 31
0.0
  0
ENDSEC
  0
EOF
