  0
SECTION
  2
HEADER
  9
$ACADVER
  1
AC1009
  9
$INSBASE
 10
0.0
 20
0.0
 30
0.0
  9
$EXTMIN
 10
-4.7010300000000003
 20
-21.071000000000002
 30
0.0
  9
$EXTMAX
 10
205.30099999999999
 20
275.93099999999998
 30
0.0
  9
$LIMMIN
 10
0.0
 20
0.0
  9
$LIMMAX
 10
12.0
 20
9.0
  9
$ORTHOMODE
 70
     0
  9
$REGENMODE
 70
     1
  9
$FILLMODE
 70
     1
  9
$QTEXTMODE
 70
     0
  9
$MIRRTEXT
 70
     1
  9
$DRAGMODE
 70
     2
  9
$LTSCALE
 40
1.0
  9
$OSMODE
 70
    37
  9
$ATTMODE
 70
     1
  9
$TEXTSIZE
 40
0.0
  9
$TRACEWID
 40
0.05
  9
$TEXTSTYLE
  7
STANDARD
  9
$CLAYER
  8
0
  9
$CELTYPE
  6
CONTINUOUS
  9
$CECOLOR
 62
   256
  9
$DIMSCALE
 40
1.0
  9
$DIMASZ
 40
0.18
  9
$DIMEXO
 40
0.0625
  9
$DIMDLI
 40
0.38
  9
$DIMRND
 40
0.0
  9
$DIMDLE
 40
0.0
  9
$DIMEXE
 40
0.18
  9
$DIMTP
 40
0.0
  9
$DIMTM
 40
0.0
  9
$DIMTXT
 40
0.18
  9
$DIMCEN
 40
0.09
  9
$DIMTSZ
 40
0.0
  9
$DIMTOL
 70
     0
  9
$DIMLIM
 70
     0
  9
$DIMTIH
 70
     1
  9
$DIMTOH
 70
     1
  9
$DIMSE1
 70
     0
  9
$DIMSE2
 70
     0
  9
$DIMTAD
 70
     0
  9
$DIMZIN
 70
     0
  9
$DIMBLK
  1

  9
$DIMASO
 70
     1
  9
$DIMSHO
 70
     1
  9
$DIMPOST
  1

  9
$DIMAPOST
  1

  9
$DIMALT
 70
     0
  9
$DIMALTD
 70
     2
  9
$DIMALTF
 40
25.399999999999999
  9
$DIMLFAC
 40
1.0
  9
$DIMTOFL
 70
     0
  9
$DIMTVP
 40
0.0
  9
$DIMTIX
 70
     0
  9
$DIMSOXD
 70
     0
  9
$DIMSAH
 70
     0
  9
$DIMBLK1
  1

  9
$DIMBLK2
  1

  9
$DIMSTYLE
  2
STANDARD
  9
$DIMCLRD
 70
     0
  9
$DIMCLRE
 70
     0
  9
$DIMCLRT
 70
     0
  9
$DIMTFAC
 40
1.0
  9
$DIMGAP
 40
0.09
  9
$LUNITS
 70
     2
  9
$LUPREC
 70
     4
  9
$SKETCHINC
 40
0.1
  9
$FILLETRAD
 40
0.0
  9
$AUNITS
 70
     0
  9
$AUPREC
 70
     0
  9
$MENU
  1
.
  9
$ELEVATION
 40
0.0
  9
$PELEVATION
 40
0.0
  9
$THICKNESS
 40
0.0
  9
$LIMCHECK
 70
     0
  9
$BLIPMODE
 70
     0
  9
$CHAMFERA
 40
0.0
  9
$CHAMFERB
 40
0.0
  9
$SKPOLY
 70
     0
  9
$TDCREATE
 40
2444972.375
  9
$TDUPDATE
 40
2457278.2517174422
  9
$TDINDWG
 40
0.0000319329
  9
$TDUSRTIMER
 40
0.0000319329
  9
$USRTIMER
 70
     1
  9
$ANGBASE
 50
0.0
  9
$ANGDIR
 70
     0
  9
$PDMODE
 70
     0
  9
$PDSIZE
 40
0.0
  9
$PLINEWID
 40
0.0
  9
$COORDS
 70
     1
  9
$SPLFRAME
 70
     0
  9
$SPLINETYPE
 70
     6
  9
$SPLINESEGS
 70
     8
  9
$ATTDIA
 70
     1
  9
$ATTREQ
 70
     1
  9
$HANDLING
 70
     1
  9
$HANDSEED
  5
35E
  9
$SURFTAB1
 70
     6
  9
$SURFTAB2
 70
     6
  9
$SURFTYPE
 70
     6
  9
$SURFU
 70
     6
  9
$SURFV
 70
     6
  9
$UCSNAME
  2

  9
$UCSORG
 10
0.0
 20
0.0
 30
0.0
  9
$UCSXDIR
 10
1.0
 20
0.0
 30
0.0
  9
$UCSYDIR
 10
0.0
 20
1.0
 30
0.0
  9
$PUCSNAME
  2

  9
$PUCSORG
 10
0.0
 20
0.0
 30
0.0
  9
$PUCSXDIR
 10
1.0
 20
0.0
 30
0.0
  9
$PUCSYDIR
 10
0.0
 20
1.0
 30
0.0
  9
$USERI1
 70
     0
  9
$USERI2
 70
     0
  9
$USERI3
 70
     0
  9
$USERI4
 70
     0
  9
$USERI5
 70
     0
  9
$USERR1
 40
0.0
  9
$USERR2
 40
0.0
  9
$USERR3
 40
0.0
  9
$USERR4
 40
0.0
  9
$USERR5
 40
0.0
  9
$WORLDVIEW
 70
     1
  9
$SHADEDGE
 70
     3
  9
$SHADEDIF
 70
    70
  9
$TILEMODE
 70
     1
  9
$MAXACTVP
 70
    48
  9
$PLIMCHECK
 70
     0
  9
$PEXTMIN
 10
1.0000000000000000E+020
 20
1.0000000000000000E+020
 30
1.0000000000000000E+020
  9
$PEXTMAX
 10
-1.0000000000000000E+020
 20
-1.0000000000000000E+020
 30
-1.0000000000000000E+020
  9
$PLIMMIN
 10
0.0
 20
0.0
  9
$PLIMMAX
 10
12.0
 20
9.0
  9
$UNITMODE
 70
     0
  9
$VISRETAIN
 70
     1
  9
$PLINEGEN
 70
     0
  9
$PSLTSCALE
 70
     1
  0
ENDSEC
  0
SECTION
  2
TABLES
  0
TABLE
  2
VPORT
 70
     1
  0
VPORT
  2
*ACTIVE
 70
     0
 10
0.0
 20
0.0
 11
1.0
 21
1.0
 12
155.35635693003391
 22
127.42999999999989
 13
0.0
 23
0.0
 14
1.0
 24
1.0
 15
0.0
 25
0.0
 16
0.0
 26
0.0
 36
1.0
 17
0.0
 27
0.0
 37
0.0
 40
283.65115399946512
 41
2.1001926782273599
 42
50.0
 43
0.0
 44
0.0
 50
0.0
 51
0.0
 71
     0
 72
   100
 73
     1
 74
     1
 75
     0
 76
     0
 77
     0
 78
     0
  0
ENDTAB
  0
TABLE
  2
LTYPE
 70
     4
  0
LTYPE
  2
CONTINUOUS
 70
     0
  3
Solid line
 72
    65
 73
     0
 40
0.0
  0
LTYPE
  2
AIGENLINE001
 70
     0
  3
generate AI->DXF Converter
 72
    65
 73
     2
 40
1.5522299999999991
 49
0.776115
 49
-0.776115
  0
LTYPE
  2
AIGENLINE002
 70
     0
  3
generate AI->DXF Converter
 72
    65
 73
     4
 40
5.8561449999999988
 49
3.5278
 49
-0.776115
 49
0.776115
 49
-0.776115
  0
LTYPE
  2
AIGENLINE003
 70
     0
  3
generate AI->DXF Converter
 72
    65
 73
     6
 40
7.4083750000000004
 49
3.5278
 49
-0.776115
 49
0.776115
 49
-0.776115
 49
0.776115
 49
-0.776115
  0
ENDTAB
  0
TABLE
  2
LAYER
 70
     2
  0
LAYER
  2
0
 70
     0
 62
     7
  6
CONTINUOUS
  0
LAYER
  2
_________2
 70
     0
 62
     7
  6
CONTINUOUS
  0
ENDTAB
  0
TABLE
  2
STYLE
 70
     1
  0
STYLE
  2
STANDARD
 70
     0
 40
0.0
 41
0.0
 50
0.0
 71
     0
 42
0.0
  3
TXT
  4
EXTFONT.SHX
  0
ENDTAB
  0
TABLE
  2
VIEW
 70
     0
  0
ENDTAB
  0
TABLE
  2
UCS
 70
     0
  0
ENDTAB
  0
TABLE
  2
APPID
 70
     3
  0
APPID
  2
ACAD
 70
     0
  0
APPID
  2
ACAD_NAV_VCDISPLAY
 70
     0
  0
APPID
  2
ACAD_MLEADERVER
 70
     0
  0
ENDTAB
  0
TABLE
  2
DIMSTYLE
 70
     1
  0
DIMSTYLE
  2
STANDARD
 70
     0
  3

  4

  5

  6

  7

 40
1.0
 41
0.18
 42
0.0625
 43
0.38
 44
0.18
 45
0.0
 46
0.0
 47
0.0
 48
0.0
140
0.18
141
0.09
142
0.0
143
25.399999999999999
144
1.0
145
0.0
146
1.0
147
0.09
 71
     0
 72
     0
 73
     1
 74
     1
 75
     0
 76
     0
 77
     0
 78
     0
170
     0
171
     2
172
     0
173
     0
174
     0
175
     0
176
     0
177
     0
178
     0
  0
ENDTAB
  0
ENDSEC
  0
SECTION
  2
BLOCKS
  0
BLOCK
  8
0
  2
$MODEL_SPACE
 70
     0
 10
0.0
 20
0.0
 30
0.0
  3
$MODEL_SPACE
  1

  0
ENDBLK
  5
1A
  8
0
  0
BLOCK
 67
     1
  8
0
  2
$PAPER_SPACE
 70
     0
 10
0.0
 20
0.0
 30
0.0
  3
$PAPER_SPACE
  1

  0
ENDBLK
  5
17
 67
     1
  8
0
  0
ENDSEC
  0
SECTION
  2
ENTITIES
  0
TEXT
  5
24
  8
0
 62
     7
 10
25.6084
 20
104.91542250000001
 30
0.0
 40
3.0923400000000001
  1
max.30
 50
90.0
 41
0.5
 72
     1
 11
25.6084
 21
108.652
 31
0.0
  0
TEXT
  5
25
  8
0
 62
     7
 10
101.95
 20
111.5783725
 30
0.0
 40
3.0923400000000001
  1
60
 50
90.0
 41
0.5
 72
     1
 11
101.95
 21
112.738
 31
0.0
  0
TEXT
  5
26
  8
0
 62
     7
 10
165.983
 20
115.63037249999999
 30
0.0
 40
3.0923400000000001
  1
70
 50
90.0
 41
0.5
 72
     1
 11
165.983
 21
116.79000000000001
 31
0.0
  0
TEXT
  5
27
  8
0
 62
     7
 10
172.36699999999999
 20
114.293525
 30
0.0
 40
3.0923400000000001
  1
95
 50
90.0
 41
0.5
 72
     1
 11
172.36699999999999
 21
115.58199999999999
 31
0.0
  0
TEXT
  5
28
  8
0
 62
     7
 10
108.55200000000001
 20
113.35198250000001
 30
0.0
 40
3.0923400000000001
  1
105
 50
90.0
 41
0.5
 72
     1
 11
108.55200000000001
 21
115.027
 31
0.0
  0
TEXT
  5
29
  8
0
 62
     7
 10
101.95
 20
116.69952499999999
 30
0.0
 40
3.0923400000000001
  1
45
 50
90.0
 41
0.5
 72
     1
 11
101.95
 21
117.988
 31
0.0
  0
TEXT
  5
2A
  8
0
 62
     7
 10
48.436999999999998
 20
116.69952499999999
 30
0.0
 40
3.0923400000000001
  1
45
 50
90.0
 41
0.5
 72
     1
 11
48.436999999999998
 21
117.988
 31
0.0
  0
TEXT
  5
2B
  8
0
 62
     7
 10
143.24644000000001
 20
96.940400000000011
 30
0.0
 40
3.0923400000000001
  1
265
 41
0.5
 72
     1
 11
145.30799999999999
 21
96.940400000000011
 31
0.0
  0
TEXT
  5
2C
  8
0
 62
     7
 10
147.505135
 20
102.855
 30
0.0
 40
3.0923400000000001
  1
185
 41
0.5
 72
     1
 11
149.309
 21
102.855
 31
0.0
  0
TEXT
  5
2D
  8
0
 62
     7
 10
72.104887500000004
 20
102.863
 30
0.0
 40
3.0923400000000001
  1
330
 41
0.5
 72
     1
 11
74.037599999999998
 21
102.863
 31
0.0
  0
TEXT
  5
2E
  8
0
 62
     7
 10
72.362582500000002
 20
126.634
 30
0.0
 40
3.0923400000000001
  1
180
 41
0.5
 72
     1
 11
74.037599999999998
 21
126.634
 31
0.0
  0
TEXT
  5
2F
  8
0
 62
     7
 10
132.04599999999999
 20
154.91300000000001
 30
0.0
 40
3.0923400000000001
  1
注）A・B寸法は手洗器現品を
 41
0.5
  0
TEXT
  5
30
  8
0
 62
     7
 10
132.04599999999999
 20
151.048
 30
0.0
 40
3.0923400000000001
  1
　　測定して穴あけしてください。
 41
0.5
  0
TEXT
  5
31
  8
0
 62
     7
 10
136.45975999999999
 20
160.667
 30
0.0
 40
3.0923400000000001
  1
カウンター切込寸法
 41
0.5
 72
     1
 11
144.70599999999999
 21
160.667
 31
0.0
  0
TEXT
  5
32
  8
0
 62
     7
 10
116.666
 20
173.70400000000001
 30
0.0
 40
3.0923400000000001
  1
%%c10
 41
0.5
  0
TEXT
  5
33
  8
0
 62
     7
 10
43.336799999999997
 20
184.20713499999999
 30
0.0
 40
3.0923400000000001
  1
175
 50
90.0
 41
0.5
 72
     1
 11
43.336799999999997
 21
186.011
 31
0.0
  0
TEXT
  5
34
  8
0
 62
     7
 10
84.628780000000006
 20
208.09800000000001
 30
0.0
 40
3.0923400000000001
  1
%%c35
 41
0.5
 72
     2
 11
88.751900000000006
 21
208.09800000000001
 31
0.0
  0
TEXT
  5
35
  8
0
 62
     7
 10
80.841880000000003
 20
182.52099999999999
 30
0.0
 40
3.0923400000000001
  1
%%c46
 41
0.5
 72
     2
 11
84.965000000000003
 21
182.52099999999999
 31
0.0
  0
TEXT
  5
36
  8
0
 62
     7
 10
97.647745000000015
 20
167.048
 30
0.0
 40
3.0923400000000001
  1
30
 41
0.5
 72
     2
 11
99.967000000000013
 21
167.048
 31
0.0
  0
TEXT
  5
37
  8
0
 62
     7
 10
43.336799999999997
 20
168.56100000000001
 30
0.0
 40
3.0923400000000001
  1
30
 50
90.0
 41
0.5
  0
TEXT
  5
38
  8
0
 62
     7
 10
48.0642
 20
167.048
 30
0.0
 40
3.0923400000000001
  1
30
 41
0.5
  0
TEXT
  5
39
  8
0
 62
     7
 10
43.336799999999997
 20
198.254525
 30
0.0
 40
3.0923400000000001
  1
95
 50
90.0
 41
0.5
 72
     1
 11
43.336799999999997
 21
199.54300000000001
 31
0.0
  0
TEXT
  5
3A
  8
0
 62
     7
 10
100.991
 20
195.5603725
 30
0.0
 40
3.0923400000000001
  1
40
 50
90.0
 41
0.5
 72
     1
 11
100.991
 21
196.72
 31
0.0
  0
TEXT
  5
3B
  8
0
 62
     7
 10
100.991
 20
200.18452500000001
 30
0.0
 40
3.0923400000000001
  1
55
 50
90.0
 41
0.5
 72
     1
 11
100.991
 21
201.47300000000001
 31
0.0
  0
TEXT
  5
3C
  8
0
 62
     7
 10
62.4955
 20
196.30713499999999
 30
0.0
 40
3.0923400000000001
  1
185
 50
90.0
 41
0.5
 72
     1
 11
62.4955
 21
198.11099999999999
 31
0.0
  0
TEXT
  5
3D
  8
0
 62
     7
 10
36.394199999999998
 20
187.45713499999999
 30
0.0
 40
3.0923400000000001
  1
300
 50
90.0
 41
0.5
 72
     1
 11
36.394199999999998
 21
189.261
 31
0.0
  0
TEXT
  5
3E
  8
0
 62
     7
 10
72.104887500000004
 20
167.048
 30
0.0
 40
3.0923400000000001
  1
340
 41
0.5
 72
     1
 11
74.037599999999998
 21
167.048
 31
0.0
  0
TEXT
  5
3F
  8
0
 62
     7
 10
72.233734999999996
 20
160.03999999999999
 30
0.0
 40
3.0923400000000001
  1
400
 41
0.5
 72
     1
 11
74.037599999999998
 21
160.03999999999999
 31
0.0
  0
TEXT
  5
40
  8
0
 62
     7
 10
22.287500000000001
 20
39.127200000000002
 30
0.0
 40
3.9357000000000002
  1
※壁取付部には厚さ30mm以上の補強木を入れてください。
 41
0.5
  0
TEXT
  5
41
  8
0
 62
     7
 10
31.578766000000002
 20
113.654
 30
0.0
 40
3.0923400000000001
  1
カウンター面
 41
0.5
 72
     1
 11
37.041899999999998
 21
113.654
 31
0.0
  0
LINE
  5
42
  8
0
 62
     7
 10
38.7896
 20
112.804
 30
0.0
 11
37.041899999999998
 21
109.777
 31
0.0
  0
LINE
  5
43
  8
0
 62
     7
 10
37.041899999999998
 20
109.777
 30
0.0
 11
35.294199999999996
 21
112.804
 31
0.0
  0
LINE
  5
44
  8
0
 62
     7
 10
35.294199999999996
 20
112.804
 30
0.0
 11
38.7896
 21
112.804
 31
0.0
  0
LINE
  5
45
  8
0
  6
AIGENLINE001
 62
     7
 10
77.215400000000002
 20
113.277
 30
0.0
 11
74.038300000000007
 21
113.277
 31
0.0
  0
LINE
  5
46
  8
0
  6
AIGENLINE001
 62
     7
 10
77.538600000000002
 20
112.679
 30
0.0
 11
77.538600000000002
 21
110.777
 31
0.0
  0
LINE
  5
47
  8
0
  6
AIGENLINE001
 62
     7
 10
77.538600000000002
 20
110.777
 30
0.0
 11
76.337900000000005
 21
110.777
 31
0.0
  0
LINE
  5
48
  8
0
  6
AIGENLINE001
 62
     7
 10
70.5381
 20
112.679
 30
0.0
 11
70.5381
 21
110.777
 31
0.0
  0
LINE
  5
49
  8
0
  6
AIGENLINE001
 62
     7
 10
70.860900000000001
 20
113.277
 30
0.0
 11
74.038300000000007
 21
113.277
 31
0.0
  0
LINE
  5
4A
  8
0
  6
AIGENLINE001
 62
     7
 10
70.5381
 20
110.777
 30
0.0
 11
71.738399999999999
 21
110.777
 31
0.0
  0
LINE
  5
4B
  8
0
 62
     7
 10
26.381699999999999
 20
111.98699999999999
 30
0.0
 11
26.9739
 21
109.777
 31
0.0
  0
LINE
  5
4C
  8
0
 62
     7
 10
26.9739
 20
109.777
 30
0.0
 11
27.566299999999998
 21
111.98699999999999
 31
0.0
  0
LINE
  5
4D
  8
0
 62
     7
 10
27.566299999999998
 20
111.98699999999999
 30
0.0
 11
26.381699999999999
 21
111.98699999999999
 31
0.0
  0
LINE
  5
4E
  8
0
 62
     7
 10
27.566099999999999
 20
104.566
 30
0.0
 11
26.9739
 21
106.777
 31
0.0
  0
LINE
  5
4F
  8
0
 62
     7
 10
26.9739
 20
106.777
 30
0.0
 11
26.381499999999999
 21
104.566
 31
0.0
  0
LINE
  5
50
  8
0
 62
     7
 10
26.381499999999999
 20
104.566
 30
0.0
 11
27.566099999999999
 21
104.566
 31
0.0
  0
LINE
  5
51
  8
0
 62
     7
 10
26.9739
 20
102.84699999999999
 30
0.0
 11
26.9739
 21
114.70399999999999
 31
0.0
  0
LINE
  5
52
  8
0
 62
     7
 10
31.697099999999999
 20
106.777
 30
0.0
 11
26.273800000000001
 21
106.777
 31
0.0
  0
LINE
  5
53
  8
0
 62
     7
 10
31.697099999999999
 20
109.777
 30
0.0
 11
26.273800000000001
 21
109.777
 31
0.0
  0
LINE
  5
54
  8
0
  6
AIGENLINE003
 62
     7
 10
32.397199999999998
 20
106.777
 30
0.0
 11
97.111099999999993
 21
106.777
 31
0.0
  0
LINE
  5
55
  8
0
  6
AIGENLINE003
 62
     7
 10
32.397199999999998
 20
109.777
 30
0.0
 11
97.111099999999993
 21
109.777
 31
0.0
  0
LINE
  5
56
  8
0
 62
     7
 10
59.785499999999999
 20
105.494
 30
0.0
 11
59.785499999999999
 21
105.797
 31
0.0
  0
LINE
  5
57
  8
0
 62
     7
 10
59.785499999999999
 20
105.797
 30
0.0
 11
59.785499999999999
 21
106.431
 31
0.0
  0
LINE
  5
58
  8
0
 62
     7
 10
60.287100000000002
 20
105.494
 30
0.0
 11
60.287100000000002
 21
105.797
 31
0.0
  0
LINE
  5
59
  8
0
 62
     7
 10
60.287100000000002
 20
105.797
 30
0.0
 11
60.287100000000002
 21
106.431
 31
0.0
  0
LINE
  5
5A
  8
0
 62
     7
 10
60.287100000000002
 20
105.494
 30
0.0
 11
60.216200000000001
 21
105.309
 31
0.0
  0
LINE
  5
5B
  8
0
 62
     7
 10
59.85649999999999
 20
105.309
 30
0.0
 11
59.785499999999999
 21
105.494
 31
0.0
  0
LINE
  5
5C
  8
0
 62
     7
 10
59.85649999999999
 20
105.309
 30
0.0
 11
60.216200000000001
 21
105.309
 31
0.0
  0
LINE
  5
5D
  8
0
 62
     7
 10
59.785499999999999
 20
105.494
 30
0.0
 11
60.287100000000002
 21
105.494
 31
0.0
  0
LINE
  5
5E
  8
0
 62
     7
 10
60.6571
 20
105.797
 30
0.0
 11
60.6571
 21
106.431
 31
0.0
  0
LINE
  5
5F
  8
0
 62
     7
 10
59.415500000000002
 20
105.797
 30
0.0
 11
59.415500000000002
 21
106.431
 31
0.0
  0
LINE
  5
60
  8
0
 62
     7
 10
59.415500000000002
 20
105.797
 30
0.0
 11
60.6571
 21
105.797
 31
0.0
  0
LINE
  5
61
  8
0
 62
     7
 10
59.151600000000002
 20
106.431
 30
0.0
 11
60.921000000000006
 21
106.431
 31
0.0
  0
LINE
  5
62
  8
0
 62
     7
 10
59.151600000000002
 20
106.431
 30
0.0
 11
59.151600000000002
 21
106.777
 31
0.0
  0
LINE
  5
63
  8
0
 62
     7
 10
60.921000000000006
 20
106.431
 30
0.0
 11
60.921000000000006
 21
106.777
 31
0.0
  0
LINE
  5
64
  8
0
 62
     7
 10
59.151600000000002
 20
106.777
 30
0.0
 11
60.921000000000006
 21
106.777
 31
0.0
  0
LINE
  5
65
  8
0
 62
     7
 10
59.785499999999999
 20
106.777
 30
0.0
 11
59.785499999999999
 21
109.777
 31
0.0
  0
LINE
  5
66
  8
0
 62
     7
 10
60.287100000000002
 20
106.777
 30
0.0
 11
60.287100000000002
 21
109.777
 31
0.0
  0
LINE
  5
67
  8
0
 62
     7
 10
87.787300000000016
 20
105.494
 30
0.0
 11
87.787300000000016
 21
105.797
 31
0.0
  0
LINE
  5
68
  8
0
 62
     7
 10
87.787300000000016
 20
105.797
 30
0.0
 11
87.787300000000016
 21
106.431
 31
0.0
  0
LINE
  5
69
  8
0
 62
     7
 10
88.288899999999984
 20
105.494
 30
0.0
 11
88.288899999999984
 21
105.797
 31
0.0
  0
LINE
  5
6A
  8
0
 62
     7
 10
88.288899999999984
 20
105.797
 30
0.0
 11
88.288899999999984
 21
106.431
 31
0.0
  0
LINE
  5
6B
  8
0
 62
     7
 10
88.288899999999984
 20
105.494
 30
0.0
 11
88.2179
 21
105.309
 31
0.0
  0
LINE
  5
6C
  8
0
 62
     7
 10
87.858199999999997
 20
105.309
 30
0.0
 11
87.787300000000016
 21
105.494
 31
0.0
  0
LINE
  5
6D
  8
0
 62
     7
 10
87.858199999999997
 20
105.309
 30
0.0
 11
88.2179
 21
105.309
 31
0.0
  0
LINE
  5
6E
  8
0
 62
     7
 10
87.787300000000016
 20
105.494
 30
0.0
 11
88.288899999999984
 21
105.494
 31
0.0
  0
LINE
  5
6F
  8
0
 62
     7
 10
88.658900000000003
 20
105.797
 30
0.0
 11
88.658900000000003
 21
106.431
 31
0.0
  0
LINE
  5
70
  8
0
 62
     7
 10
87.417299999999997
 20
105.797
 30
0.0
 11
87.417299999999997
 21
106.431
 31
0.0
  0
LINE
  5
71
  8
0
 62
     7
 10
87.417299999999997
 20
105.797
 30
0.0
 11
88.658900000000003
 21
105.797
 31
0.0
  0
LINE
  5
72
  8
0
 62
     7
 10
87.153400000000005
 20
106.431
 30
0.0
 11
88.922799999999995
 21
106.431
 31
0.0
  0
LINE
  5
73
  8
0
 62
     7
 10
87.153400000000005
 20
106.431
 30
0.0
 11
87.153400000000005
 21
106.777
 31
0.0
  0
LINE
  5
74
  8
0
 62
     7
 10
88.922799999999995
 20
106.431
 30
0.0
 11
88.922799999999995
 21
106.777
 31
0.0
  0
LINE
  5
75
  8
0
 62
     7
 10
87.153400000000005
 20
106.777
 30
0.0
 11
88.922799999999995
 21
106.777
 31
0.0
  0
LINE
  5
76
  8
0
 62
     7
 10
87.787300000000016
 20
106.777
 30
0.0
 11
87.787300000000016
 21
109.777
 31
0.0
  0
LINE
  5
77
  8
0
 62
     7
 10
88.288899999999984
 20
106.777
 30
0.0
 11
88.288899999999984
 21
109.777
 31
0.0
  0
LINE
  5
78
  8
0
 62
     7
 10
134.30799999999999
 20
105.494
 30
0.0
 11
134.30799999999999
 21
105.797
 31
0.0
  0
LINE
  5
79
  8
0
 62
     7
 10
134.30799999999999
 20
105.797
 30
0.0
 11
134.30799999999999
 21
106.431
 31
0.0
  0
LINE
  5
7A
  8
0
 62
     7
 10
134.809
 20
105.494
 30
0.0
 11
134.809
 21
105.797
 31
0.0
  0
LINE
  5
7B
  8
0
 62
     7
 10
134.809
 20
105.797
 30
0.0
 11
134.809
 21
106.431
 31
0.0
  0
LINE
  5
7C
  8
0
 62
     7
 10
134.809
 20
105.494
 30
0.0
 11
134.738
 21
105.309
 31
0.0
  0
LINE
  5
7D
  8
0
 62
     7
 10
134.37899999999999
 20
105.309
 30
0.0
 11
134.30799999999999
 21
105.494
 31
0.0
  0
LINE
  5
7E
  8
0
 62
     7
 10
134.37899999999999
 20
105.309
 30
0.0
 11
134.738
 21
105.309
 31
0.0
  0
LINE
  5
7F
  8
0
 62
     7
 10
134.30799999999999
 20
105.494
 30
0.0
 11
134.809
 21
105.494
 31
0.0
  0
LINE
  5
80
  8
0
 62
     7
 10
135.179
 20
105.797
 30
0.0
 11
135.179
 21
106.431
 31
0.0
  0
LINE
  5
81
  8
0
 62
     7
 10
133.93799999999999
 20
105.797
 30
0.0
 11
133.93799999999999
 21
106.431
 31
0.0
  0
LINE
  5
82
  8
0
 62
     7
 10
133.93799999999999
 20
105.797
 30
0.0
 11
135.179
 21
105.797
 31
0.0
  0
LINE
  5
83
  8
0
 62
     7
 10
133.67400000000001
 20
106.431
 30
0.0
 11
135.44300000000001
 21
106.431
 31
0.0
  0
LINE
  5
84
  8
0
 62
     7
 10
133.67400000000001
 20
106.431
 30
0.0
 11
133.67400000000001
 21
106.777
 31
0.0
  0
LINE
  5
85
  8
0
 62
     7
 10
135.44300000000001
 20
106.431
 30
0.0
 11
135.44300000000001
 21
106.777
 31
0.0
  0
LINE
  5
86
  8
0
 62
     7
 10
133.67400000000001
 20
106.777
 30
0.0
 11
135.44300000000001
 21
106.777
 31
0.0
  0
LINE
  5
87
  8
0
 62
     7
 10
134.30799999999999
 20
106.777
 30
0.0
 11
134.30799999999999
 21
109.777
 31
0.0
  0
LINE
  5
88
  8
0
 62
     7
 10
134.809
 20
106.777
 30
0.0
 11
134.809
 21
109.777
 31
0.0
  0
LINE
  5
89
  8
0
 62
     7
 10
167.279
 20
118.065
 30
0.0
 11
166.68700000000001
 21
120.277
 31
0.0
  0
LINE
  5
8A
  8
0
 62
     7
 10
166.68700000000001
 20
120.277
 30
0.0
 11
166.09399999999999
 21
118.065
 31
0.0
  0
LINE
  5
8B
  8
0
 62
     7
 10
166.09399999999999
 20
118.065
 30
0.0
 11
167.279
 21
118.065
 31
0.0
  0
LINE
  5
8C
  8
0
 62
     7
 10
166.108
 20
115.514
 30
0.0
 11
166.70099999999999
 21
113.303
 31
0.0
  0
LINE
  5
8D
  8
0
 62
     7
 10
166.70099999999999
 20
113.303
 30
0.0
 11
167.29400000000001
 21
115.514
 31
0.0
  0
LINE
  5
8E
  8
0
 62
     7
 10
167.29400000000001
 20
115.514
 30
0.0
 11
166.108
 21
115.514
 31
0.0
  0
LINE
  5
8F
  8
0
 62
     7
 10
166.69399999999999
 20
120.276
 30
0.0
 11
166.69399999999999
 21
113.304
 31
0.0
  0
LINE
  5
90
  8
0
 62
     7
 10
62.278100000000002
 20
115.777
 30
0.0
 11
48.63089999999999
 21
115.777
 31
0.0
  0
LINE
  5
91
  8
0
 62
     7
 10
48.63089999999999
 20
120.277
 30
0.0
 11
53.381100000000004
 21
120.277
 31
0.0
  0
LINE
  5
92
  8
0
 62
     7
 10
109.944
 20
109.777
 30
0.0
 11
97.852900000000005
 21
109.777
 31
0.0
  0
LINE
  5
93
  8
0
 62
     7
 10
49.916600000000003
 20
113.56399999999999
 30
0.0
 11
49.323700000000002
 21
115.77500000000001
 31
0.0
  0
LINE
  5
94
  8
0
 62
     7
 10
49.323700000000002
 20
115.77500000000001
 30
0.0
 11
48.731200000000001
 21
113.56399999999999
 31
0.0
  0
LINE
  5
95
  8
0
 62
     7
 10
48.731200000000001
 20
113.56399999999999
 30
0.0
 11
49.916600000000003
 21
113.56399999999999
 31
0.0
  0
LINE
  5
96
  8
0
 62
     7
 10
49.331000000000003
 20
115.77500000000001
 30
0.0
 11
49.331000000000003
 21
112.06399999999999
 31
0.0
  0
LINE
  5
97
  8
0
 62
     7
 10
48.745699999999999
 20
122.499
 30
0.0
 11
49.338200000000001
 21
120.288
 31
0.0
  0
LINE
  5
98
  8
0
 62
     7
 10
49.338200000000001
 20
120.288
 30
0.0
 11
49.930799999999991
 21
122.499
 31
0.0
  0
LINE
  5
99
  8
0
 62
     7
 10
49.930799999999991
 20
122.499
 30
0.0
 11
48.745699999999999
 21
122.499
 31
0.0
  0
LINE
  5
9A
  8
0
 62
     7
 10
49.331000000000003
 20
124.0
 30
0.0
 11
49.331000000000003
 21
115.77500000000001
 31
0.0
  0
LINE
  5
9B
  8
0
 62
     7
 10
103.24299999999999
 20
113.56399999999999
 30
0.0
 11
102.65000000000001
 21
115.77500000000001
 31
0.0
  0
LINE
  5
9C
  8
0
 62
     7
 10
102.65000000000001
 20
115.77500000000001
 30
0.0
 11
102.05800000000001
 21
113.56399999999999
 31
0.0
  0
LINE
  5
9D
  8
0
 62
     7
 10
102.05800000000001
 20
113.56399999999999
 30
0.0
 11
103.24299999999999
 21
113.56399999999999
 31
0.0
  0
LINE
  5
9E
  8
0
 62
     7
 10
102.072
 20
111.986
 30
0.0
 11
102.66500000000001
 21
109.77500000000001
 31
0.0
  0
LINE
  5
9F
  8
0
 62
     7
 10
102.66500000000001
 20
109.77500000000001
 30
0.0
 11
103.25700000000001
 21
111.986
 31
0.0
  0
LINE
  5
A0
  8
0
 62
     7
 10
103.25700000000001
 20
111.986
 30
0.0
 11
102.072
 21
111.986
 31
0.0
  0
LINE
  5
A1
  8
0
 62
     7
 10
102.658
 20
115.77500000000001
 30
0.0
 11
102.658
 21
109.77500000000001
 31
0.0
  0
LINE
  5
A2
  8
0
 62
     7
 10
102.072
 20
122.499
 30
0.0
 11
102.66500000000001
 21
120.288
 31
0.0
  0
LINE
  5
A3
  8
0
 62
     7
 10
102.66500000000001
 20
120.288
 30
0.0
 11
103.25700000000001
 21
122.499
 31
0.0
  0
LINE
  5
A4
  8
0
 62
     7
 10
103.25700000000001
 20
122.499
 30
0.0
 11
102.072
 21
122.499
 31
0.0
  0
LINE
  5
A5
  8
0
 62
     7
 10
102.658
 20
124.0
 30
0.0
 11
102.658
 21
115.77500000000001
 31
0.0
  0
LINE
  5
A6
  8
0
 62
     7
 10
94.738
 20
115.777
 30
0.0
 11
103.358
 21
115.777
 31
0.0
  0
LINE
  5
A7
  8
0
 62
     7
 10
94.738
 20
120.277
 30
0.0
 11
109.944
 21
120.277
 31
0.0
  0
LINE
  5
A8
  8
0
 62
     7
 10
67.251099999999994
 20
126.512
 30
0.0
 11
65.039699999999996
 21
125.919
 31
0.0
  0
LINE
  5
A9
  8
0
 62
     7
 10
65.039699999999996
 20
125.919
 30
0.0
 11
67.251099999999994
 21
125.327
 31
0.0
  0
LINE
  5
AA
  8
0
 62
     7
 10
67.251099999999994
 20
125.327
 30
0.0
 11
67.251099999999994
 21
126.512
 31
0.0
  0
LINE
  5
AB
  8
0
 62
     7
 10
80.829300000000003
 20
125.34099999999999
 30
0.0
 11
83.041099999999986
 21
125.934
 31
0.0
  0
LINE
  5
AC
  8
0
 62
     7
 10
83.041099999999986
 20
125.934
 30
0.0
 11
80.829300000000003
 21
126.526
 31
0.0
  0
LINE
  5
AD
  8
0
 62
     7
 10
80.829300000000003
 20
126.526
 30
0.0
 11
80.829300000000003
 21
125.34099999999999
 31
0.0
  0
LINE
  5
AE
  8
0
 62
     7
 10
65.040400000000005
 20
125.92700000000001
 30
0.0
 11
83.040400000000005
 21
125.92700000000001
 31
0.0
  0
LINE
  5
AF
  8
0
 62
     7
 10
83.033500000000004
 20
126.627
 30
0.0
 11
83.033500000000004
 21
118.072
 31
0.0
  0
LINE
  5
B0
  8
0
 62
     7
 10
65.043099999999995
 20
126.627
 30
0.0
 11
65.043099999999995
 21
118.072
 31
0.0
  0
LINE
  5
B1
  8
0
 62
     7
 10
90.537999999999997
 20
109.133
 30
0.0
 11
90.537999999999997
 21
101.455
 31
0.0
  0
LINE
  5
B2
  8
0
 62
     7
 10
59.751100000000001
 20
102.741
 30
0.0
 11
57.539700000000003
 21
102.148
 31
0.0
  0
LINE
  5
B3
  8
0
 62
     7
 10
57.539700000000003
 20
102.148
 30
0.0
 11
59.751100000000001
 21
101.556
 31
0.0
  0
LINE
  5
B4
  8
0
 62
     7
 10
59.751100000000001
 20
101.556
 30
0.0
 11
59.751100000000001
 21
102.741
 31
0.0
  0
LINE
  5
B5
  8
0
 62
     7
 10
88.329400000000007
 20
101.56999999999999
 30
0.0
 11
90.541099999999986
 21
102.163
 31
0.0
  0
LINE
  5
B6
  8
0
 62
     7
 10
90.541099999999986
 20
102.163
 30
0.0
 11
88.329400000000007
 21
102.755
 31
0.0
  0
LINE
  5
B7
  8
0
 62
     7
 10
88.329400000000007
 20
102.755
 30
0.0
 11
88.329400000000007
 21
101.56999999999999
 31
0.0
  0
LINE
  5
B8
  8
0
 62
     7
 10
57.540300000000002
 20
102.155
 30
0.0
 11
90.540400000000005
 21
102.155
 31
0.0
  0
LINE
  5
B9
  8
0
 62
     7
 10
57.536200000000001
 20
109.107
 30
0.0
 11
57.536200000000001
 21
101.429
 31
0.0
  0
ARC
  5
BA
  8
0
  6
AIGENLINE001
 62
     7
 10
149.65501399999999
 20
119.255917
 30
0.0
 40
1.02112
 50
90.665856999999988
 51
149.71428
  0
ARC
  5
BB
  8
0
  6
AIGENLINE001
 62
     7
 10
130.992591
 20
119.258411
 30
0.0
 40
1.018613999999999
 50
31.492222999999999
 51
89.395369999999986
  0
ARC
  5
BC
  8
0
  6
AIGENLINE001
 62
     7
 10
144.72232700000001
 20
113.865172
 30
0.0
 40
0.561855
 50
270.7189029999999
 51
329.86572000000001
  0
ARC
  5
BD
  8
0
  6
AIGENLINE001
 62
     7
 10
136.05984799999999
 20
113.853746
 30
0.0
 40
0.55832
 50
214.01463200000001
 51
270.37766099999999
  0
ARC
  5
BE
  8
0
 62
     7
 10
158.29898499999999
 20
120.01718700000001
 30
0.0
 40
0.25996
 50
2.1307099999999992
 51
87.869280000000003
  0
ARC
  5
BF
  8
0
 62
     7
 10
158.29898499999999
 20
110.03637500000001
 30
0.0
 40
0.25996
 50
272.13072
 51
357.86928999999998
  0
LINE
  5
C0
  8
0
 62
     7
 10
158.559
 20
109.077
 30
0.0
 11
158.559
 21
95.454599999999999
 31
0.0
  0
LINE
  5
C1
  8
0
 62
     7
 10
132.05799999999999
 20
109.077
 30
0.0
 11
132.05799999999999
 21
95.454599999999999
 31
0.0
  0
LINE
  5
C2
  8
0
 62
     7
 10
158.559
 20
120.027
 30
0.0
 11
158.559
 21
110.027
 31
0.0
  0
LINE
  5
C3
  8
0
  6
AIGENLINE001
 62
     7
 10
144.751
 20
113.303
 30
0.0
 11
143.73099999999999
 21
113.28400000000001
 31
0.0
  0
ARC
  5
C4
  8
0
 62
     7
 10
131.55661799999999
 20
115.256721
 30
0.0
 40
0.5195590000000001
 50
2.1684459999999999
 51
87.871044999999995
  0
ARC
  5
C5
  8
0
 62
     7
 10
132.769688
 20
110.29579699999999
 30
0.0
 40
0.519562
 50
182.09256099999999
 51
267.86799500000001
  0
LINE
  5
C6
  8
0
 62
     7
 10
132.07599999999999
 20
115.276
 30
0.0
 11
132.25
 21
110.277
 31
0.0
  0
ARC
  5
C7
  8
0
 62
     7
 10
129.07787999999999
 20
116.296137
 30
0.0
 40
0.519898
 50
182.127003
 51
267.83355299999999
  0
ARC
  5
C8
  8
0
 62
     7
 10
129.07754199999999
 20
119.757766
 30
0.0
 40
0.5195610000000001
 50
92.130477999999997
 51
177.86949300000001
  0
LINE
  5
C9
  8
0
  6
AIGENLINE001
 62
     7
 10
131.86099999999999
 20
119.791
 30
0.0
 11
135.59700000000001
 21
113.541
 31
0.0
  0
LINE
  5
CA
  8
0
 62
     7
 10
134.26900000000001
 20
96.739900000000006
 30
0.0
 11
132.05799999999999
 21
96.147400000000005
 31
0.0
  0
LINE
  5
CB
  8
0
 62
     7
 10
132.05799999999999
 20
96.147400000000005
 30
0.0
 11
134.26900000000001
 21
95.554800000000014
 31
0.0
  0
LINE
  5
CC
  8
0
 62
     7
 10
134.26900000000001
 20
95.554800000000014
 30
0.0
 11
134.26900000000001
 21
96.739900000000006
 31
0.0
  0
LINE
  5
CD
  8
0
 62
     7
 10
156.34700000000001
 20
95.569299999999984
 30
0.0
 11
158.559
 21
96.161799999999985
 31
0.0
  0
LINE
  5
CE
  8
0
 62
     7
 10
158.559
 20
96.161799999999985
 30
0.0
 11
156.34700000000001
 21
96.754400000000004
 31
0.0
  0
LINE
  5
CF
  8
0
 62
     7
 10
156.34700000000001
 20
96.754400000000004
 30
0.0
 11
156.34700000000001
 21
95.569299999999984
 31
0.0
  0
LINE
  5
D0
  8
0
 62
     7
 10
132.05799999999999
 20
96.154600000000002
 30
0.0
 11
158.559
 21
96.154600000000002
 31
0.0
  0
LINE
  5
D1
  8
0
 62
     7
 10
142.27000000000001
 20
102.733
 30
0.0
 11
140.05699999999999
 21
102.14100000000001
 31
0.0
  0
LINE
  5
D2
  8
0
 62
     7
 10
140.05699999999999
 20
102.14100000000001
 30
0.0
 11
142.27000000000001
 21
101.548
 31
0.0
  0
LINE
  5
D3
  8
0
 62
     7
 10
142.27000000000001
 20
101.548
 30
0.0
 11
142.27000000000001
 21
102.733
 31
0.0
  0
LINE
  5
D4
  8
0
 62
     7
 10
156.34700000000001
 20
101.563
 30
0.0
 11
158.559
 21
102.155
 31
0.0
  0
LINE
  5
D5
  8
0
 62
     7
 10
158.559
 20
102.155
 30
0.0
 11
156.34700000000001
 21
102.748
 31
0.0
  0
LINE
  5
D6
  8
0
 62
     7
 10
156.34700000000001
 20
102.748
 30
0.0
 11
156.34700000000001
 21
101.563
 31
0.0
  0
LINE
  5
D7
  8
0
 62
     7
 10
140.05799999999999
 20
102.148
 30
0.0
 11
158.559
 21
102.148
 31
0.0
  0
LINE
  5
D8
  8
0
 62
     7
 10
173.77799999999999
 20
120.277
 30
0.0
 11
159.25800000000001
 21
120.277
 31
0.0
  0
LINE
  5
D9
  8
0
 62
     7
 10
173.66300000000001
 20
118.065
 30
0.0
 11
173.071
 21
120.277
 31
0.0
  0
LINE
  5
DA
  8
0
 62
     7
 10
173.071
 20
120.277
 30
0.0
 11
172.47799999999989
 21
118.065
 31
0.0
  0
LINE
  5
DB
  8
0
 62
     7
 10
172.47799999999989
 20
118.065
 30
0.0
 11
173.66300000000001
 21
118.065
 31
0.0
  0
LINE
  5
DC
  8
0
 62
     7
 10
172.49199999999999
 20
112.98699999999999
 30
0.0
 11
173.08500000000001
 21
110.776
 31
0.0
  0
LINE
  5
DD
  8
0
 62
     7
 10
173.08500000000001
 20
110.776
 30
0.0
 11
173.678
 21
112.98699999999999
 31
0.0
  0
LINE
  5
DE
  8
0
 62
     7
 10
173.678
 20
112.98699999999999
 30
0.0
 11
172.49199999999999
 21
112.98699999999999
 31
0.0
  0
LINE
  5
DF
  8
0
 62
     7
 10
173.078
 20
120.276
 30
0.0
 11
173.078
 21
110.776
 31
0.0
  0
LINE
  5
E0
  8
0
 62
     7
 10
109.837
 20
118.065
 30
0.0
 11
109.244
 21
120.277
 31
0.0
  0
LINE
  5
E1
  8
0
 62
     7
 10
109.244
 20
120.277
 30
0.0
 11
108.652
 21
118.065
 31
0.0
  0
LINE
  5
E2
  8
0
 62
     7
 10
108.652
 20
118.065
 30
0.0
 11
109.837
 21
118.065
 31
0.0
  0
LINE
  5
E3
  8
0
 62
     7
 10
108.666
 20
111.98699999999999
 30
0.0
 11
109.259
 21
109.776
 31
0.0
  0
LINE
  5
E4
  8
0
 62
     7
 10
109.259
 20
109.776
 30
0.0
 11
109.851
 21
111.98699999999999
 31
0.0
  0
LINE
  5
E5
  8
0
 62
     7
 10
109.851
 20
111.98699999999999
 30
0.0
 11
108.666
 21
111.98699999999999
 31
0.0
  0
LINE
  5
E6
  8
0
 62
     7
 10
109.252
 20
120.276
 30
0.0
 11
109.252
 21
109.776
 31
0.0
  0
LINE
  5
E7
  8
0
 62
     7
 10
132.75
 20
109.777
 30
0.0
 11
158.309
 21
109.777
 31
0.0
  0
LINE
  5
E8
  8
0
 62
     7
 10
158.309
 20
120.277
 30
0.0
 11
129.05799999999999
 21
120.277
 31
0.0
  0
LINE
  5
E9
  8
0
 62
     7
 10
131.38200000000001
 20
115.777
 30
0.0
 11
158.559
 21
115.777
 31
0.0
  0
LINE
  5
EA
  8
0
 62
     7
 10
128.55799999999999
 20
119.777
 30
0.0
 11
128.55799999999999
 21
116.277
 31
0.0
  0
LINE
  5
EB
  8
0
 62
     7
 10
129.05799999999999
 20
115.777
 30
0.0
 11
131.38200000000001
 21
115.777
 31
0.0
  0
ARC
  5
EC
  8
0
  6
AIGENLINE001
 62
     7
 10
83.215350999999998
 20
115.771259
 30
0.0
 40
1.6818310000000001
 50
143.372286
 51
179.888092
  0
ARC
  5
ED
  8
0
  6
AIGENLINE001
 62
     7
 10
83.218304000000003
 20
115.778809
 30
0.0
 40
1.6847859999999999
 50
180.145062
 51
216.59456
  0
ARC
  5
EE
  8
0
  6
AIGENLINE001
 62
     7
 10
82.848244999999991
 20
115.76917899999999
 30
0.0
 40
1.6852949999999991
 50
0.182391
 51
36.628281999999999
  0
ARC
  5
EF
  8
0
  6
AIGENLINE001
 62
     7
 10
82.851512999999997
 20
115.77882099999999
 30
0.0
 40
1.682024
 50
323.335035
 51
359.85429099999999
  0
LINE
  5
F0
  8
0
  6
AIGENLINE001
 62
     7
 10
81.865600000000001
 20
114.774
 30
0.0
 11
84.200699999999998
 21
114.774
 31
0.0
  0
LINE
  5
F1
  8
0
  6
AIGENLINE001
 62
     7
 10
84.200699999999998
 20
116.77500000000001
 30
0.0
 11
81.865600000000001
 21
116.77500000000001
 31
0.0
  0
ARC
  5
F2
  8
0
 62
     7
 10
93.518391000000008
 20
116.29611300000001
 30
0.0
 40
0.519887
 50
272.20333299999999
 51
357.875651
  0
ARC
  5
F3
  8
0
 62
     7
 10
93.518730000000005
 20
119.75779
 30
0.0
 40
0.519549
 50
2.1278509999999988
 51
87.832638000000003
  0
ARC
  5
F4
  8
0
  6
AIGENLINE001
 62
     7
 10
91.458387999999985
 20
119.621996
 30
0.0
 40
0.618343
 50
130.3871879999999
 51
161.948801
  0
ARC
  5
F5
  8
0
  6
AIGENLINE001
 62
     7
 10
91.534655000000015
 20
119.557548
 30
0.0
 40
0.7170350000000001
 50
90.492007000000001
 51
131.69235399999999
  0
LINE
  5
F6
  8
0
  6
AIGENLINE001
 62
     7
 10
90.870500000000007
 20
119.81399999999999
 30
0.0
 11
89.316699999999997
 21
114.931
 31
0.0
  0
ARC
  5
F7
  8
0
  6
AIGENLINE001
 62
     7
 10
143.58371099999999
 20
112.8449
 30
0.0
 40
0.390137
 50
122.2831409999999
 51
130.371545
  0
ARC
  5
F8
  8
0
  6
AIGENLINE001
 62
     7
 10
143.755886
 20
112.572321
 30
0.0
 40
0.7125390000000001
 50
92.030706000000009
 51
122.28108
  0
ARC
  5
F9
  8
0
  6
AIGENLINE001
 62
     7
 10
142.860105
 20
112.080494
 30
0.0
 40
0.5026570000000001
 50
166.32361700000001
 51
182.9242679999999
  0
ARC
  5
FA
  8
0
  6
AIGENLINE001
 62
     7
 10
143.08452600000001
 20
112.035397
 30
0.0
 40
0.731436
 50
127.980915
 51
167.047651
  0
LINE
  5
FB
  8
0
  6
AIGENLINE001
 62
     7
 10
143.33099999999999
 20
113.142
 30
0.0
 11
142.63399999999999
 21
112.61199999999999
 31
0.0
  0
LINE
  5
FC
  8
0
  6
AIGENLINE001
 62
     7
 10
142.358
 20
112.05500000000001
 30
0.0
 11
142.358
 21
110.777
 31
0.0
  0
LINE
  5
FD
  8
0
  6
AIGENLINE001
 62
     7
 10
142.358
 20
112.402
 30
0.0
 11
140.05799999999999
 21
112.402
 31
0.0
  0
LINE
  5
FE
  8
0
 62
     7
 10
167.4009999999999
 20
113.303
 30
0.0
 11
146.327
 21
113.303
 31
0.0
  0
LINE
  5
FF
  8
0
 62
     7
 10
173.77799999999999
 20
110.777
 30
0.0
 11
144.2579999999999
 21
110.777
 31
0.0
  0
LINE
  5
100
  8
0
  6
AIGENLINE001
 62
     7
 10
143.23599999999999
 20
113.277
 30
0.0
 11
140.05799999999999
 21
113.277
 31
0.0
  0
LINE
  5
101
  8
0
  6
AIGENLINE001
 62
     7
 10
142.358
 20
110.777
 30
0.0
 11
140.05799999999999
 21
110.777
 31
0.0
  0
LINE
  5
102
  8
0
  6
AIGENLINE001
 62
     7
 10
148.773
 20
119.771
 30
0.0
 11
145.208
 21
113.583
 31
0.0
  0
ARC
  5
103
  8
0
  6
AIGENLINE001
 62
     7
 10
136.54151300000001
 20
112.858289
 30
0.0
 40
0.37415
 50
49.343434000000002
 51
57.256068999999989
  0
ARC
  5
104
  8
0
  6
AIGENLINE001
 62
     7
 10
136.36280099999999
 20
112.57945599999999
 30
0.0
 40
0.7053380000000001
 50
57.296856000000012
 51
88.115828000000008
  0
ARC
  5
105
  8
0
  6
AIGENLINE001
 62
     7
 10
137.268688
 20
112.082222
 30
0.0
 40
0.4906020000000001
 50
356.80167000000012
 51
13.216398
  0
ARC
  5
106
  8
0
  6
AIGENLINE001
 62
     7
 10
137.034638
 20
112.036579
 30
0.0
 40
0.728945
 50
12.502991
 51
52.118965000000003
  0
LINE
  5
107
  8
0
  6
AIGENLINE001
 62
     7
 10
136.785
 20
113.142
 30
0.0
 11
137.482
 21
112.61199999999999
 31
0.0
  0
LINE
  5
108
  8
0
  6
AIGENLINE001
 62
     7
 10
143.559
 20
112.679
 30
0.0
 11
143.559
 21
110.777
 31
0.0
  0
LINE
  5
109
  8
0
  6
AIGENLINE001
 62
     7
 10
143.559
 20
110.777
 30
0.0
 11
142.358
 21
110.777
 31
0.0
  0
LINE
  5
10A
  8
0
  6
AIGENLINE001
 62
     7
 10
136.55799999999999
 20
112.679
 30
0.0
 11
136.55799999999999
 21
110.777
 31
0.0
  0
LINE
  5
10B
  8
0
  6
AIGENLINE001
 62
     7
 10
137.75899999999999
 20
112.05500000000001
 30
0.0
 11
137.75899999999999
 21
110.777
 31
0.0
  0
LINE
  5
10C
  8
0
  6
AIGENLINE001
 62
     7
 10
137.75899999999999
 20
112.402
 30
0.0
 11
140.05799999999999
 21
112.402
 31
0.0
  0
LINE
  5
10D
  8
0
  6
AIGENLINE001
 62
     7
 10
136.881
 20
113.277
 30
0.0
 11
140.05799999999999
 21
113.277
 31
0.0
  0
LINE
  5
10E
  8
0
  6
AIGENLINE001
 62
     7
 10
136.55799999999999
 20
110.777
 30
0.0
 11
137.75899999999999
 21
110.777
 31
0.0
  0
LINE
  5
10F
  8
0
  6
AIGENLINE001
 62
     7
 10
137.75899999999999
 20
110.777
 30
0.0
 11
140.05799999999999
 21
110.777
 31
0.0
  0
LINE
  5
110
  8
0
  6
AIGENLINE001
 62
     7
 10
136.06399999999999
 20
113.295
 30
0.0
 11
136.386
 21
113.28400000000001
 31
0.0
  0
LINE
  5
111
  8
0
  6
AIGENLINE002
 62
     7
 10
156.34700000000001
 20
115.777
 30
0.0
 11
160.864
 21
115.777
 31
0.0
  0
LINE
  5
112
  8
0
  6
AIGENLINE002
 62
     7
 10
153.059
 20
122.373
 30
0.0
 11
153.059
 21
117.619
 31
0.0
  0
LINE
  5
113
  8
0
 62
     7
 10
140.05799999999999
 20
107.729
 30
0.0
 11
140.05799999999999
 21
101.44799999999999
 31
0.0
  0
LINE
  5
114
  8
0
  6
AIGENLINE002
 62
     7
 10
140.05799999999999
 20
121.39400000000001
 30
0.0
 11
140.05799999999999
 21
108.429
 31
0.0
  0
ARC
  5
115
  8
0
  6
AIGENLINE001
 62
     7
 10
77.55846600000001
 20
112.85275300000001
 30
0.0
 40
0.380638
 50
122.72200599999999
 51
130.51454200000001
  0
ARC
  5
116
  8
0
  6
AIGENLINE001
 62
     7
 10
77.734843000000012
 20
112.576182
 30
0.0
 40
0.708662
 50
91.99825300000002
 51
122.63163400000001
  0
ARC
  5
117
  8
0
  6
AIGENLINE001
 62
     7
 10
76.83585699999999
 20
112.08202900000001
 30
0.0
 40
0.498313
 50
166.38373100000001
 51
183.12657200000001
  0
ARC
  5
118
  8
0
  6
AIGENLINE001
 62
     7
 10
77.063174000000004
 20
112.03654899999999
 30
0.0
 40
0.730007
 50
127.984184
 51
167.11462
  0
LINE
  5
119
  8
0
  6
AIGENLINE002
 62
     7
 10
85.097800000000007
 20
115.77500000000001
 30
0.0
 11
80.910600000000002
 21
115.77500000000001
 31
0.0
  0
LINE
  5
11A
  8
0
  6
AIGENLINE002
 62
     7
 10
83.033500000000004
 20
117.372
 30
0.0
 11
83.033500000000004
 21
114.342
 31
0.0
  0
LINE
  5
11B
  8
0
 62
     7
 10
89.652999999999992
 20
109.777
 30
0.0
 11
74.038300000000007
 21
109.777
 31
0.0
  0
LINE
  5
11C
  8
0
 62
     7
 10
90.3523
 20
110.453
 30
0.0
 11
90.335099999999997
 21
110.31999999999999
 31
0.0
  0
LINE
  5
11D
  8
0
 62
     7
 10
90.335099999999997
 20
110.31999999999999
 30
0.0
 11
90.292399999999986
 21
110.19199999999999
 31
0.0
  0
LINE
  5
11E
  8
0
 62
     7
 10
90.292399999999986
 20
110.19199999999999
 30
0.0
 11
90.226200000000006
 21
110.075
 31
0.0
  0
LINE
  5
11F
  8
0
 62
     7
 10
90.226200000000006
 20
110.075
 30
0.0
 11
90.1387
 21
109.973
 31
0.0
  0
LINE
  5
120
  8
0
 62
     7
 10
90.1387
 20
109.973
 30
0.0
 11
90.033999999999992
 21
109.89
 31
0.0
  0
LINE
  5
121
  8
0
 62
     7
 10
90.033999999999992
 20
109.89
 30
0.0
 11
89.914800000000014
 21
109.828
 31
0.0
  0
LINE
  5
122
  8
0
 62
     7
 10
89.914800000000014
 20
109.828
 30
0.0
 11
89.786600000000007
 21
109.79000000000001
 31
0.0
  0
LINE
  5
123
  8
0
 62
     7
 10
89.786600000000007
 20
109.79000000000001
 30
0.0
 11
89.652999999999992
 21
109.777
 31
0.0
  0
LINE
  5
124
  8
0
 62
     7
 10
90.514899999999983
 20
115.101
 30
0.0
 11
90.3523
 21
110.453
 31
0.0
  0
LINE
  5
125
  8
0
 62
     7
 10
91.214299999999994
 20
115.777
 30
0.0
 11
91.080600000000004
 21
115.764
 31
0.0
  0
LINE
  5
126
  8
0
 62
     7
 10
91.080600000000004
 20
115.764
 30
0.0
 11
90.951800000000006
 21
115.726
 31
0.0
  0
LINE
  5
127
  8
0
 62
     7
 10
90.951800000000006
 20
115.726
 30
0.0
 11
90.832599999999999
 21
115.664
 31
0.0
  0
LINE
  5
128
  8
0
 62
     7
 10
90.832599999999999
 20
115.664
 30
0.0
 11
90.727900000000005
 21
115.58
 31
0.0
  0
LINE
  5
129
  8
0
 62
     7
 10
90.727900000000005
 20
115.58
 30
0.0
 11
90.641000000000005
 21
115.47799999999999
 31
0.0
  0
LINE
  5
12A
  8
0
 62
     7
 10
90.641000000000005
 20
115.47799999999999
 30
0.0
 11
90.574899999999985
 21
115.36199999999999
 31
0.0
  0
LINE
  5
12B
  8
0
 62
     7
 10
90.574899999999985
 20
115.36199999999999
 30
0.0
 11
90.532200000000003
 21
115.23399999999999
 31
0.0
  0
LINE
  5
12C
  8
0
 62
     7
 10
90.532200000000003
 20
115.23399999999999
 30
0.0
 11
90.514899999999983
 21
115.101
 31
0.0
  0
LINE
  5
12D
  8
0
 62
     7
 10
94.037899999999979
 20
119.777
 30
0.0
 11
94.037899999999979
 21
116.277
 31
0.0
  0
LINE
  5
12E
  8
0
 62
     7
 10
93.538399999999996
 20
115.777
 30
0.0
 11
91.214299999999994
 21
115.777
 31
0.0
  0
LINE
  5
12F
  8
0
 62
     7
 10
74.038300000000007
 20
120.277
 30
0.0
 11
93.538399999999996
 21
120.277
 31
0.0
  0
LINE
  5
130
  8
0
  6
AIGENLINE001
 62
     7
 10
77.311199999999999
 20
113.142
 30
0.0
 11
76.613900000000001
 21
112.61199999999999
 31
0.0
  0
LINE
  5
131
  8
0
  6
AIGENLINE001
 62
     7
 10
76.338300000000004
 20
112.05500000000001
 30
0.0
 11
76.338300000000004
 21
110.777
 31
0.0
  0
LINE
  5
132
  8
0
  6
AIGENLINE001
 62
     7
 10
76.338300000000004
 20
112.402
 30
0.0
 11
74.038300000000007
 21
112.402
 31
0.0
  0
LINE
  5
133
  8
0
  6
AIGENLINE001
 62
     7
 10
77.215400000000002
 20
113.277
 30
0.0
 11
74.038300000000007
 21
113.277
 31
0.0
  0
LINE
  5
134
  8
0
  6
AIGENLINE001
 62
     7
 10
76.338300000000004
 20
110.777
 30
0.0
 11
74.038300000000007
 21
110.777
 31
0.0
  0
LINE
  5
135
  8
0
  6
AIGENLINE001
 62
     7
 10
87.505300000000005
 20
113.616
 30
0.0
 11
77.710099999999997
 21
113.28400000000001
 31
0.0
  0
ARC
  5
136
  8
0
  6
AIGENLINE001
 62
     7
 10
87.721361000000002
 20
115.44226399999999
 30
0.0
 40
1.6753409999999991
 50
318.32029299999999
 51
342.22567400000003
  0
ARC
  5
137
  8
0
  6
AIGENLINE001
 62
     7
 10
87.386049999999983
 20
115.70150599999999
 30
0.0
 40
2.098368999999999
 50
279.22401400000001
 51
319.1217069999999
  0
ARC
  5
138
  8
0
  6
AIGENLINE001
 62
     7
 10
87.510613000000006
 20
115.213706
 30
0.0
 40
1.5975369999999991
 50
269.80907000000008
 51
277.61844100000002
  0
LINE
  5
139
  8
0
 62
     7
 10
91.214299999999994
 20
115.777
 30
0.0
 11
74.038300000000007
 21
115.777
 31
0.0
  0
ARC
  5
13A
  8
0
  6
AIGENLINE001
 62
     7
 10
64.857843000000003
 20
115.76917899999999
 30
0.0
 40
1.6852949999999991
 50
0.182391
 51
36.628281999999999
  0
ARC
  5
13B
  8
0
  6
AIGENLINE001
 62
     7
 10
64.861109999999996
 20
115.77882099999999
 30
0.0
 40
1.682024
 50
323.335035
 51
359.85429099999999
  0
ARC
  5
13C
  8
0
  6
AIGENLINE001
 62
     7
 10
65.224947999999998
 20
115.771259
 30
0.0
 40
1.6818310000000001
 50
143.372286
 51
179.888092
  0
ARC
  5
13D
  8
0
  6
AIGENLINE001
 62
     7
 10
65.227901000000003
 20
115.778809
 30
0.0
 40
1.6847859999999999
 50
180.145062
 51
216.59456
  0
LINE
  5
13E
  8
0
  6
AIGENLINE001
 62
     7
 10
66.210300000000004
 20
114.774
 30
0.0
 11
63.8752
 21
114.774
 31
0.0
  0
LINE
  5
13F
  8
0
  6
AIGENLINE001
 62
     7
 10
63.8752
 20
116.77500000000001
 30
0.0
 11
66.210300000000004
 21
116.77500000000001
 31
0.0
  0
ARC
  5
140
  8
0
 62
     7
 10
54.538272999999997
 20
116.276842
 30
0.0
 40
0.5002310000000002
 50
179.99996999999999
 51
270.00002000000001
  0
ARC
  5
141
  8
0
 62
     7
 10
54.557254999999998
 20
119.75774199999999
 30
0.0
 40
0.519573
 50
92.093641000000005
 51
177.86685600000001
  0
ARC
  5
142
  8
0
  6
AIGENLINE001
 62
     7
 10
56.620539000000001
 20
119.624472
 30
0.0
 40
0.6147590000000001
 50
17.917285
 51
49.649126000000003
  0
ARC
  5
143
  8
0
  6
AIGENLINE001
 62
     7
 10
56.54164999999999
 20
119.557553
 30
0.0
 40
0.717033
 50
48.307198
 51
89.480226000000016
  0
LINE
  5
144
  8
0
  6
AIGENLINE001
 62
     7
 10
57.205500000000001
 20
119.81399999999999
 30
0.0
 11
58.7592
 21
114.931
 31
0.0
  0
ARC
  5
145
  8
0
  6
AIGENLINE001
 62
     7
 10
70.518186999999998
 20
112.85275300000001
 30
0.0
 40
0.380638
 50
49.485438000000002
 51
57.277974
  0
ARC
  5
146
  8
0
  6
AIGENLINE001
 62
     7
 10
70.341781999999995
 20
112.575943
 30
0.0
 40
0.708878
 50
57.376888999999991
 51
88.055841000000001
  0
ARC
  5
147
  8
0
  6
AIGENLINE001
 62
     7
 10
71.237389000000007
 20
112.080445
 30
0.0
 40
0.5016300000000001
 50
357.07532099999997
 51
13.710646000000001
  0
ARC
  5
148
  8
0
  6
AIGENLINE001
 62
     7
 10
71.010672
 20
112.03466299999999
 30
0.0
 40
0.7327970000000001
 50
12.986765999999999
 51
51.976118
  0
LINE
  5
149
  8
0
  6
AIGENLINE002
 62
     7
 10
62.978099999999998
 20
115.77500000000001
 30
0.0
 11
67.165300000000002
 21
115.77500000000001
 31
0.0
  0
LINE
  5
14A
  8
0
  6
AIGENLINE002
 62
     7
 10
65.043099999999995
 20
117.372
 30
0.0
 11
65.043099999999995
 21
114.342
 31
0.0
  0
LINE
  5
14B
  8
0
 62
     7
 10
58.42369999999999
 20
109.777
 30
0.0
 11
74.038300000000007
 21
109.777
 31
0.0
  0
LINE
  5
14C
  8
0
 62
     7
 10
57.72359999999999
 20
110.453
 30
0.0
 11
57.741500000000002
 21
110.31999999999999
 31
0.0
  0
LINE
  5
14D
  8
0
 62
     7
 10
57.741500000000002
 20
110.31999999999999
 30
0.0
 11
57.784300000000002
 21
110.19199999999999
 31
0.0
  0
LINE
  5
14E
  8
0
 62
     7
 10
57.784300000000002
 20
110.19199999999999
 30
0.0
 11
57.849699999999999
 21
110.075
 31
0.0
  0
LINE
  5
14F
  8
0
 62
     7
 10
57.849699999999999
 20
110.075
 30
0.0
 11
57.937199999999997
 21
109.973
 31
0.0
  0
LINE
  5
150
  8
0
 62
     7
 10
57.937199999999997
 20
109.973
 30
0.0
 11
58.042000000000002
 21
109.89
 31
0.0
  0
LINE
  5
151
  8
0
 62
     7
 10
58.042000000000002
 20
109.89
 30
0.0
 11
58.161200000000001
 21
109.828
 31
0.0
  0
LINE
  5
152
  8
0
 62
     7
 10
58.161200000000001
 20
109.828
 30
0.0
 11
58.289999999999999
 21
109.79000000000001
 31
0.0
  0
LINE
  5
153
  8
0
 62
     7
 10
58.289999999999999
 20
109.79000000000001
 30
0.0
 11
58.42369999999999
 21
109.777
 31
0.0
  0
LINE
  5
154
  8
0
 62
     7
 10
57.561700000000002
 20
115.101
 30
0.0
 11
57.72359999999999
 21
110.453
 31
0.0
  0
LINE
  5
155
  8
0
 62
     7
 10
56.862299999999998
 20
115.777
 30
0.0
 11
56.9953
 21
115.764
 31
0.0
  0
LINE
  5
156
  8
0
 62
     7
 10
56.9953
 20
115.764
 30
0.0
 11
57.124200000000002
 21
115.726
 31
0.0
  0
LINE
  5
157
  8
0
 62
     7
 10
57.124200000000002
 20
115.726
 30
0.0
 11
57.243400000000001
 21
115.664
 31
0.0
  0
LINE
  5
158
  8
0
 62
     7
 10
57.243400000000001
 20
115.664
 30
0.0
 11
57.348100000000002
 21
115.58
 31
0.0
  0
LINE
  5
159
  8
0
 62
     7
 10
57.348100000000002
 20
115.58
 30
0.0
 11
57.435600000000001
 21
115.47799999999999
 31
0.0
  0
LINE
  5
15A
  8
0
 62
     7
 10
57.435600000000001
 20
115.47799999999999
 30
0.0
 11
57.501800000000003
 21
115.36199999999999
 31
0.0
  0
LINE
  5
15B
  8
0
 62
     7
 10
57.501800000000003
 20
115.36199999999999
 30
0.0
 11
57.543799999999997
 21
115.23399999999999
 31
0.0
  0
LINE
  5
15C
  8
0
 62
     7
 10
57.543799999999997
 20
115.23399999999999
 30
0.0
 11
57.561700000000002
 21
115.101
 31
0.0
  0
LINE
  5
15D
  8
0
 62
     7
 10
54.037999999999997
 20
119.777
 30
0.0
 11
54.037999999999997
 21
116.277
 31
0.0
  0
LINE
  5
15E
  8
0
 62
     7
 10
54.538299999999992
 20
115.777
 30
0.0
 11
56.862299999999998
 21
115.777
 31
0.0
  0
LINE
  5
15F
  8
0
 62
     7
 10
74.038300000000007
 20
120.277
 30
0.0
 11
54.538299999999992
 21
120.277
 31
0.0
  0
LINE
  5
160
  8
0
  6
AIGENLINE001
 62
     7
 10
70.765500000000003
 20
113.142
 30
0.0
 11
71.462100000000007
 21
112.61199999999999
 31
0.0
  0
LINE
  5
161
  8
0
  6
AIGENLINE001
 62
     7
 10
71.738399999999999
 20
112.05500000000001
 30
0.0
 11
71.738399999999999
 21
110.777
 31
0.0
  0
LINE
  5
162
  8
0
  6
AIGENLINE001
 62
     7
 10
71.738399999999999
 20
112.402
 30
0.0
 11
74.038300000000007
 21
112.402
 31
0.0
  0
LINE
  5
163
  8
0
  6
AIGENLINE001
 62
     7
 10
70.860500000000002
 20
113.277
 30
0.0
 11
74.038300000000007
 21
113.277
 31
0.0
  0
LINE
  5
164
  8
0
  6
AIGENLINE001
 62
     7
 10
71.738399999999999
 20
110.777
 30
0.0
 11
74.038300000000007
 21
110.777
 31
0.0
  0
LINE
  5
165
  8
0
  6
AIGENLINE001
 62
     7
 10
60.570700000000002
 20
113.616
 30
0.0
 11
70.365799999999993
 21
113.28400000000001
 31
0.0
  0
LINE
  5
166
  8
0
  6
AIGENLINE002
 62
     7
 10
74.038300000000007
 20
121.39400000000001
 30
0.0
 11
74.038300000000007
 21
108.429
 31
0.0
  0
ARC
  5
167
  8
0
  6
AIGENLINE001
 62
     7
 10
60.354602
 20
115.44226399999999
 30
0.0
 40
1.6753409999999991
 50
197.77434600000001
 51
221.67972700000001
  0
ARC
  5
168
  8
0
  6
AIGENLINE001
 62
     7
 10
60.689912999999997
 20
115.70150599999999
 30
0.0
 40
2.098368999999999
 50
220.87831299999999
 51
260.776006
  0
ARC
  5
169
  8
0
  6
AIGENLINE001
 62
     7
 10
60.565350000000002
 20
115.213706
 30
0.0
 40
1.5975369999999991
 50
262.38157899999999
 51
270.19094999999999
  0
LINE
  5
16A
  8
0
 62
     7
 10
56.862299999999998
 20
115.777
 30
0.0
 11
74.038300000000007
 21
115.777
 31
0.0
  0
LINE
  5
16B
  8
0
 62
     7
 10
133.75
 20
159.56999999999999
 30
0.0
 11
155.75999999999999
 21
159.56999999999999
 31
0.0
  0
LINE
  5
16C
  8
0
 62
     7
 10
133.042
 20
181.75899999999999
 30
0.0
 11
131.059
 21
180.614
 31
0.0
  0
LINE
  5
16D
  8
0
 62
     7
 10
131.059
 20
180.614
 30
0.0
 11
132.20400000000001
 21
182.59700000000001
 31
0.0
  0
LINE
  5
16E
  8
0
 62
     7
 10
132.20400000000001
 20
182.59700000000001
 30
0.0
 11
133.042
 21
181.75899999999999
 31
0.0
  0
LINE
  5
16F
  8
0
 62
     7
 10
128.369
 20
178.762
 30
0.0
 11
130.352
 21
179.90700000000001
 31
0.0
  0
LINE
  5
170
  8
0
 62
     7
 10
130.352
 20
179.90700000000001
 30
0.0
 11
129.20699999999999
 21
177.92400000000001
 31
0.0
  0
LINE
  5
171
  8
0
 62
     7
 10
129.20699999999999
 20
177.92400000000001
 30
0.0
 11
128.369
 21
178.762
 31
0.0
  0
LINE
  5
172
  8
0
 62
     7
 10
132.881
 20
182.43600000000001
 30
0.0
 11
123.449
 21
173.00399999999999
 31
0.0
  0
LINE
  5
173
  8
0
 62
     7
 10
123.449
 20
173.00399999999999
 30
0.0
 11
116.666
 21
173.00399999999999
 31
0.0
  0
LINE
  5
174
  8
0
 62
     7
 10
116.624
 20
180.25999999999999
 30
0.0
 11
129.0
 21
180.25999999999999
 31
0.0
  0
LINE
  5
175
  8
0
 62
     7
 10
116.624
 20
204.261
 30
0.0
 11
121.877
 21
204.261
 31
0.0
  0
ARC
  5
176
  8
0
 62
     7
 10
130.705423
 20
180.26050699999999
 30
0.0
 40
0.500145
 50
269.99015299999991
 51
359.99012299999998
  0
ARC
  5
177
  8
0
 62
     7
 10
130.724673
 20
180.27922000000001
 30
0.0
 40
0.5192180000000001
 50
182.074985
 51
267.86580400000003
  0
ARC
  5
178
  8
0
 62
     7
 10
130.72516100000001
 20
180.24113500000001
 30
0.0
 40
0.5197230000000001
 50
92.185876000000007
 51
177.873335
  0
ARC
  5
179
  8
0
 62
     7
 10
130.705423
 20
180.260335
 30
0.0
 40
0.500145
 50
0.009877
 51
90.009846999999993
  0
LINE
  5
17A
  8
0
  6
AIGENLINE002
 62
     7
 10
129.70500000000001
 20
180.25999999999999
 30
0.0
 11
131.70500000000001
 21
180.25999999999999
 31
0.0
  0
LINE
  5
17B
  8
0
  6
AIGENLINE002
 62
     7
 10
130.70500000000001
 20
181.25999999999999
 30
0.0
 11
130.70500000000001
 21
179.25999999999999
 31
0.0
  0
ARC
  5
17C
  8
0
 62
     7
 10
158.68638300000001
 20
180.279731
 30
0.0
 40
0.5197350000000001
 50
272.14903099999998
 51
357.87071900000001
  0
ARC
  5
17D
  8
0
 62
     7
 10
158.70578599999999
 20
180.26050699999999
 30
0.0
 40
0.500145
 50
180.00987699999999
 51
270.00988699999999
  0
ARC
  5
17E
  8
0
 62
     7
 10
158.70578599999999
 20
180.260335
 30
0.0
 40
0.500145
 50
89.990132999999986
 51
179.990104
  0
ARC
  5
17F
  8
0
 62
     7
 10
158.686545
 20
180.24127300000001
 30
0.0
 40
0.519567
 50
2.1120659999999991
 51
87.868183999999985
  0
ARC
  5
180
  8
0
 62
     7
 10
141.705681
 20
191.260592
 30
0.0
 40
12.000116999999999
 50
179.999559
 51
269.99960899999991
  0
LINE
  5
181
  8
0
 62
     7
 10
141.70599999999999
 20
179.25999999999999
 30
0.0
 11
144.70599999999999
 21
179.25999999999999
 31
0.0
  0
LINE
  5
182
  8
0
 62
     7
 10
129.70599999999999
 20
204.261
 30
0.0
 11
129.70599999999999
 21
191.261
 31
0.0
  0
ARC
  5
183
  8
0
 62
     7
 10
147.70552499999999
 20
191.26059599999999
 30
0.0
 40
12.000121
 50
270.00043099999999
 51
0.000401
  0
TEXT
  5
184
  8
0
 62
     7
 10
132.042
 20
189.16499999999999
 30
0.0
 40
3.0923400000000001
  1
R120
 41
0.5
  0
TEXT
  5
185
  8
0
 62
     7
 10
154.80699999999999
 20
193.20713499999999
 30
0.0
 40
3.0923400000000001
  1
185
 50
90.0
 41
0.5
 72
     1
 11
154.80699999999999
 21
195.011
 31
0.0
  0
TEXT
  5
186
  8
0
 62
     7
 10
116.511
 20
191.74561
 30
0.0
 40
3.0923400000000001
  1
B
 50
90.0
 41
0.5
 72
     1
 11
116.511
 21
192.261
 31
0.0
  0
LINE
  5
187
  8
0
 62
     7
 10
117.79600000000001
 20
202.05000000000001
 30
0.0
 11
117.203
 21
204.261
 31
0.0
  0
LINE
  5
188
  8
0
 62
     7
 10
117.203
 20
204.261
 30
0.0
 11
116.611
 21
202.05000000000001
 31
0.0
  0
LINE
  5
189
  8
0
 62
     7
 10
116.611
 20
202.05000000000001
 30
0.0
 11
117.79600000000001
 21
202.05000000000001
 31
0.0
  0
LINE
  5
18A
  8
0
 62
     7
 10
116.625
 20
182.47200000000001
 30
0.0
 11
117.218
 21
180.25999999999999
 31
0.0
  0
LINE
  5
18B
  8
0
 62
     7
 10
117.218
 20
180.25999999999999
 30
0.0
 11
117.81
 21
182.47200000000001
 31
0.0
  0
LINE
  5
18C
  8
0
 62
     7
 10
117.81
 20
182.47200000000001
 30
0.0
 11
116.625
 21
182.47200000000001
 31
0.0
  0
LINE
  5
18D
  8
0
 62
     7
 10
117.20999999999999
 20
204.261
 30
0.0
 11
117.20999999999999
 21
180.261
 31
0.0
  0
TEXT
  5
18E
  8
0
 62
     7
 10
171.38
 20
189.8282874999999
 30
0.0
 40
3.0923400000000001
  1
250
 50
90.0
 41
0.5
 72
     1
 11
171.38
 21
191.761
 31
0.0
  0
TEXT
  5
18F
  8
0
 62
     7
 10
142.90113500000001
 20
217.726
 30
0.0
 40
3.0923400000000001
  1
300
 41
0.5
 72
     1
 11
144.70500000000001
 21
217.726
 31
0.0
  0
LINE
  5
190
  8
0
 62
     7
 10
157.494
 20
217.60400000000001
 30
0.0
 11
159.70599999999999
 21
217.011
 31
0.0
  0
LINE
  5
191
  8
0
 62
     7
 10
159.70599999999999
 20
217.011
 30
0.0
 11
157.494
 21
216.41900000000001
 31
0.0
  0
LINE
  5
192
  8
0
 62
     7
 10
157.494
 20
216.41900000000001
 30
0.0
 11
157.494
 21
217.60400000000001
 31
0.0
  0
LINE
  5
193
  8
0
 62
     7
 10
131.917
 20
217.60400000000001
 30
0.0
 11
129.70599999999999
 21
217.011
 31
0.0
  0
LINE
  5
194
  8
0
 62
     7
 10
129.70599999999999
 20
217.011
 30
0.0
 11
131.917
 21
216.41900000000001
 31
0.0
  0
LINE
  5
195
  8
0
 62
     7
 10
131.917
 20
216.41900000000001
 30
0.0
 11
131.917
 21
217.60400000000001
 31
0.0
  0
LINE
  5
196
  8
0
 62
     7
 10
129.70599999999999
 20
217.01900000000001
 30
0.0
 11
159.70599999999999
 21
217.01900000000001
 31
0.0
  0
TEXT
  5
197
  8
0
 62
     7
 10
144.18960999999999
 20
170.58799999999999
 30
0.0
 40
3.0923400000000001
  1
A
 41
0.5
 72
     1
 11
144.70500000000001
 21
170.58799999999999
 31
0.0
  0
TEXT
  5
198
  8
0
 62
     7
 10
149.41529199999999
 20
208.13800000000001
 30
0.0
 40
3.0923400000000001
  1
手洗器後端
 41
0.5
 72
     2
 11
158.28
 21
208.13800000000001
 31
0.0
  0
LINE
  5
199
  8
0
 62
     7
 10
134.29900000000001
 20
184.82599999999999
 30
0.0
 11
133.154
 21
182.84299999999999
 31
0.0
  0
LINE
  5
19A
  8
0
 62
     7
 10
133.154
 20
182.84299999999999
 30
0.0
 11
135.137
 21
183.98699999999999
 31
0.0
  0
LINE
  5
19B
  8
0
 62
     7
 10
135.137
 20
183.98699999999999
 30
0.0
 11
134.29900000000001
 21
184.82599999999999
 31
0.0
  0
LINE
  5
19C
  8
0
 62
     7
 10
138.77000000000001
 20
188.459
 30
0.0
 11
133.154
 21
182.84299999999999
 31
0.0
  0
LINE
  5
19D
  8
0
 62
     7
 10
138.77000000000001
 20
188.459
 30
0.0
 11
132.042
 21
188.459
 31
0.0
  0
LINE
  5
19E
  8
0
 62
     7
 10
172.78700000000001
 20
204.261
 30
0.0
 11
167.53399999999999
 21
204.261
 31
0.0
  0
LINE
  5
19F
  8
0
 62
     7
 10
172.78700000000001
 20
179.25999999999999
 30
0.0
 11
152.292
 21
179.25999999999999
 31
0.0
  0
LINE
  5
1A0
  8
0
 62
     7
 10
156.09200000000001
 20
202.05000000000001
 30
0.0
 11
155.5
 21
204.261
 31
0.0
  0
LINE
  5
1A1
  8
0
 62
     7
 10
155.5
 20
204.261
 30
0.0
 11
154.90700000000001
 21
202.05000000000001
 31
0.0
  0
LINE
  5
1A2
  8
0
 62
     7
 10
154.90700000000001
 20
202.05000000000001
 30
0.0
 11
156.09200000000001
 21
202.05000000000001
 31
0.0
  0
LINE
  5
1A3
  8
0
 62
     7
 10
154.92099999999999
 20
187.971
 30
0.0
 11
155.51400000000001
 21
185.75999999999999
 31
0.0
  0
LINE
  5
1A4
  8
0
 62
     7
 10
155.51400000000001
 20
185.75999999999999
 30
0.0
 11
156.107
 21
187.971
 31
0.0
  0
LINE
  5
1A5
  8
0
 62
     7
 10
156.107
 20
187.971
 30
0.0
 11
154.92099999999999
 21
187.971
 31
0.0
  0
LINE
  5
1A6
  8
0
 62
     7
 10
155.50700000000001
 20
204.261
 30
0.0
 11
155.50700000000001
 21
185.761
 31
0.0
  0
LINE
  5
1A7
  8
0
 62
     7
 10
172.66499999999999
 20
202.05000000000001
 30
0.0
 11
172.07300000000001
 21
204.261
 31
0.0
  0
LINE
  5
1A8
  8
0
 62
     7
 10
172.07300000000001
 20
204.261
 30
0.0
 11
171.48099999999999
 21
202.05000000000001
 31
0.0
  0
LINE
  5
1A9
  8
0
 62
     7
 10
171.48099999999999
 20
202.05000000000001
 30
0.0
 11
172.66499999999999
 21
202.05000000000001
 31
0.0
  0
LINE
  5
1AA
  8
0
 62
     7
 10
171.495
 20
181.47200000000001
 30
0.0
 11
172.08799999999999
 21
179.25999999999999
 31
0.0
  0
LINE
  5
1AB
  8
0
 62
     7
 10
172.08799999999999
 20
179.25999999999999
 30
0.0
 11
172.68000000000001
 21
181.47200000000001
 31
0.0
  0
LINE
  5
1AC
  8
0
 62
     7
 10
172.68000000000001
 20
181.47200000000001
 30
0.0
 11
171.495
 21
181.47200000000001
 31
0.0
  0
LINE
  5
1AD
  8
0
 62
     7
 10
172.08000000000001
 20
204.261
 30
0.0
 11
172.08000000000001
 21
179.261
 31
0.0
  0
LINE
  5
1AE
  8
0
  6
AIGENLINE003
 62
     7
 10
129.70599999999999
 20
204.261
 30
0.0
 11
159.70599999999999
 21
204.261
 31
0.0
  0
LINE
  5
1AF
  8
0
 62
     7
 10
122.577
 20
204.261
 30
0.0
 11
129.70599999999999
 21
204.261
 31
0.0
  0
LINE
  5
1B0
  8
0
 62
     7
 10
166.83500000000001
 20
204.261
 30
0.0
 11
159.70599999999999
 21
204.261
 31
0.0
  0
LINE
  5
1B1
  8
0
 62
     7
 10
159.70599999999999
 20
204.96600000000001
 30
0.0
 11
159.70599999999999
 21
217.71700000000001
 31
0.0
  0
LINE
  5
1B2
  8
0
 62
     7
 10
158.70599999999999
 20
178.55500000000001
 30
0.0
 11
158.70599999999999
 21
169.19399999999999
 31
0.0
  0
LINE
  5
1B3
  8
0
 62
     7
 10
156.494
 20
170.46600000000001
 30
0.0
 11
158.70599999999999
 21
169.874
 31
0.0
  0
LINE
  5
1B4
  8
0
 62
     7
 10
158.70599999999999
 20
169.874
 30
0.0
 11
156.494
 21
169.28099999999989
 31
0.0
  0
LINE
  5
1B5
  8
0
 62
     7
 10
156.494
 20
169.28099999999989
 30
0.0
 11
156.494
 21
170.46600000000001
 31
0.0
  0
LINE
  5
1B6
  8
0
 62
     7
 10
132.917
 20
170.46600000000001
 30
0.0
 11
130.70500000000001
 21
169.874
 31
0.0
  0
LINE
  5
1B7
  8
0
 62
     7
 10
130.70500000000001
 20
169.874
 30
0.0
 11
132.917
 21
169.28099999999989
 31
0.0
  0
LINE
  5
1B8
  8
0
 62
     7
 10
132.917
 20
169.28099999999989
 30
0.0
 11
132.917
 21
170.46600000000001
 31
0.0
  0
LINE
  5
1B9
  8
0
 62
     7
 10
130.70599999999999
 20
169.88099999999989
 30
0.0
 11
158.70599999999999
 21
169.88099999999989
 31
0.0
  0
LINE
  5
1BA
  8
0
 62
     7
 10
129.70599999999999
 20
204.96600000000001
 30
0.0
 11
129.70599999999999
 21
217.71700000000001
 31
0.0
  0
LINE
  5
1BB
  8
0
 62
     7
 10
130.70500000000001
 20
178.55500000000001
 30
0.0
 11
130.70500000000001
 21
169.19399999999999
 31
0.0
  0
LINE
  5
1BC
  8
0
 62
     7
 10
147.70599999999999
 20
179.25999999999999
 30
0.0
 11
144.70599999999999
 21
179.25999999999999
 31
0.0
  0
LINE
  5
1BD
  8
0
 62
     7
 10
159.70599999999999
 20
204.261
 30
0.0
 11
159.70599999999999
 21
191.261
 31
0.0
  0
LINE
  5
1BE
  8
0
 62
     7
 10
156.50700000000001
 20
185.761
 30
0.0
 11
150.65600000000001
 21
185.761
 31
0.0
  0
LINE
  5
1BF
  8
0
  6
AIGENLINE002
 62
     7
 10
149.95599999999999
 20
185.761
 30
0.0
 11
139.45500000000001
 21
185.761
 31
0.0
  0
LINE
  5
1C0
  8
0
  6
AIGENLINE002
 62
     7
 10
157.70599999999999
 20
180.25999999999999
 30
0.0
 11
159.70599999999999
 21
180.25999999999999
 31
0.0
  0
LINE
  5
1C1
  8
0
  6
AIGENLINE002
 62
     7
 10
158.70599999999999
 20
181.25999999999999
 30
0.0
 11
158.70599999999999
 21
179.25999999999999
 31
0.0
  0
LINE
  5
1C2
  8
0
  6
AIGENLINE002
 62
     7
 10
144.70599999999999
 20
206.37100000000001
 30
0.0
 11
144.70599999999999
 21
176.45500000000001
 31
0.0
  0
ARC
  5
1C3
  8
0
  6
AIGENLINE001
 62
     7
 10
144.70577700000001
 20
185.76054999999999
 30
0.0
 40
2.3001330000000002
 50
0.004301
 51
90.004271000000017
  0
ARC
  5
1C4
  8
0
  6
AIGENLINE001
 62
     7
 10
144.70577800000001
 20
185.760895
 30
0.0
 40
2.2997879999999991
 50
90.004291000000009
 51
180.00430099999991
  0
ARC
  5
1C5
  8
0
  6
AIGENLINE001
 62
     7
 10
144.705949
 20
185.760378
 30
0.0
 40
2.29996
 50
179.991388
 51
269.99143700000002
  0
ARC
  5
1C6
  8
0
  6
AIGENLINE001
 62
     7
 10
144.70560499999999
 20
185.76072300000001
 30
0.0
 40
2.3003049999999989
 50
270.00002000000001
 51
359.99999000000003
  0
ARC
  5
1C7
  8
0
  6
AIGENLINE001
 62
     7
 10
144.70560399999999
 20
185.76072199999999
 30
0.0
 40
3.7500110000000002
 50
0.00001
 51
89.999980000000008
  0
ARC
  5
1C8
  8
0
  6
AIGENLINE001
 62
     7
 10
144.70560599999999
 20
185.76072199999999
 30
0.0
 40
3.7500110000000002
 50
90.0
 51
179.99996999999999
  0
ARC
  5
1C9
  8
0
  6
AIGENLINE001
 62
     7
 10
144.70560399999999
 20
185.76072199999999
 30
0.0
 40
3.750008999999999
 50
179.99996999999999
 51
270.00002000000001
  0
ARC
  5
1CA
  8
0
  6
AIGENLINE001
 62
     7
 10
144.70560399999999
 20
185.76072400000001
 30
0.0
 40
3.7500110000000002
 50
270.00002000000001
 51
359.99999000000003
  0
LINE
  5
1CB
  8
0
 62
     7
 10
154.86000000000001
 20
207.28800000000001
 30
0.0
 11
153.11199999999999
 21
204.261
 31
0.0
  0
LINE
  5
1CC
  8
0
 62
     7
 10
153.11199999999999
 20
204.261
 30
0.0
 11
151.364
 21
207.28800000000001
 31
0.0
  0
LINE
  5
1CD
  8
0
 62
     7
 10
151.364
 20
207.28800000000001
 30
0.0
 11
154.86000000000001
 21
207.28800000000001
 31
0.0
  0
LINE
  5
1CE
  8
0
 62
     7
 10
70.817700000000002
 20
196.37799999999999
 30
0.0
 11
72.800700000000006
 21
197.523
 31
0.0
  0
LINE
  5
1CF
  8
0
 62
     7
 10
72.800700000000006
 20
197.523
 30
0.0
 11
71.655900000000003
 21
195.53999999999999
 31
0.0
  0
LINE
  5
1D0
  8
0
 62
     7
 10
71.655900000000003
 20
195.53999999999999
 30
0.0
 11
70.817700000000002
 21
196.37799999999999
 31
0.0
  0
LINE
  5
1D1
  8
0
 62
     7
 10
77.258499999999998
 20
201.143
 30
0.0
 11
75.275800000000004
 21
199.99799999999999
 31
0.0
  0
LINE
  5
1D2
  8
0
 62
     7
 10
75.275800000000004
 20
199.99799999999999
 30
0.0
 11
76.420599999999993
 21
201.98099999999999
 31
0.0
  0
LINE
  5
1D3
  8
0
 62
     7
 10
76.420599999999993
 20
201.98099999999999
 30
0.0
 11
77.258499999999998
 21
201.143
 31
0.0
  0
LINE
  5
1D4
  8
0
 62
     7
 10
70.475399999999993
 20
195.19800000000001
 30
0.0
 11
82.675200000000004
 21
207.398
 31
0.0
  0
LINE
  5
1D5
  8
0
 62
     7
 10
82.675200000000004
 20
207.398
 30
0.0
 11
88.751900000000006
 21
207.398
 31
0.0
  0
LINE
  5
1D6
  8
0
 62
     7
 10
70.429199999999994
 20
188.53200000000001
 30
0.0
 11
72.412199999999999
 21
187.387
 31
0.0
  0
LINE
  5
1D7
  8
0
 62
     7
 10
72.412199999999999
 20
187.387
 30
0.0
 11
71.267399999999995
 21
189.37
 31
0.0
  0
LINE
  5
1D8
  8
0
 62
     7
 10
71.267399999999995
 20
189.37
 30
0.0
 11
70.429199999999994
 21
188.53200000000001
 31
0.0
  0
LINE
  5
1D9
  8
0
 62
     7
 10
77.647400000000005
 20
182.99000000000001
 30
0.0
 11
75.6648
 21
184.13499999999999
 31
0.0
  0
LINE
  5
1DA
  8
0
 62
     7
 10
75.6648
 20
184.13499999999999
 30
0.0
 11
76.809600000000003
 21
182.15199999999999
 31
0.0
  0
LINE
  5
1DB
  8
0
 62
     7
 10
76.809600000000003
 20
182.15199999999999
 30
0.0
 11
77.647400000000005
 21
182.99000000000001
 31
0.0
  0
LINE
  5
1DC
  8
0
 62
     7
 10
69.538300000000007
 20
190.261
 30
0.0
 11
78.538300000000007
 21
181.261
 31
0.0
  0
LINE
  5
1DD
  8
0
 62
     7
 10
78.538300000000007
 20
181.261
 30
0.0
 11
84.965000000000003
 21
181.261
 31
0.0
  0
LINE
  5
1DE
  8
0
 62
     7
 10
102.283
 20
192.55000000000001
 30
0.0
 11
101.691
 21
194.761
 31
0.0
  0
LINE
  5
1DF
  8
0
 62
     7
 10
101.691
 20
194.761
 30
0.0
 11
101.098
 21
192.55000000000001
 31
0.0
  0
LINE
  5
1E0
  8
0
 62
     7
 10
101.098
 20
192.55000000000001
 30
0.0
 11
102.283
 21
192.55000000000001
 31
0.0
  0
LINE
  5
1E1
  8
0
 62
     7
 10
102.283
 20
202.05099999999999
 30
0.0
 11
101.691
 21
204.262
 31
0.0
  0
LINE
  5
1E2
  8
0
 62
     7
 10
101.691
 20
204.262
 30
0.0
 11
101.098
 21
202.05099999999999
 31
0.0
  0
LINE
  5
1E3
  8
0
 62
     7
 10
101.098
 20
202.05099999999999
 30
0.0
 11
102.283
 21
202.05099999999999
 31
0.0
  0
LINE
  5
1E4
  8
0
 62
     7
 10
101.113
 20
200.97300000000001
 30
0.0
 11
101.705
 21
198.761
 31
0.0
  0
LINE
  5
1E5
  8
0
 62
     7
 10
101.705
 20
198.761
 30
0.0
 11
102.298
 21
200.97300000000001
 31
0.0
  0
LINE
  5
1E6
  8
0
 62
     7
 10
102.298
 20
200.97300000000001
 30
0.0
 11
101.113
 21
200.97300000000001
 31
0.0
  0
LINE
  5
1E7
  8
0
 62
     7
 10
101.69799999999999
 20
204.261
 30
0.0
 11
101.69799999999999
 21
191.66200000000001
 31
0.0
  0
LINE
  5
1E8
  8
0
 62
     7
 10
94.738
 20
204.261
 30
0.0
 11
102.405
 21
204.261
 31
0.0
  0
LINE
  5
1E9
  8
0
 62
     7
 10
91.737999999999985
 20
194.761
 30
0.0
 11
102.405
 21
194.761
 31
0.0
  0
LINE
  5
1EA
  8
0
 62
     7
 10
77.48899999999999
 20
198.761
 30
0.0
 11
102.405
 21
198.761
 31
0.0
  0
LINE
  5
1EB
  8
0
 62
     7
 10
63.773600000000002
 20
202.05099999999999
 30
0.0
 11
63.181000000000012
 21
204.262
 31
0.0
  0
LINE
  5
1EC
  8
0
 62
     7
 10
63.181000000000012
 20
204.262
 30
0.0
 11
62.588500000000003
 21
202.05099999999999
 31
0.0
  0
LINE
  5
1ED
  8
0
 62
     7
 10
62.588500000000003
 20
202.05099999999999
 30
0.0
 11
63.773600000000002
 21
202.05099999999999
 31
0.0
  0
LINE
  5
1EE
  8
0
 62
     7
 10
62.602899999999998
 20
187.971
 30
0.0
 11
63.195500000000003
 21
185.75999999999999
 31
0.0
  0
LINE
  5
1EF
  8
0
 62
     7
 10
63.195500000000003
 20
185.75999999999999
 30
0.0
 11
63.7881
 21
187.971
 31
0.0
  0
LINE
  5
1F0
  8
0
 62
     7
 10
63.7881
 20
187.971
 30
0.0
 11
62.602899999999998
 21
187.971
 31
0.0
  0
LINE
  5
1F1
  8
0
 62
     7
 10
63.188299999999998
 20
204.261
 30
0.0
 11
63.188299999999998
 21
185.761
 31
0.0
  0
LINE
  5
1F2
  8
0
 62
     7
 10
62.377600000000001
 20
185.761
 30
0.0
 11
67.9983
 21
185.761
 31
0.0
  0
LINE
  5
1F3
  8
0
 62
     7
 10
36.370800000000003
 20
174.261
 30
0.0
 11
53.338000000000001
 21
174.261
 31
0.0
  0
LINE
  5
1F4
  8
0
 62
     7
 10
37.679900000000011
 20
202.05000000000001
 30
0.0
 11
37.087400000000009
 21
204.261
 31
0.0
  0
LINE
  5
1F5
  8
0
 62
     7
 10
37.087400000000009
 20
204.261
 30
0.0
 11
36.494799999999998
 21
202.05000000000001
 31
0.0
  0
LINE
  5
1F6
  8
0
 62
     7
 10
36.494799999999998
 20
202.05000000000001
 30
0.0
 11
37.679900000000011
 21
202.05000000000001
 31
0.0
  0
LINE
  5
1F7
  8
0
 62
     7
 10
36.50930000000001
 20
176.471
 30
0.0
 11
37.101799999999997
 21
174.25999999999999
 31
0.0
  0
LINE
  5
1F8
  8
0
 62
     7
 10
37.101799999999997
 20
174.25999999999999
 30
0.0
 11
37.694400000000002
 21
176.471
 31
0.0
  0
LINE
  5
1F9
  8
0
 62
     7
 10
37.694400000000002
 20
176.471
 30
0.0
 11
36.50930000000001
 21
176.471
 31
0.0
  0
LINE
  5
1FA
  8
0
 62
     7
 10
37.094299999999997
 20
204.261
 30
0.0
 11
37.094299999999997
 21
174.261
 31
0.0
  0
LINE
  5
1FB
  8
0
 62
     7
 10
44.622500000000002
 20
202.05000000000001
 30
0.0
 11
44.030000000000001
 21
204.261
 31
0.0
  0
LINE
  5
1FC
  8
0
 62
     7
 10
44.030000000000001
 20
204.261
 30
0.0
 11
43.43739999999999
 21
202.05000000000001
 31
0.0
  0
LINE
  5
1FD
  8
0
 62
     7
 10
43.43739999999999
 20
202.05000000000001
 30
0.0
 11
44.622500000000002
 21
202.05000000000001
 31
0.0
  0
LINE
  5
1FE
  8
0
 62
     7
 10
43.451900000000002
 20
196.97200000000001
 30
0.0
 11
44.044400000000003
 21
194.75999999999999
 31
0.0
  0
LINE
  5
1FF
  8
0
 62
     7
 10
44.044400000000003
 20
194.75999999999999
 30
0.0
 11
44.637
 21
196.97200000000001
 31
0.0
  0
LINE
  5
200
  8
0
 62
     7
 10
44.637
 20
196.97200000000001
 30
0.0
 11
43.451900000000002
 21
196.97200000000001
 31
0.0
  0
LINE
  5
201
  8
0
 62
     7
 10
44.622500000000002
 20
192.55000000000001
 30
0.0
 11
44.030000000000001
 21
194.761
 31
0.0
  0
LINE
  5
202
  8
0
 62
     7
 10
44.030000000000001
 20
194.761
 30
0.0
 11
43.43739999999999
 21
192.55000000000001
 31
0.0
  0
LINE
  5
203
  8
0
 62
     7
 10
43.43739999999999
 20
192.55000000000001
 30
0.0
 11
44.622500000000002
 21
192.55000000000001
 31
0.0
  0
LINE
  5
204
  8
0
 62
     7
 10
43.451900000000002
 20
179.47200000000001
 30
0.0
 11
44.044400000000003
 21
177.25999999999999
 31
0.0
  0
LINE
  5
205
  8
0
 62
     7
 10
44.044400000000003
 20
177.25999999999999
 30
0.0
 11
44.637
 21
179.47200000000001
 31
0.0
  0
LINE
  5
206
  8
0
 62
     7
 10
44.637
 20
179.47200000000001
 30
0.0
 11
43.451900000000002
 21
179.47200000000001
 31
0.0
  0
LINE
  5
207
  8
0
 62
     7
 10
44.622500000000002
 20
172.04900000000001
 30
0.0
 11
44.030000000000001
 21
174.261
 31
0.0
  0
LINE
  5
208
  8
0
 62
     7
 10
44.030000000000001
 20
174.261
 30
0.0
 11
43.43739999999999
 21
172.04900000000001
 31
0.0
  0
LINE
  5
209
  8
0
 62
     7
 10
43.43739999999999
 20
172.04900000000001
 30
0.0
 11
44.622500000000002
 21
172.04900000000001
 31
0.0
  0
LINE
  5
20A
  8
0
 62
     7
 10
44.036900000000003
 20
204.261
 30
0.0
 11
44.036900000000003
 21
168.56100000000001
 31
0.0
  0
LINE
  5
20B
  8
0
 62
     7
 10
53.338000000000001
 20
204.261
 30
0.0
 11
36.394199999999998
 21
204.261
 31
0.0
  0
LINE
  5
20C
  8
0
 62
     7
 10
51.826999999999998
 20
165.755
 30
0.0
 11
54.038699999999999
 21
166.34700000000001
 31
0.0
  0
LINE
  5
20D
  8
0
 62
     7
 10
54.038699999999999
 20
166.34700000000001
 30
0.0
 11
51.826999999999998
 21
166.94
 31
0.0
  0
LINE
  5
20E
  8
0
 62
     7
 10
51.826999999999998
 20
166.94
 30
0.0
 11
51.826999999999998
 21
165.755
 31
0.0
  0
LINE
  5
20F
  8
0
 62
     7
 10
96.250399999999999
 20
166.92599999999999
 30
0.0
 11
94.038599999999988
 21
166.333
 31
0.0
  0
LINE
  5
210
  8
0
 62
     7
 10
94.038599999999988
 20
166.333
 30
0.0
 11
96.250399999999999
 21
165.74000000000001
 31
0.0
  0
LINE
  5
211
  8
0
 62
     7
 10
96.250399999999999
 20
165.74000000000001
 30
0.0
 11
96.250399999999999
 21
166.92599999999999
 31
0.0
  0
LINE
  5
212
  8
0
 62
     7
 10
48.0642
 20
166.34
 30
0.0
 11
99.967000000000013
 21
166.34
 31
0.0
  0
LINE
  5
213
  8
0
 62
     7
 10
59.248800000000003
 20
166.92599999999999
 30
0.0
 11
57.037399999999991
 21
166.333
 31
0.0
  0
LINE
  5
214
  8
0
 62
     7
 10
57.037399999999991
 20
166.333
 30
0.0
 11
59.248800000000003
 21
165.74000000000001
 31
0.0
  0
LINE
  5
215
  8
0
 62
     7
 10
59.248800000000003
 20
165.74000000000001
 30
0.0
 11
59.248800000000003
 21
166.92599999999999
 31
0.0
  0
LINE
  5
216
  8
0
 62
     7
 10
88.827200000000005
 20
165.755
 30
0.0
 11
91.038600000000002
 21
166.34700000000001
 31
0.0
  0
LINE
  5
217
  8
0
 62
     7
 10
91.038600000000002
 20
166.34700000000001
 30
0.0
 11
88.827200000000005
 21
166.94
 31
0.0
  0
LINE
  5
218
  8
0
 62
     7
 10
88.827200000000005
 20
166.94
 30
0.0
 11
88.827200000000005
 21
165.755
 31
0.0
  0
LINE
  5
219
  8
0
 62
     7
 10
56.248800000000003
 20
159.93299999999999
 30
0.0
 11
54.037399999999991
 21
159.34
 31
0.0
  0
LINE
  5
21A
  8
0
 62
     7
 10
54.037399999999991
 20
159.34
 30
0.0
 11
56.248800000000003
 21
158.74799999999999
 31
0.0
  0
LINE
  5
21B
  8
0
 62
     7
 10
56.248800000000003
 20
158.74799999999999
 30
0.0
 11
56.248800000000003
 21
159.93299999999999
 31
0.0
  0
LINE
  5
21C
  8
0
 62
     7
 10
91.827200000000005
 20
158.762
 30
0.0
 11
94.038599999999988
 21
159.35499999999999
 31
0.0
  0
LINE
  5
21D
  8
0
 62
     7
 10
94.038599999999988
 20
159.35499999999999
 30
0.0
 11
91.827200000000005
 21
159.947
 31
0.0
  0
LINE
  5
21E
  8
0
 62
     7
 10
91.827200000000005
 20
159.947
 30
0.0
 11
91.827200000000005
 21
158.762
 31
0.0
  0
LINE
  5
21F
  8
0
 62
     7
 10
54.037999999999997
 20
159.34700000000001
 30
0.0
 11
94.037899999999979
 21
159.34700000000001
 31
0.0
  0
LINE
  5
220
  8
0
 62
     7
 10
94.037899999999979
 20
173.56100000000001
 30
0.0
 11
94.037899999999979
 21
158.64699999999999
 31
0.0
  0
LINE
  5
221
  8
0
 62
     7
 10
54.037999999999997
 20
173.56100000000001
 30
0.0
 11
54.037999999999997
 21
158.64699999999999
 31
0.0
  0
LINE
  5
222
  8
0
  6
AIGENLINE002
 62
     7
 10
76.788899999999984
 20
198.761
 30
0.0
 11
71.287700000000001
 21
198.761
 31
0.0
  0
LINE
  5
223
  8
0
  6
AIGENLINE002
 62
     7
 10
79.288700000000006
 20
185.761
 30
0.0
 11
68.787300000000002
 21
185.761
 31
0.0
  0
LINE
  5
224
  8
0
  6
AIGENLINE002
 62
     7
 10
83.038399999999996
 20
206.393
 30
0.0
 11
83.038399999999996
 21
201.232
 31
0.0
  0
LINE
  5
225
  8
0
  6
AIGENLINE002
 62
     7
 10
65.038300000000007
 20
206.393
 30
0.0
 11
65.038300000000007
 21
201.232
 31
0.0
  0
LINE
  5
226
  8
0
  6
AIGENLINE002
 62
     7
 10
74.038300000000007
 20
206.37100000000001
 30
0.0
 11
74.038300000000007
 21
172.672
 31
0.0
  0
ARC
  5
227
  8
0
 62
     7
 10
73.97109300000001
 20
198.69363999999999
 30
0.0
 40
1.818595999999999
 50
2.1186869999999991
 51
87.881303000000003
  0
ARC
  5
228
  8
0
 62
     7
 10
74.105936
 20
198.693263
 30
0.0
 40
1.8189859999999991
 50
92.130105000000015
 51
177.869866
  0
ARC
  5
229
  8
0
 62
     7
 10
74.038325999999998
 20
198.760873
 30
0.0
 40
1.7501189999999991
 50
179.99996999999999
 51
270.00002000000001
  0
ARC
  5
22A
  8
0
 62
     7
 10
73.970701000000005
 20
198.828498
 30
0.0
 40
1.819002
 50
272.13059299999998
 51
357.869417
  0
ARC
  5
22B
  8
0
 62
     7
 10
73.950181999999984
 20
185.67257900000001
 30
0.0
 40
2.3897300000000001
 50
2.113801
 51
87.886189000000016
  0
ARC
  5
22C
  8
0
 62
     7
 10
74.126862000000003
 20
185.67218700000001
 30
0.0
 40
2.390136
 50
92.122834999999995
 51
177.87713600000001
  0
ARC
  5
22D
  8
0
 62
     7
 10
74.126818
 20
185.84885700000001
 30
0.0
 40
2.390077999999999
 50
182.11327800000001
 51
267.87817000000001
  0
ARC
  5
22E
  8
0
 62
     7
 10
73.949751000000006
 20
185.848941
 30
0.0
 40
2.3901639999999991
 50
272.1237799999999
 51
357.88481200000001
  0
ARC
  5
22F
  8
0
 62
     7
 10
86.710352999999984
 20
190.43284299999991
 30
0.0
 40
0.7279270000000001
 50
2.1543759999999992
 51
87.845613999999983
  0
ARC
  5
230
  8
0
 62
     7
 10
90.310521999999992
 20
194.033356
 30
0.0
 40
0.727905
 50
2.1527599999999998
 51
87.84723000000001
  0
LINE
  5
231
  8
0
 62
     7
 10
90.337900000000005
 20
194.761
 30
0.0
 11
74.038300000000007
 21
194.761
 31
0.0
  0
LINE
  5
232
  8
0
 62
     7
 10
86.737700000000004
 20
191.16
 30
0.0
 11
74.038300000000007
 21
191.16
 31
0.0
  0
ARC
  5
233
  8
0
 62
     7
 10
86.710396999999986
 20
181.588088
 30
0.0
 40
0.7278680000000001
 50
272.15111100000001
 51
357.87708900000001
  0
ARC
  5
234
  8
0
 62
     7
 10
90.311284999999984
 20
177.987212
 30
0.0
 40
0.7271130000000001
 50
272.09490899999997
 51
357.905101
  0
LINE
  5
235
  8
0
 62
     7
 10
86.737700000000004
 20
180.86099999999999
 30
0.0
 11
74.038300000000007
 21
180.86099999999999
 31
0.0
  0
LINE
  5
236
  8
0
 62
     7
 10
90.337900000000005
 20
177.261
 30
0.0
 11
74.038300000000007
 21
177.261
 31
0.0
  0
LINE
  5
237
  8
0
 62
     7
 10
93.362000000000009
 20
174.261
 30
0.0
 11
74.038300000000007
 21
174.261
 31
0.0
  0
LINE
  5
238
  8
0
 62
     7
 10
94.037899999999979
 20
174.96000000000001
 30
0.0
 11
94.025499999999994
 21
174.827
 31
0.0
  0
LINE
  5
239
  8
0
 62
     7
 10
94.025499999999994
 20
174.827
 30
0.0
 11
93.986900000000006
 21
174.69799999999989
 31
0.0
  0
LINE
  5
23A
  8
0
 62
     7
 10
93.986900000000006
 20
174.69799999999989
 30
0.0
 11
93.924899999999994
 21
174.57900000000001
 31
0.0
  0
LINE
  5
23B
  8
0
 62
     7
 10
93.924899999999994
 20
174.57900000000001
 30
0.0
 11
93.841499999999996
 21
174.47399999999999
 31
0.0
  0
LINE
  5
23C
  8
0
 62
     7
 10
93.841499999999996
 20
174.47399999999999
 30
0.0
 11
93.739599999999996
 21
174.387
 31
0.0
  0
LINE
  5
23D
  8
0
 62
     7
 10
93.739599999999996
 20
174.387
 30
0.0
 11
93.622399999999985
 21
174.321
 31
0.0
  0
LINE
  5
23E
  8
0
 62
     7
 10
93.622399999999985
 20
174.321
 30
0.0
 11
93.495000000000005
 21
174.27799999999999
 31
0.0
  0
LINE
  5
23F
  8
0
 62
     7
 10
93.495000000000005
 20
174.27799999999999
 30
0.0
 11
93.362000000000009
 21
174.261
 31
0.0
  0
LINE
  5
240
  8
0
 62
     7
 10
94.037899999999979
 20
203.56100000000001
 30
0.0
 11
94.037899999999979
 21
174.96000000000001
 31
0.0
  0
LINE
  5
241
  8
0
 62
     7
 10
93.337900000000005
 20
204.261
 30
0.0
 11
93.474999999999994
 21
204.24799999999999
 31
0.0
  0
LINE
  5
242
  8
0
 62
     7
 10
93.474999999999994
 20
204.24799999999999
 30
0.0
 11
93.605900000000005
 21
204.208
 31
0.0
  0
LINE
  5
243
  8
0
 62
     7
 10
93.605900000000005
 20
204.208
 30
0.0
 11
93.727199999999996
 21
204.143
 31
0.0
  0
LINE
  5
244
  8
0
 62
     7
 10
93.727199999999996
 20
204.143
 30
0.0
 11
93.833299999999994
 21
204.05600000000001
 31
0.0
  0
LINE
  5
245
  8
0
 62
     7
 10
93.833299999999994
 20
204.05600000000001
 30
0.0
 11
93.920100000000005
 21
203.94999999999999
 31
0.0
  0
LINE
  5
246
  8
0
 62
     7
 10
93.920100000000005
 20
203.94999999999999
 30
0.0
 11
93.984899999999996
 21
203.82900000000001
 31
0.0
  0
LINE
  5
247
  8
0
 62
     7
 10
93.984899999999996
 20
203.82900000000001
 30
0.0
 11
94.024799999999999
 21
203.697
 31
0.0
  0
LINE
  5
248
  8
0
 62
     7
 10
94.024799999999999
 20
203.697
 30
0.0
 11
94.037899999999979
 21
203.56100000000001
 31
0.0
  0
LINE
  5
249
  8
0
 62
     7
 10
74.038300000000007
 20
204.261
 30
0.0
 11
93.337900000000005
 21
204.261
 31
0.0
  0
LINE
  5
24A
  8
0
 62
     7
 10
91.037899999999993
 20
176.56100000000001
 30
0.0
 11
91.037899999999993
 21
165.63300000000001
 31
0.0
  0
LINE
  5
24B
  8
0
 62
     7
 10
57.0381
 20
176.56100000000001
 30
0.0
 11
57.0381
 21
165.63300000000001
 31
0.0
  0
LINE
  5
24C
  8
0
 62
     7
 10
91.037899999999993
 20
194.06099999999989
 30
0.0
 11
91.037899999999993
 21
177.96100000000001
 31
0.0
  0
LINE
  5
24D
  8
0
 62
     7
 10
87.437799999999996
 20
190.46000000000001
 30
0.0
 11
87.437799999999996
 21
181.56099999999989
 31
0.0
  0
ARC
  5
24E
  8
0
 62
     7
 10
61.365609999999997
 20
190.43284299999991
 30
0.0
 40
0.7279270000000001
 50
92.154366000000024
 51
177.84560400000001
  0
ARC
  5
24F
  8
0
 62
     7
 10
57.765462999999997
 20
194.03333499999999
 30
0.0
 40
0.7279270000000001
 50
92.154366000000024
 51
177.84560400000001
  0
LINE
  5
250
  8
0
 62
     7
 10
43.344399999999993
 20
194.761
 30
0.0
 11
56.337299999999992
 21
194.761
 31
0.0
  0
LINE
  5
251
  8
0
 62
     7
 10
43.344399999999993
 20
177.261
 30
0.0
 11
56.337299999999992
 21
177.261
 31
0.0
  0
LINE
  5
252
  8
0
 62
     7
 10
57.738100000000003
 20
194.761
 30
0.0
 11
74.038300000000007
 21
194.761
 31
0.0
  0
LINE
  5
253
  8
0
 62
     7
 10
61.338200000000001
 20
191.16
 30
0.0
 11
74.038300000000007
 21
191.16
 31
0.0
  0
ARC
  5
254
  8
0
 62
     7
 10
61.365566000000001
 20
181.588088
 30
0.0
 40
0.7278680000000001
 50
182.12293099999999
 51
267.84890899999999
  0
ARC
  5
255
  8
0
 62
     7
 10
57.765069999999987
 20
177.987605
 30
0.0
 40
0.7275199999999999
 50
182.12465499999999
 51
267.87537500000002
  0
LINE
  5
256
  8
0
 62
     7
 10
61.338200000000001
 20
180.86099999999999
 30
0.0
 11
74.038300000000007
 21
180.86099999999999
 31
0.0
  0
LINE
  5
257
  8
0
 62
     7
 10
57.738100000000003
 20
177.261
 30
0.0
 11
74.038300000000007
 21
177.261
 31
0.0
  0
LINE
  5
258
  8
0
 62
     7
 10
54.713999999999999
 20
174.261
 30
0.0
 11
74.038300000000007
 21
174.261
 31
0.0
  0
LINE
  5
259
  8
0
 62
     7
 10
54.037999999999997
 20
174.96000000000001
 30
0.0
 11
54.051099999999998
 21
174.827
 31
0.0
  0
LINE
  5
25A
  8
0
 62
     7
 10
54.051099999999998
 20
174.827
 30
0.0
 11
54.088999999999999
 21
174.69799999999989
 31
0.0
  0
LINE
  5
25B
  8
0
 62
     7
 10
54.088999999999999
 20
174.69799999999989
 30
0.0
 11
54.151000000000003
 21
174.57900000000001
 31
0.0
  0
LINE
  5
25C
  8
0
 62
     7
 10
54.151000000000003
 20
174.57900000000001
 30
0.0
 11
54.234400000000001
 21
174.47399999999999
 31
0.0
  0
LINE
  5
25D
  8
0
 62
     7
 10
54.234400000000001
 20
174.47399999999999
 30
0.0
 11
54.3371
 21
174.387
 31
0.0
  0
LINE
  5
25E
  8
0
 62
     7
 10
54.3371
 20
174.387
 30
0.0
 11
54.453499999999998
 21
174.321
 31
0.0
  0
LINE
  5
25F
  8
0
 62
     7
 10
54.453499999999998
 20
174.321
 30
0.0
 11
54.581000000000003
 21
174.27799999999999
 31
0.0
  0
LINE
  5
260
  8
0
 62
     7
 10
54.581000000000003
 20
174.27799999999999
 30
0.0
 11
54.713999999999999
 21
174.261
 31
0.0
  0
LINE
  5
261
  8
0
 62
     7
 10
54.037999999999997
 20
203.56100000000001
 30
0.0
 11
54.037999999999997
 21
174.96000000000001
 31
0.0
  0
LINE
  5
262
  8
0
 62
     7
 10
54.738100000000003
 20
204.261
 30
0.0
 11
54.601700000000001
 21
204.24799999999999
 31
0.0
  0
LINE
  5
263
  8
0
 62
     7
 10
54.601700000000001
 20
204.24799999999999
 30
0.0
 11
54.470100000000002
 21
204.208
 31
0.0
  0
LINE
  5
264
  8
0
 62
     7
 10
54.470100000000002
 20
204.208
 30
0.0
 11
54.34879999999999
 21
204.143
 31
0.0
  0
LINE
  5
265
  8
0
 62
     7
 10
54.34879999999999
 20
204.143
 30
0.0
 11
54.242699999999992
 21
204.05600000000001
 31
0.0
  0
LINE
  5
266
  8
0
 62
     7
 10
54.242699999999992
 20
204.05600000000001
 30
0.0
 11
54.155900000000003
 21
203.94999999999999
 31
0.0
  0
LINE
  5
267
  8
0
 62
     7
 10
54.155900000000003
 20
203.94999999999999
 30
0.0
 11
54.091099999999997
 21
203.82900000000001
 31
0.0
  0
LINE
  5
268
  8
0
 62
     7
 10
54.091099999999997
 20
203.82900000000001
 30
0.0
 11
54.051099999999998
 21
203.697
 31
0.0
  0
LINE
  5
269
  8
0
 62
     7
 10
54.051099999999998
 20
203.697
 30
0.0
 11
54.037999999999997
 21
203.56100000000001
 31
0.0
  0
LINE
  5
26A
  8
0
 62
     7
 10
74.038300000000007
 20
204.261
 30
0.0
 11
54.738100000000003
 21
204.261
 31
0.0
  0
LINE
  5
26B
  8
0
 62
     7
 10
57.0381
 20
194.06099999999989
 30
0.0
 11
57.0381
 21
177.96100000000001
 31
0.0
  0
LINE
  5
26C
  8
0
 62
     7
 10
60.638199999999991
 20
190.46000000000001
 30
0.0
 11
60.638199999999991
 21
181.56099999999989
 31
0.0
  0
ARC
  5
26D
  8
0
 62
     7
 10
74.038153000000008
 20
185.760895
 30
0.0
 40
3.7498390000000001
 50
359.99737800000003
 51
89.997348000000002
  0
ARC
  5
26E
  8
0
 62
     7
 10
74.038155000000003
 20
185.76054999999999
 30
0.0
 40
3.7501829999999998
 50
89.997367999999994
 51
179.99733800000001
  0
ARC
  5
26F
  8
0
 62
     7
 10
74.038153000000008
 20
185.760895
 30
0.0
 40
3.7501820000000001
 50
180.0026419999999
 51
270.00265200000001
  0
ARC
  5
270
  8
0
 62
     7
 10
74.038153000000008
 20
185.76055099999999
 30
0.0
 40
3.7498390000000001
 50
270.00265200000001
 51
0.002622
  0
TEXT
  5
271
  8
_________2
 62
     7
 10
132.5628375
 20
9.1082000000000001
 30
0.0
 40
3.9357000000000002
  1
DV079040G-00
 41
0.5
 72
     1
 11
143.55000000000001
 21
9.1082000000000001
 31
0.0
  0
TEXT
  5
272
  8
_________2
 62
     7
 10
135.18663749999999
 20
-0.8926299999999999
 30
0.0
 40
3.9357000000000002
  1
DV079040G
 41
0.5
 72
     1
 11
143.55000000000001
 21
-0.8926299999999999
 31
0.0
  0
TEXT
  5
273
  8
_________2
 62
     7
 10
24.586600000000001
 20
0.707627
 30
0.0
 40
3.9357000000000002
  1
重量：7kg、オーバーフローなし
 41
0.5
  0
LINE
  5
274
  8
_________2
 62
     7
 10
205.30099999999999
 20
127.411
 30
0.0
 11
183.55099999999999
 21
127.411
 31
0.0
  0
LINE
  5
275
  8
_________2
 62
     7
 10
100.3
 20
-4.0910799999999998
 30
0.0
 11
100.3
 21
-21.071000000000002
 31
0.0
  0
LINE
  5
276
  8
_________2
 62
     7
 10
100.3
 20
275.93099999999998
 30
0.0
 11
100.3
 21
258.911
 31
0.0
  0
LINE
  5
277
  8
_________2
 62
     7
 10
17.049399999999999
 20
127.411
 30
0.0
 11
-4.7010300000000003
 21
127.411
 31
0.0
  0
LINE
  5
278
  8
_________2
 62
     7
 10
76.740799999999993
 20
29.8047
 30
0.0
 11
74.554599999999994
 21
29.8047
 31
0.0
  0
LINE
  5
279
  8
_________2
 62
     7
 10
77.233500000000006
 20
29.8047
 30
0.0
 11
76.981300000000005
 21
29.8047
 31
0.0
  0
LINE
  5
27A
  8
_________2
 62
     7
 10
77.726200000000006
 20
29.8047
 30
0.0
 11
80.6511
 21
29.8047
 31
0.0
  0
LINE
  5
27B
  8
_________2
 62
     7
 10
77.233500000000006
 20
29.8047
 30
0.0
 11
77.485699999999994
 21
29.8047
 31
0.0
  0
LINE
  5
27C
  8
_________2
 62
     7
 10
70.837299999999999
 20
29.8047
 30
0.0
 11
68.650300000000001
 21
29.8047
 31
0.0
  0
LINE
  5
27D
  8
_________2
 62
     7
 10
71.329300000000003
 20
29.8047
 30
0.0
 11
71.077799999999996
 21
29.8047
 31
0.0
  0
LINE
  5
27E
  8
_________2
 62
     7
 10
71.329300000000003
 20
30.2974
 30
0.0
 11
71.329300000000003
 21
32.484400000000001
 31
0.0
  0
LINE
  5
27F
  8
_________2
 62
     7
 10
71.329300000000003
 20
29.8047
 30
0.0
 11
71.329300000000003
 21
30.057300000000001
 31
0.0
  0
LINE
  5
280
  8
_________2
 62
     7
 10
71.821899999999999
 20
29.8047
 30
0.0
 11
74.008899999999997
 21
29.8047
 31
0.0
  0
LINE
  5
281
  8
_________2
 62
     7
 10
71.329300000000003
 20
29.8047
 30
0.0
 11
71.581400000000002
 21
29.8047
 31
0.0
  0
LINE
  5
282
  8
_________2
 62
     7
 10
71.329300000000003
 20
29.312799999999999
 30
0.0
 11
71.329300000000003
 21
27.126200000000001
 31
0.0
  0
LINE
  5
283
  8
_________2
 62
     7
 10
71.329300000000003
 20
29.8047
 30
0.0
 11
71.329300000000003
 21
29.5532
 31
0.0
  0
LINE
  5
284
  8
_________2
 62
     7
 10
75.040300000000002
 20
28.5852
 30
0.0
 11
80.218299999999985
 21
27.720400000000001
 31
0.0
  0
LINE
  5
285
  8
_________2
 62
     7
 10
75.040300000000002
 20
31.024699999999999
 30
0.0
 11
80.218299999999985
 21
31.8901
 31
0.0
  0
LINE
  5
286
  8
_________2
 62
     7
 10
80.218299999999985
 20
27.720400000000001
 30
0.0
 11
80.218299999999985
 21
31.8901
 31
0.0
  0
LINE
  5
287
  8
_________2
 62
     7
 10
75.040300000000002
 20
28.5852
 30
0.0
 11
75.040300000000002
 21
31.024699999999999
 31
0.0
  0
ARC
  5
288
  8
_________2
 62
     7
 10
71.282674
 20
29.757801000000001
 30
0.0
 40
1.267714
 50
2.1220840000000001
 51
87.894083999999992
  0
ARC
  5
289
  8
_________2
 62
     7
 10
71.375812999999994
 20
29.758545999999999
 30
0.0
 40
1.2669680000000001
 50
92.105782999999988
 51
177.91037
  0
ARC
  5
28A
  8
_________2
 62
     7
 10
71.376186000000004
 20
29.851671
 30
0.0
 40
1.2673680000000001
 50
182.12203600000001
 51
267.877993
  0
ARC
  5
28B
  8
_________2
 62
     7
 10
71.282368999999989
 20
29.852347999999999
 30
0.0
 40
1.2680439999999991
 50
272.11916400000001
 51
357.84848499999998
  0
ARC
  5
28C
  8
_________2
 62
     7
 10
71.248890000000003
 20
29.724731999999999
 30
0.0
 40
2.1668310000000002
 50
2.1161439999999989
 51
87.874379000000005
  0
ARC
  5
28D
  8
_________2
 62
     7
 10
71.408928000000003
 20
29.726146
 30
0.0
 40
2.165392999999999
 50
92.108508999999998
 51
177.91986499999999
  0
ARC
  5
28E
  8
_________2
 62
     7
 10
71.409267
 20
29.884751999999999
 30
0.0
 40
2.1657829999999998
 50
182.117133
 51
267.88289700000001
  0
ARC
  5
28F
  8
_________2
 62
     7
 10
71.249286999999995
 20
29.885429999999999
 30
0.0
 40
2.1664590000000001
 50
272.11546800000002
 51
357.86560400000002
  0
TEXT
  5
290
  8
_________2
 62
     7
 10
104.605
 20
1.6794899999999999
 30
0.0
 40
3.0923400000000001
  1
図番
 41
0.5
  0
LINE
  5
291
  8
_________2
 62
     7
 10
103.55
 20
5.9087199999999989
 30
0.0
 11
183.55099999999999
 21
5.9087199999999989
 31
0.0
  0
TEXT
  5
292
  8
_________2
 62
     7
 10
104.605
 20
11.6793
 30
0.0
 40
3.0923400000000001
  1
品番
 41
0.5
  0
TEXT
  5
293
  8
_________2
 62
     7
 10
104.605
 20
31.8184
 30
0.0
 40
3.0923400000000001
  1
名称
 41
0.5
  0
TEXT
  5
294
  8
_________2
 62
     7
 10
91.844958333333338
 20
26.822299999999998
 30
0.0
 40
3.6545800000000002
  1
mm
 41
0.5
 72
     1
 11
93.367699999999985
 21
26.822299999999998
 31
0.0
  0
TEXT
  5
295
  8
_________2
 62
     7
 10
85.642999999999986
 20
31.8184
 30
0.0
 40
3.0923400000000001
  1
単位
 41
0.5
  0
TEXT
  5
296
  8
_________2
 62
     7
 10
85.642999999999986
 20
19.410799999999998
 30
0.0
 40
3.0923400000000001
  1
尺度
 41
0.5
  0
TEXT
  5
297
  8
_________2
 62
     7
 10
90.091736166666678
 20
13.2182
 30
0.0
 40
3.6545800000000002
  1
1 ： 10
 41
0.5
 72
     1
 11
93.959500000000006
 21
13.2182
 31
0.0
  0
TEXT
  5
298
  8
_________2
 62
     7
 10
109.179
 20
24.226099999999999
 30
0.0
 40
3.9357000000000002
  1
セカンドフロア　手洗器
 41
0.5
  0
TEXT
  5
299
  8
_________2
 62
     7
 10
39.425100333333333
 20
13.603400000000001
 30
0.0
 40
3.6545800000000002
  1
早川
 41
0.5
 72
     1
 11
41.313299999999998
 21
13.603400000000001
 31
0.0
  0
TEXT
  5
29A
  8
_________2
 62
     7
 10
20.790190666666671
 20
13.603400000000001
 30
0.0
 40
3.6545800000000002
  1
菅原
 41
0.5
 72
     1
 11
22.7393
 21
13.603400000000001
 31
0.0
  0
TEXT
  5
29B
  8
_________2
 62
     7
 10
67.785600000000002
 20
13.2182
 30
0.0
 40
3.6545800000000002
  1
15.08.04
 41
0.5
  0
TEXT
  5
29C
  8
_________2
 62
     7
 10
66.5929
 20
19.410799999999998
 30
0.0
 40
3.0923400000000001
  1
日付
 41
0.5
  0
TEXT
  5
29D
  8
_________2
 62
     7
 10
29.639199999999999
 20
19.410799999999998
 30
0.0
 40
3.0923400000000001
  1
検図
 41
0.5
  0
TEXT
  5
29E
  8
_________2
 62
     7
 10
18.020900000000001
 20
5.21143
 30
0.0
 40
3.0923400000000001
  1
備考
 41
0.5
  0
TEXT
  5
29F
  8
_________2
 62
     7
 10
18.020900000000001
 20
19.410799999999998
 30
0.0
 40
3.0923400000000001
  1
製図
 41
0.5
  0
TEXT
  5
2A0
  8
_________2
 62
     7
 10
23.788265333333339
 20
27.936800000000002
 30
0.0
 40
4.4979399999999989
  1
セラトレーディング株式会社
 41
0.5
 72
     1
 11
41.180300000000003
 21
27.936800000000002
 31
0.0
  0
LINE
  5
2A1
  8
_________2
 62
     7
 10
183.55099999999999
 20
-4.0910799999999998
 30
0.0
 11
17.049399999999999
 21
-4.0910799999999998
 31
0.0
  0
LINE
  5
2A2
  8
_________2
 62
     7
 10
17.049399999999999
 20
-4.0910799999999998
 30
0.0
 11
17.049399999999999
 21
258.911
 31
0.0
  0
LINE
  5
2A3
  8
_________2
 62
     7
 10
17.049399999999999
 20
258.911
 30
0.0
 11
183.55099999999999
 21
258.911
 31
0.0
  0
LINE
  5
2A4
  8
_________2
 62
     7
 10
183.55099999999999
 20
258.911
 30
0.0
 11
183.55099999999999
 21
-4.0910799999999998
 31
0.0
  0
LINE
  5
2A5
  8
_________2
 62
     7
 10
65.549700000000001
 20
9.4092999999999982
 30
0.0
 11
65.549700000000001
 21
35.909100000000002
 31
0.0
  0
LINE
  5
2A6
  8
_________2
 62
     7
 10
84.549599999999984
 20
9.4092999999999982
 30
0.0
 11
84.549599999999984
 21
35.909100000000002
 31
0.0
  0
LINE
  5
2A7
  8
_________2
 62
     7
 10
103.55
 20
-4.0910799999999998
 30
0.0
 11
103.55
 21
35.909100000000002
 31
0.0
  0
LINE
  5
2A8
  8
_________2
 62
     7
 10
28.549199999999999
 20
9.4092999999999982
 30
0.0
 11
28.549199999999999
 21
23.409199999999998
 31
0.0
  0
LINE
  5
2A9
  8
_________2
 62
     7
 10
17.049399999999999
 20
9.4092999999999982
 30
0.0
 11
103.55
 21
9.4092999999999982
 31
0.0
  0
LINE
  5
2AA
  8
_________2
 62
     7
 10
17.049399999999999
 20
23.409199999999998
 30
0.0
 11
103.55
 21
23.409199999999998
 31
0.0
  0
LINE
  5
2AB
  8
_________2
 62
     7
 10
103.55
 20
15.9085
 30
0.0
 11
183.55099999999999
 21
15.9085
 31
0.0
  0
LINE
  5
2AC
  8
_________2
 62
     7
 10
17.049399999999999
 20
35.909100000000002
 30
0.0
 11
183.55099999999999
 21
35.909100000000002
 31
0.0
  0
ENDSEC
  0
EOF
