  0
SECTION
  2
HEADER
  9
$ACADVER
  1
AC1009
  9
$INSBASE
 10
0.0
 20
0.0
 30
0.0
  9
$EXTMIN
 10
-4.7010300000000003
 20
-21.071000000000002
 30
0.0
  9
$EXTMAX
 10
205.30099999999999
 20
275.93099999999998
 30
0.0
  9
$LIMMIN
 10
0.0
 20
0.0
  9
$LIMMAX
 10
12.0
 20
9.0
  9
$ORTHOMODE
 70
     0
  9
$REGENMODE
 70
     1
  9
$FILLMODE
 70
     1
  9
$QTEXTMODE
 70
     0
  9
$MIRRTEXT
 70
     1
  9
$DRAGMODE
 70
     2
  9
$LTSCALE
 40
1.0
  9
$OSMODE
 70
    37
  9
$ATTMODE
 70
     1
  9
$TEXTSIZE
 40
0.0
  9
$TRACEWID
 40
0.05
  9
$TEXTSTYLE
  7
STANDARD
  9
$CLAYER
  8
0
  9
$CELTYPE
  6
CONTINUOUS
  9
$CECOLOR
 62
   256
  9
$DIMSCALE
 40
1.0
  9
$DIMASZ
 40
0.18
  9
$DIMEXO
 40
0.0625
  9
$DIMDLI
 40
0.38
  9
$DIMRND
 40
0.0
  9
$DIMDLE
 40
0.0
  9
$DIMEXE
 40
0.18
  9
$DIMTP
 40
0.0
  9
$DIMTM
 40
0.0
  9
$DIMTXT
 40
0.18
  9
$DIMCEN
 40
0.09
  9
$DIMTSZ
 40
0.0
  9
$DIMTOL
 70
     0
  9
$DIMLIM
 70
     0
  9
$DIMTIH
 70
     1
  9
$DIMTOH
 70
     1
  9
$DIMSE1
 70
     0
  9
$DIMSE2
 70
     0
  9
$DIMTAD
 70
     0
  9
$DIMZIN
 70
     0
  9
$DIMBLK
  1

  9
$DIMASO
 70
     1
  9
$DIMSHO
 70
     1
  9
$DIMPOST
  1

  9
$DIMAPOST
  1

  9
$DIMALT
 70
     0
  9
$DIMALTD
 70
     2
  9
$DIMALTF
 40
25.399999999999999
  9
$DIMLFAC
 40
1.0
  9
$DIMTOFL
 70
     0
  9
$DIMTVP
 40
0.0
  9
$DIMTIX
 70
     0
  9
$DIMSOXD
 70
     0
  9
$DIMSAH
 70
     0
  9
$DIMBLK1
  1

  9
$DIMBLK2
  1

  9
$DIMSTYLE
  2
STANDARD
  9
$DIMCLRD
 70
     0
  9
$DIMCLRE
 70
     0
  9
$DIMCLRT
 70
     0
  9
$DIMTFAC
 40
1.0
  9
$DIMGAP
 40
0.09
  9
$LUNITS
 70
     2
  9
$LUPREC
 70
     4
  9
$SKETCHINC
 40
0.1
  9
$FILLETRAD
 40
0.0
  9
$AUNITS
 70
     0
  9
$AUPREC
 70
     0
  9
$MENU
  1
.
  9
$ELEVATION
 40
0.0
  9
$PELEVATION
 40
0.0
  9
$THICKNESS
 40
0.0
  9
$LIMCHECK
 70
     0
  9
$BLIPMODE
 70
     0
  9
$CHAMFERA
 40
0.0
  9
$CHAMFERB
 40
0.0
  9
$SKPOLY
 70
     0
  9
$TDCREATE
 40
2444972.375
  9
$TDUPDATE
 40
2457291.2471727082
  9
$TDINDWG
 40
0.000027963
  9
$TDUSRTIMER
 40
0.000027963
  9
$USRTIMER
 70
     1
  9
$ANGBASE
 50
0.0
  9
$ANGDIR
 70
     0
  9
$PDMODE
 70
     0
  9
$PDSIZE
 40
0.0
  9
$PLINEWID
 40
0.0
  9
$COORDS
 70
     1
  9
$SPLFRAME
 70
     0
  9
$SPLINETYPE
 70
     6
  9
$SPLINESEGS
 70
     8
  9
$ATTDIA
 70
     1
  9
$ATTREQ
 70
     1
  9
$HANDLING
 70
     1
  9
$HANDSEED
  5
2B3
  9
$SURFTAB1
 70
     6
  9
$SURFTAB2
 70
     6
  9
$SURFTYPE
 70
     6
  9
$SURFU
 70
     6
  9
$SURFV
 70
     6
  9
$UCSNAME
  2

  9
$UCSORG
 10
0.0
 20
0.0
 30
0.0
  9
$UCSXDIR
 10
1.0
 20
0.0
 30
0.0
  9
$UCSYDIR
 10
0.0
 20
1.0
 30
0.0
  9
$PUCSNAME
  2

  9
$PUCSORG
 10
0.0
 20
0.0
 30
0.0
  9
$PUCSXDIR
 10
1.0
 20
0.0
 30
0.0
  9
$PUCSYDIR
 10
0.0
 20
1.0
 30
0.0
  9
$USERI1
 70
     0
  9
$USERI2
 70
     0
  9
$USERI3
 70
     0
  9
$USERI4
 70
     0
  9
$USERI5
 70
     0
  9
$USERR1
 40
0.0
  9
$USERR2
 40
0.0
  9
$USERR3
 40
0.0
  9
$USERR4
 40
0.0
  9
$USERR5
 40
0.0
  9
$WORLDVIEW
 70
     1
  9
$SHADEDGE
 70
     3
  9
$SHADEDIF
 70
    70
  9
$TILEMODE
 70
     1
  9
$MAXACTVP
 70
    48
  9
$PLIMCHECK
 70
     0
  9
$PEXTMIN
 10
1.0000000000000000E+020
 20
1.0000000000000000E+020
 30
1.0000000000000000E+020
  9
$PEXTMAX
 10
-1.0000000000000000E+020
 20
-1.0000000000000000E+020
 30
-1.0000000000000000E+020
  9
$PLIMMIN
 10
0.0
 20
0.0
  9
$PLIMMAX
 10
12.0
 20
9.0
  9
$UNITMODE
 70
     0
  9
$VISRETAIN
 70
     1
  9
$PLINEGEN
 70
     0
  9
$PSLTSCALE
 70
     1
  0
ENDSEC
  0
SECTION
  2
TABLES
  0
TABLE
  2
VPORT
 70
     1
  0
VPORT
  2
*ACTIVE
 70
     0
 10
0.0
 20
0.0
 11
1.0
 21
1.0
 12
155.35635693003391
 22
127.42999999999989
 13
0.0
 23
0.0
 14
1.0
 24
1.0
 15
0.0
 25
0.0
 16
0.0
 26
0.0
 36
1.0
 17
0.0
 27
0.0
 37
0.0
 40
283.65115399946512
 41
2.1001926782273599
 42
50.0
 43
0.0
 44
0.0
 50
0.0
 51
0.0
 71
     0
 72
   100
 73
     1
 74
     1
 75
     0
 76
     0
 77
     0
 78
     0
  0
ENDTAB
  0
TABLE
  2
LTYPE
 70
     3
  0
LTYPE
  2
CONTINUOUS
 70
     0
  3
Solid line
 72
    65
 73
     0
 40
0.0
  0
LTYPE
  2
AIGENLINE001
 70
     0
  3
generate AI->DXF Converter
 72
    65
 73
     2
 40
1.5522299999999991
 49
0.776115
 49
-0.776115
  0
LTYPE
  2
AIGENLINE002
 70
     0
  3
generate AI->DXF Converter
 72
    65
 73
     4
 40
5.8561449999999988
 49
3.5278
 49
-0.776115
 49
0.776115
 49
-0.776115
  0
ENDTAB
  0
TABLE
  2
LAYER
 70
     2
  0
LAYER
  2
0
 70
     0
 62
     7
  6
CONTINUOUS
  0
LAYER
  2
_________2
 70
     0
 62
     7
  6
CONTINUOUS
  0
ENDTAB
  0
TABLE
  2
STYLE
 70
     1
  0
STYLE
  2
STANDARD
 70
     0
 40
0.0
 41
0.0
 50
0.0
 71
     0
 42
0.0
  3
TXT
  4
EXTFONT.SHX
  0
ENDTAB
  0
TABLE
  2
VIEW
 70
     0
  0
ENDTAB
  0
TABLE
  2
UCS
 70
     0
  0
ENDTAB
  0
TABLE
  2
APPID
 70
     3
  0
APPID
  2
ACAD
 70
     0
  0
APPID
  2
ACAD_NAV_VCDISPLAY
 70
     0
  0
APPID
  2
ACAD_MLEADERVER
 70
     0
  0
ENDTAB
  0
TABLE
  2
DIMSTYLE
 70
     1
  0
DIMSTYLE
  2
STANDARD
 70
     0
  3

  4

  5

  6

  7

 40
1.0
 41
0.18
 42
0.0625
 43
0.38
 44
0.18
 45
0.0
 46
0.0
 47
0.0
 48
0.0
140
0.18
141
0.09
142
0.0
143
25.399999999999999
144
1.0
145
0.0
146
1.0
147
0.09
 71
     0
 72
     0
 73
     1
 74
     1
 75
     0
 76
     0
 77
     0
 78
     0
170
     0
171
     2
172
     0
173
     0
174
     0
175
     0
176
     0
177
     0
178
     0
  0
ENDTAB
  0
ENDSEC
  0
SECTION
  2
BLOCKS
  0
BLOCK
  8
0
  2
$MODEL_SPACE
 70
     0
 10
0.0
 20
0.0
 30
0.0
  3
$MODEL_SPACE
  1

  0
ENDBLK
  5
1A
  8
0
  0
BLOCK
 67
     1
  8
0
  2
$PAPER_SPACE
 70
     0
 10
0.0
 20
0.0
 30
0.0
  3
$PAPER_SPACE
  1

  0
ENDBLK
  5
17
 67
     1
  8
0
  0
ENDSEC
  0
SECTION
  2
ENTITIES
  0
TEXT
  5
23
  8
0
 62
     7
 10
98.639900000000011
 20
111.5783725
 30
0.0
 40
3.0923400000000001
  1
60
 50
90.0
 41
0.5
 72
     1
 11
98.639900000000011
 21
112.738
 31
0.0
  0
TEXT
  5
24
  8
0
 62
     7
 10
162.673
 20
115.63037249999999
 30
0.0
 40
3.0923400000000001
  1
70
 50
90.0
 41
0.5
 72
     1
 11
162.673
 21
116.79000000000001
 31
0.0
  0
TEXT
  5
25
  8
0
 62
     7
 10
169.05699999999999
 20
114.293525
 30
0.0
 40
3.0923400000000001
  1
95
 50
90.0
 41
0.5
 72
     1
 11
169.05699999999999
 21
115.58199999999999
 31
0.0
  0
TEXT
  5
26
  8
0
 62
     7
 10
105.241
 20
113.35198250000001
 30
0.0
 40
3.0923400000000001
  1
105
 50
90.0
 41
0.5
 72
     1
 11
105.241
 21
115.027
 31
0.0
  0
TEXT
  5
27
  8
0
 62
     7
 10
98.639900000000011
 20
116.69952499999999
 30
0.0
 40
3.0923400000000001
  1
45
 50
90.0
 41
0.5
 72
     1
 11
98.639900000000011
 21
117.988
 31
0.0
  0
TEXT
  5
28
  8
0
 62
     7
 10
45.126600000000003
 20
116.69952499999999
 30
0.0
 40
3.0923400000000001
  1
45
 50
90.0
 41
0.5
 72
     1
 11
45.126600000000003
 21
117.988
 31
0.0
  0
TEXT
  5
29
  8
0
 62
     7
 10
139.93644
 20
96.940400000000011
 30
0.0
 40
3.0923400000000001
  1
265
 41
0.5
 72
     1
 11
141.99799999999999
 21
96.940400000000011
 31
0.0
  0
TEXT
  5
2A
  8
0
 62
     7
 10
144.19513499999999
 20
102.855
 30
0.0
 40
3.0923400000000001
  1
185
 41
0.5
 72
     1
 11
145.999
 21
102.855
 31
0.0
  0
TEXT
  5
2B
  8
0
 62
     7
 10
68.794487500000002
 20
102.863
 30
0.0
 40
3.0923400000000001
  1
330
 41
0.5
 72
     1
 11
70.727199999999996
 21
102.863
 31
0.0
  0
TEXT
  5
2C
  8
0
 62
     7
 10
69.052182500000001
 20
126.634
 30
0.0
 40
3.0923400000000001
  1
180
 41
0.5
 72
     1
 11
70.727199999999996
 21
126.634
 31
0.0
  0
TEXT
  5
2D
  8
0
 62
     7
 10
40.026400000000002
 20
184.20713499999999
 30
0.0
 40
3.0923400000000001
  1
175
 50
90.0
 41
0.5
 72
     1
 11
40.026400000000002
 21
186.011
 31
0.0
  0
TEXT
  5
2E
  8
0
 62
     7
 10
81.318380000000005
 20
208.76300000000001
 30
0.0
 40
3.0923400000000001
  1
%%c35
 41
0.5
 72
     2
 11
85.441500000000005
 21
208.76300000000001
 31
0.0
  0
TEXT
  5
2F
  8
0
 62
     7
 10
77.531480000000002
 20
182.52099999999999
 30
0.0
 40
3.0923400000000001
  1
%%c46
 41
0.5
 72
     2
 11
81.654600000000016
 21
182.52099999999999
 31
0.0
  0
TEXT
  5
30
  8
0
 62
     7
 10
94.337344999999985
 20
167.048
 30
0.0
 40
3.0923400000000001
  1
30
 41
0.5
 72
     2
 11
96.656599999999997
 21
167.048
 31
0.0
  0
TEXT
  5
31
  8
0
 62
     7
 10
40.026400000000002
 20
168.56100000000001
 30
0.0
 40
3.0923400000000001
  1
30
 50
90.0
 41
0.5
  0
TEXT
  5
32
  8
0
 62
     7
 10
44.753799999999998
 20
167.048
 30
0.0
 40
3.0923400000000001
  1
30
 41
0.5
  0
TEXT
  5
33
  8
0
 62
     7
 10
40.026400000000002
 20
198.254525
 30
0.0
 40
3.0923400000000001
  1
95
 50
90.0
 41
0.5
 72
     1
 11
40.026400000000002
 21
199.54300000000001
 31
0.0
  0
TEXT
  5
34
  8
0
 62
     7
 10
97.680400000000006
 20
195.5603725
 30
0.0
 40
3.0923400000000001
  1
40
 50
90.0
 41
0.5
 72
     1
 11
97.680400000000006
 21
196.72
 31
0.0
  0
TEXT
  5
35
  8
0
 62
     7
 10
97.680400000000006
 20
200.18452500000001
 30
0.0
 40
3.0923400000000001
  1
55
 50
90.0
 41
0.5
 72
     1
 11
97.680400000000006
 21
201.47300000000001
 31
0.0
  0
TEXT
  5
36
  8
0
 62
     7
 10
59.185000000000002
 20
196.30713499999999
 30
0.0
 40
3.0923400000000001
  1
185
 50
90.0
 41
0.5
 72
     1
 11
59.185000000000002
 21
198.11099999999999
 31
0.0
  0
TEXT
  5
37
  8
0
 62
     7
 10
33.083799999999997
 20
187.45713499999999
 30
0.0
 40
3.0923400000000001
  1
300
 50
90.0
 41
0.5
 72
     1
 11
33.083799999999997
 21
189.261
 31
0.0
  0
TEXT
  5
38
  8
0
 62
     7
 10
68.794487500000002
 20
167.048
 30
0.0
 40
3.0923400000000001
  1
340
 41
0.5
 72
     1
 11
70.727199999999996
 21
167.048
 31
0.0
  0
TEXT
  5
39
  8
0
 62
     7
 10
68.923334999999994
 20
160.03999999999999
 30
0.0
 40
3.0923400000000001
  1
400
 41
0.5
 72
     1
 11
70.727199999999996
 21
160.03999999999999
 31
0.0
  0
TEXT
  5
3A
  8
0
 62
     7
 10
22.287500000000001
 20
39.127200000000002
 30
0.0
 40
3.9357000000000002
  1
※壁取付部には厚さ30mm以上の補強木を入れてください。
 41
0.5
  0
LINE
  5
3B
  8
0
  6
AIGENLINE001
 62
     7
 10
73.905000000000001
 20
113.277
 30
0.0
 11
70.727900000000005
 21
113.277
 31
0.0
  0
LINE
  5
3C
  8
0
  6
AIGENLINE001
 62
     7
 10
74.228200000000001
 20
112.679
 30
0.0
 11
74.228200000000001
 21
110.777
 31
0.0
  0
LINE
  5
3D
  8
0
  6
AIGENLINE001
 62
     7
 10
74.228200000000001
 20
110.777
 30
0.0
 11
73.027500000000003
 21
110.777
 31
0.0
  0
LINE
  5
3E
  8
0
  6
AIGENLINE001
 62
     7
 10
67.227699999999999
 20
112.679
 30
0.0
 11
67.227699999999999
 21
110.777
 31
0.0
  0
LINE
  5
3F
  8
0
  6
AIGENLINE001
 62
     7
 10
67.5505
 20
113.277
 30
0.0
 11
70.727900000000005
 21
113.277
 31
0.0
  0
LINE
  5
40
  8
0
  6
AIGENLINE001
 62
     7
 10
67.227699999999999
 20
110.777
 30
0.0
 11
68.427999999999997
 21
110.777
 31
0.0
  0
LINE
  5
41
  8
0
 62
     7
 10
163.96899999999999
 20
118.065
 30
0.0
 11
163.376
 21
120.277
 31
0.0
  0
LINE
  5
42
  8
0
 62
     7
 10
163.376
 20
120.277
 30
0.0
 11
162.78399999999999
 21
118.065
 31
0.0
  0
LINE
  5
43
  8
0
 62
     7
 10
162.78399999999999
 20
118.065
 30
0.0
 11
163.96899999999999
 21
118.065
 31
0.0
  0
LINE
  5
44
  8
0
 62
     7
 10
162.798
 20
115.514
 30
0.0
 11
163.39099999999999
 21
113.303
 31
0.0
  0
LINE
  5
45
  8
0
 62
     7
 10
163.39099999999999
 20
113.303
 30
0.0
 11
163.983
 21
115.514
 31
0.0
  0
LINE
  5
46
  8
0
 62
     7
 10
163.983
 20
115.514
 30
0.0
 11
162.798
 21
115.514
 31
0.0
  0
LINE
  5
47
  8
0
 62
     7
 10
163.38399999999999
 20
120.276
 30
0.0
 11
163.38399999999999
 21
113.304
 31
0.0
  0
LINE
  5
48
  8
0
 62
     7
 10
58.967700000000001
 20
115.777
 30
0.0
 11
45.320500000000003
 21
115.777
 31
0.0
  0
LINE
  5
49
  8
0
 62
     7
 10
45.320500000000003
 20
120.277
 30
0.0
 11
50.070599999999999
 21
120.277
 31
0.0
  0
LINE
  5
4A
  8
0
 62
     7
 10
106.634
 20
109.777
 30
0.0
 11
87.753699999999995
 21
109.777
 31
0.0
  0
LINE
  5
4B
  8
0
 62
     7
 10
46.606200000000001
 20
113.56399999999999
 30
0.0
 11
46.013299999999987
 21
115.77500000000001
 31
0.0
  0
LINE
  5
4C
  8
0
 62
     7
 10
46.013299999999987
 20
115.77500000000001
 30
0.0
 11
45.4208
 21
113.56399999999999
 31
0.0
  0
LINE
  5
4D
  8
0
 62
     7
 10
45.4208
 20
113.56399999999999
 30
0.0
 11
46.606200000000001
 21
113.56399999999999
 31
0.0
  0
LINE
  5
4E
  8
0
 62
     7
 10
46.020600000000002
 20
115.77500000000001
 30
0.0
 11
46.020600000000002
 21
112.06399999999999
 31
0.0
  0
LINE
  5
4F
  8
0
 62
     7
 10
45.435200000000002
 20
122.499
 30
0.0
 11
46.027799999999999
 21
120.288
 31
0.0
  0
LINE
  5
50
  8
0
 62
     7
 10
46.027799999999999
 20
120.288
 30
0.0
 11
46.620399999999997
 21
122.499
 31
0.0
  0
LINE
  5
51
  8
0
 62
     7
 10
46.620399999999997
 20
122.499
 30
0.0
 11
45.435200000000002
 21
122.499
 31
0.0
  0
LINE
  5
52
  8
0
 62
     7
 10
46.020600000000002
 20
124.0
 30
0.0
 11
46.020600000000002
 21
115.77500000000001
 31
0.0
  0
LINE
  5
53
  8
0
 62
     7
 10
99.932900000000004
 20
113.56399999999999
 30
0.0
 11
99.340000000000003
 21
115.77500000000001
 31
0.0
  0
LINE
  5
54
  8
0
 62
     7
 10
99.340000000000003
 20
115.77500000000001
 30
0.0
 11
98.747399999999999
 21
113.56399999999999
 31
0.0
  0
LINE
  5
55
  8
0
 62
     7
 10
98.747399999999999
 20
113.56399999999999
 30
0.0
 11
99.932900000000004
 21
113.56399999999999
 31
0.0
  0
LINE
  5
56
  8
0
 62
     7
 10
98.761900000000011
 20
111.986
 30
0.0
 11
99.354399999999984
 21
109.77500000000001
 31
0.0
  0
LINE
  5
57
  8
0
 62
     7
 10
99.354399999999984
 20
109.77500000000001
 30
0.0
 11
99.947000000000017
 21
111.986
 31
0.0
  0
LINE
  5
58
  8
0
 62
     7
 10
99.947000000000017
 20
111.986
 30
0.0
 11
98.761900000000011
 21
111.986
 31
0.0
  0
LINE
  5
59
  8
0
 62
     7
 10
99.347200000000001
 20
115.77500000000001
 30
0.0
 11
99.347200000000001
 21
109.77500000000001
 31
0.0
  0
LINE
  5
5A
  8
0
 62
     7
 10
98.761900000000011
 20
122.499
 30
0.0
 11
99.354399999999984
 21
120.288
 31
0.0
  0
LINE
  5
5B
  8
0
 62
     7
 10
99.354399999999984
 20
120.288
 30
0.0
 11
99.947000000000017
 21
122.499
 31
0.0
  0
LINE
  5
5C
  8
0
 62
     7
 10
99.947000000000017
 20
122.499
 30
0.0
 11
98.761900000000011
 21
122.499
 31
0.0
  0
LINE
  5
5D
  8
0
 62
     7
 10
99.347200000000001
 20
124.0
 30
0.0
 11
99.347200000000001
 21
115.77500000000001
 31
0.0
  0
LINE
  5
5E
  8
0
 62
     7
 10
91.427599999999998
 20
115.777
 30
0.0
 11
100.047
 21
115.777
 31
0.0
  0
LINE
  5
5F
  8
0
 62
     7
 10
91.427599999999998
 20
120.277
 30
0.0
 11
106.634
 21
120.277
 31
0.0
  0
LINE
  5
60
  8
0
 62
     7
 10
63.9407
 20
126.512
 30
0.0
 11
61.729300000000002
 21
125.919
 31
0.0
  0
LINE
  5
61
  8
0
 62
     7
 10
61.729300000000002
 20
125.919
 30
0.0
 11
63.9407
 21
125.327
 31
0.0
  0
LINE
  5
62
  8
0
 62
     7
 10
63.9407
 20
125.327
 30
0.0
 11
63.9407
 21
126.512
 31
0.0
  0
LINE
  5
63
  8
0
 62
     7
 10
77.518900000000002
 20
125.34099999999999
 30
0.0
 11
79.730699999999985
 21
125.934
 31
0.0
  0
LINE
  5
64
  8
0
 62
     7
 10
79.730699999999985
 20
125.934
 30
0.0
 11
77.518900000000002
 21
126.526
 31
0.0
  0
LINE
  5
65
  8
0
 62
     7
 10
77.518900000000002
 20
126.526
 30
0.0
 11
77.518900000000002
 21
125.34099999999999
 31
0.0
  0
LINE
  5
66
  8
0
 62
     7
 10
61.729999999999997
 20
125.92700000000001
 30
0.0
 11
79.730000000000004
 21
125.92700000000001
 31
0.0
  0
LINE
  5
67
  8
0
 62
     7
 10
79.723100000000002
 20
126.627
 30
0.0
 11
79.723100000000002
 21
118.072
 31
0.0
  0
LINE
  5
68
  8
0
 62
     7
 10
61.732700000000001
 20
126.627
 30
0.0
 11
61.732700000000001
 21
118.072
 31
0.0
  0
LINE
  5
69
  8
0
 62
     7
 10
87.227599999999995
 20
109.133
 30
0.0
 11
87.227599999999995
 21
101.455
 31
0.0
  0
LINE
  5
6A
  8
0
 62
     7
 10
56.4407
 20
102.741
 30
0.0
 11
54.229199999999999
 21
102.148
 31
0.0
  0
LINE
  5
6B
  8
0
 62
     7
 10
54.229199999999999
 20
102.148
 30
0.0
 11
56.4407
 21
101.556
 31
0.0
  0
LINE
  5
6C
  8
0
 62
     7
 10
56.4407
 20
101.556
 30
0.0
 11
56.4407
 21
102.741
 31
0.0
  0
LINE
  5
6D
  8
0
 62
     7
 10
85.018900000000016
 20
101.56999999999999
 30
0.0
 11
87.230699999999985
 21
102.163
 31
0.0
  0
LINE
  5
6E
  8
0
 62
     7
 10
87.230699999999985
 20
102.163
 30
0.0
 11
85.018900000000016
 21
102.755
 31
0.0
  0
LINE
  5
6F
  8
0
 62
     7
 10
85.018900000000016
 20
102.755
 30
0.0
 11
85.018900000000016
 21
101.56999999999999
 31
0.0
  0
LINE
  5
70
  8
0
 62
     7
 10
54.229900000000001
 20
102.155
 30
0.0
 11
87.230000000000004
 21
102.155
 31
0.0
  0
LINE
  5
71
  8
0
 62
     7
 10
54.225799999999992
 20
109.107
 30
0.0
 11
54.225799999999992
 21
101.429
 31
0.0
  0
ARC
  5
72
  8
0
  6
AIGENLINE001
 62
     7
 10
146.34382099999999
 20
119.257857
 30
0.0
 40
1.0191709999999989
 50
90.623279999999994
 51
149.776589
  0
ARC
  5
73
  8
0
  6
AIGENLINE001
 62
     7
 10
127.682513
 20
119.258393
 30
0.0
 40
1.018630999999999
 50
31.492774000000001
 51
89.394818999999998
  0
ARC
  5
74
  8
0
  6
AIGENLINE001
 62
     7
 10
141.41225800000001
 20
113.865172
 30
0.0
 40
0.561855
 50
270.7189029999999
 51
329.86572000000001
  0
ARC
  5
75
  8
0
  6
AIGENLINE001
 62
     7
 10
132.74977999999999
 20
113.853746
 30
0.0
 40
0.55832
 50
214.01463200000001
 51
270.37766099999999
  0
ARC
  5
76
  8
0
 62
     7
 10
154.98891699999999
 20
120.01718700000001
 30
0.0
 40
0.25996
 50
2.1307099999999992
 51
87.869280000000003
  0
ARC
  5
77
  8
0
 62
     7
 10
154.98891699999999
 20
110.03637500000001
 30
0.0
 40
0.25996
 50
272.13072
 51
357.86928999999998
  0
LINE
  5
78
  8
0
 62
     7
 10
155.249
 20
109.077
 30
0.0
 11
155.249
 21
95.454599999999999
 31
0.0
  0
LINE
  5
79
  8
0
 62
     7
 10
128.74799999999999
 20
109.077
 30
0.0
 11
128.74799999999999
 21
95.454599999999999
 31
0.0
  0
LINE
  5
7A
  8
0
 62
     7
 10
155.249
 20
120.027
 30
0.0
 11
155.249
 21
110.027
 31
0.0
  0
LINE
  5
7B
  8
0
  6
AIGENLINE001
 62
     7
 10
141.441
 20
113.303
 30
0.0
 11
140.41999999999999
 21
113.28400000000001
 31
0.0
  0
ARC
  5
7C
  8
0
 62
     7
 10
128.2465399999999
 20
115.25707
 30
0.0
 40
0.519211
 50
2.1313589999999998
 51
87.868631000000008
  0
ARC
  5
7D
  8
0
 62
     7
 10
129.459284
 20
110.29544799999999
 30
0.0
 40
0.5192140000000001
 50
182.05547899999999
 51
267.86557699999997
  0
LINE
  5
7E
  8
0
 62
     7
 10
128.76499999999999
 20
115.276
 30
0.0
 11
128.94
 21
110.277
 31
0.0
  0
ARC
  5
7F
  8
0
 62
     7
 10
125.748158
 20
116.276842
 30
0.0
 40
0.5002310000000002
 50
179.99996999999999
 51
270.00002000000001
  0
ARC
  5
80
  8
0
 62
     7
 10
125.76714
 20
119.75774199999999
 30
0.0
 40
0.519573
 50
92.093641000000005
 51
177.86685600000001
  0
LINE
  5
81
  8
0
  6
AIGENLINE001
 62
     7
 10
128.55099999999999
 20
119.791
 30
0.0
 11
132.28700000000001
 21
113.541
 31
0.0
  0
LINE
  5
82
  8
0
 62
     7
 10
130.959
 20
96.739900000000006
 30
0.0
 11
128.74799999999999
 21
96.147400000000005
 31
0.0
  0
LINE
  5
83
  8
0
 62
     7
 10
128.74799999999999
 20
96.147400000000005
 30
0.0
 11
130.959
 21
95.554800000000014
 31
0.0
  0
LINE
  5
84
  8
0
 62
     7
 10
130.959
 20
95.554800000000014
 30
0.0
 11
130.959
 21
96.739900000000006
 31
0.0
  0
LINE
  5
85
  8
0
 62
     7
 10
153.03700000000001
 20
95.569299999999984
 30
0.0
 11
155.249
 21
96.161799999999985
 31
0.0
  0
LINE
  5
86
  8
0
 62
     7
 10
155.249
 20
96.161799999999985
 30
0.0
 11
153.03700000000001
 21
96.754400000000004
 31
0.0
  0
LINE
  5
87
  8
0
 62
     7
 10
153.03700000000001
 20
96.754400000000004
 30
0.0
 11
153.03700000000001
 21
95.569299999999984
 31
0.0
  0
LINE
  5
88
  8
0
 62
     7
 10
128.74799999999999
 20
96.154600000000002
 30
0.0
 11
155.249
 21
96.154600000000002
 31
0.0
  0
LINE
  5
89
  8
0
 62
     7
 10
138.959
 20
102.733
 30
0.0
 11
136.74700000000001
 21
102.14100000000001
 31
0.0
  0
LINE
  5
8A
  8
0
 62
     7
 10
136.74700000000001
 20
102.14100000000001
 30
0.0
 11
138.959
 21
101.548
 31
0.0
  0
LINE
  5
8B
  8
0
 62
     7
 10
138.959
 20
101.548
 30
0.0
 11
138.959
 21
102.733
 31
0.0
  0
LINE
  5
8C
  8
0
 62
     7
 10
153.03700000000001
 20
101.563
 30
0.0
 11
155.249
 21
102.155
 31
0.0
  0
LINE
  5
8D
  8
0
 62
     7
 10
155.249
 20
102.155
 30
0.0
 11
153.03700000000001
 21
102.748
 31
0.0
  0
LINE
  5
8E
  8
0
 62
     7
 10
153.03700000000001
 20
102.748
 30
0.0
 11
153.03700000000001
 21
101.563
 31
0.0
  0
LINE
  5
8F
  8
0
 62
     7
 10
136.74799999999999
 20
102.148
 30
0.0
 11
155.249
 21
102.148
 31
0.0
  0
LINE
  5
90
  8
0
 62
     7
 10
170.46799999999999
 20
120.277
 30
0.0
 11
155.94799999999989
 21
120.277
 31
0.0
  0
LINE
  5
91
  8
0
 62
     7
 10
170.35299999999989
 20
118.065
 30
0.0
 11
169.75999999999999
 21
120.277
 31
0.0
  0
LINE
  5
92
  8
0
 62
     7
 10
169.75999999999999
 20
120.277
 30
0.0
 11
169.16800000000001
 21
118.065
 31
0.0
  0
LINE
  5
93
  8
0
 62
     7
 10
169.16800000000001
 20
118.065
 30
0.0
 11
170.35299999999989
 21
118.065
 31
0.0
  0
LINE
  5
94
  8
0
 62
     7
 10
169.18199999999999
 20
112.98699999999999
 30
0.0
 11
169.77500000000001
 21
110.776
 31
0.0
  0
LINE
  5
95
  8
0
 62
     7
 10
169.77500000000001
 20
110.776
 30
0.0
 11
170.36699999999999
 21
112.98699999999999
 31
0.0
  0
LINE
  5
96
  8
0
 62
     7
 10
170.36699999999999
 20
112.98699999999999
 30
0.0
 11
169.18199999999999
 21
112.98699999999999
 31
0.0
  0
LINE
  5
97
  8
0
 62
     7
 10
169.768
 20
120.276
 30
0.0
 11
169.768
 21
110.776
 31
0.0
  0
LINE
  5
98
  8
0
 62
     7
 10
106.526
 20
118.065
 30
0.0
 11
105.934
 21
120.277
 31
0.0
  0
LINE
  5
99
  8
0
 62
     7
 10
105.934
 20
120.277
 30
0.0
 11
105.34099999999999
 21
118.065
 31
0.0
  0
LINE
  5
9A
  8
0
 62
     7
 10
105.34099999999999
 20
118.065
 30
0.0
 11
106.526
 21
118.065
 31
0.0
  0
LINE
  5
9B
  8
0
 62
     7
 10
105.35599999999999
 20
111.98699999999999
 30
0.0
 11
105.94799999999999
 21
109.776
 31
0.0
  0
LINE
  5
9C
  8
0
 62
     7
 10
105.94799999999999
 20
109.776
 30
0.0
 11
106.541
 21
111.98699999999999
 31
0.0
  0
LINE
  5
9D
  8
0
 62
     7
 10
106.541
 20
111.98699999999999
 30
0.0
 11
105.35599999999999
 21
111.98699999999999
 31
0.0
  0
LINE
  5
9E
  8
0
 62
     7
 10
105.941
 20
120.276
 30
0.0
 11
105.941
 21
109.776
 31
0.0
  0
LINE
  5
9F
  8
0
 62
     7
 10
129.44
 20
109.777
 30
0.0
 11
154.999
 21
109.777
 31
0.0
  0
LINE
  5
A0
  8
0
 62
     7
 10
154.999
 20
120.277
 30
0.0
 11
125.748
 21
120.277
 31
0.0
  0
LINE
  5
A1
  8
0
 62
     7
 10
128.072
 20
115.777
 30
0.0
 11
155.249
 21
115.777
 31
0.0
  0
LINE
  5
A2
  8
0
 62
     7
 10
125.248
 20
119.777
 30
0.0
 11
125.248
 21
116.277
 31
0.0
  0
LINE
  5
A3
  8
0
 62
     7
 10
125.748
 20
115.777
 30
0.0
 11
128.072
 21
115.777
 31
0.0
  0
ARC
  5
A4
  8
0
  6
AIGENLINE001
 62
     7
 10
79.904937000000004
 20
115.771259
 30
0.0
 40
1.6818310000000001
 50
143.372286
 51
179.888092
  0
ARC
  5
A5
  8
0
  6
AIGENLINE001
 62
     7
 10
79.907891000000006
 20
115.778809
 30
0.0
 40
1.6847859999999999
 50
180.145062
 51
216.59456
  0
ARC
  5
A6
  8
0
  6
AIGENLINE001
 62
     7
 10
79.537831999999995
 20
115.76917899999999
 30
0.0
 40
1.6852949999999991
 50
0.182391
 51
36.628281999999999
  0
ARC
  5
A7
  8
0
  6
AIGENLINE001
 62
     7
 10
79.5411
 20
115.77882099999999
 30
0.0
 40
1.682024
 50
323.335035
 51
359.85429099999999
  0
LINE
  5
A8
  8
0
  6
AIGENLINE001
 62
     7
 10
78.555199999999999
 20
114.774
 30
0.0
 11
80.890299999999996
 21
114.774
 31
0.0
  0
LINE
  5
A9
  8
0
  6
AIGENLINE001
 62
     7
 10
80.890299999999996
 20
116.77500000000001
 30
0.0
 11
78.555199999999999
 21
116.77500000000001
 31
0.0
  0
ARC
  5
AA
  8
0
 62
     7
 10
90.207977999999997
 20
116.29611300000001
 30
0.0
 40
0.519887
 50
272.20333299999999
 51
357.875651
  0
ARC
  5
AB
  8
0
 62
     7
 10
90.208316999999994
 20
119.75779
 30
0.0
 40
0.519549
 50
2.1278509999999988
 51
87.832638000000003
  0
ARC
  5
AC
  8
0
  6
AIGENLINE001
 62
     7
 10
88.147975000000002
 20
119.621996
 30
0.0
 40
0.618343
 50
130.3871879999999
 51
161.948801
  0
ARC
  5
AD
  8
0
  6
AIGENLINE001
 62
     7
 10
88.224193999999983
 20
119.557671
 30
0.0
 40
0.7169100000000001
 50
90.488280000000003
 51
131.69608099999999
  0
LINE
  5
AE
  8
0
  6
AIGENLINE001
 62
     7
 10
87.560100000000006
 20
119.81399999999999
 30
0.0
 11
86.006299999999996
 21
114.931
 31
0.0
  0
ARC
  5
AF
  8
0
  6
AIGENLINE001
 62
     7
 10
140.27688900000001
 20
112.83917599999999
 30
0.0
 40
0.396825
 50
122.264347
 51
130.23127099999999
  0
ARC
  5
B0
  8
0
  6
AIGENLINE001
 62
     7
 10
140.44625500000001
 20
112.57023599999999
 30
0.0
 40
0.7146510000000002
 50
92.087463999999983
 51
122.23607
  0
ARC
  5
B1
  8
0
  6
AIGENLINE001
 62
     7
 10
139.548664
 20
112.080445
 30
0.0
 40
0.501629
 50
166.28931399999999
 51
182.92471900000001
  0
ARC
  5
B2
  8
0
  6
AIGENLINE001
 62
     7
 10
139.77560399999999
 20
112.034522
 30
0.0
 40
0.733044
 50
128.030711
 51
167.00636499999999
  0
LINE
  5
B3
  8
0
  6
AIGENLINE001
 62
     7
 10
140.02099999999999
 20
113.142
 30
0.0
 11
139.32400000000001
 21
112.61199999999999
 31
0.0
  0
LINE
  5
B4
  8
0
  6
AIGENLINE001
 62
     7
 10
139.048
 20
112.05500000000001
 30
0.0
 11
139.048
 21
110.777
 31
0.0
  0
LINE
  5
B5
  8
0
  6
AIGENLINE001
 62
     7
 10
139.048
 20
112.402
 30
0.0
 11
136.74799999999999
 21
112.402
 31
0.0
  0
LINE
  5
B6
  8
0
 62
     7
 10
164.09100000000001
 20
113.303
 30
0.0
 11
143.017
 21
113.303
 31
0.0
  0
LINE
  5
B7
  8
0
 62
     7
 10
170.46799999999999
 20
110.777
 30
0.0
 11
140.94800000000001
 21
110.777
 31
0.0
  0
LINE
  5
B8
  8
0
  6
AIGENLINE001
 62
     7
 10
139.92599999999999
 20
113.277
 30
0.0
 11
136.74799999999999
 21
113.277
 31
0.0
  0
LINE
  5
B9
  8
0
  6
AIGENLINE001
 62
     7
 10
139.048
 20
110.777
 30
0.0
 11
136.74799999999999
 21
110.777
 31
0.0
  0
LINE
  5
BA
  8
0
  6
AIGENLINE001
 62
     7
 10
145.46299999999999
 20
119.771
 30
0.0
 11
141.898
 21
113.583
 31
0.0
  0
ARC
  5
BB
  8
0
  6
AIGENLINE001
 62
     7
 10
133.22637599999999
 20
112.85274699999999
 30
0.0
 40
0.381432
 50
49.347540000000009
 51
57.094590000000011
  0
ARC
  5
BC
  8
0
  6
AIGENLINE001
 62
     7
 10
133.053236
 20
112.58184799999999
 30
0.0
 40
0.7029310000000001
 50
57.241612000000003
 51
88.150513999999987
  0
ARC
  5
BD
  8
0
  6
AIGENLINE001
 62
     7
 10
133.95967300000001
 20
112.082168
 30
0.0
 40
0.4895470000000001
 50
356.80117999999999
 51
13.251982999999999
  0
ARC
  5
BE
  8
0
  6
AIGENLINE001
 62
     7
 10
133.723535
 20
112.03599800000001
 30
0.0
 40
0.730038
 50
12.530627000000001
 51
52.082886999999999
  0
LINE
  5
BF
  8
0
  6
AIGENLINE001
 62
     7
 10
133.47499999999999
 20
113.142
 30
0.0
 11
134.172
 21
112.61199999999999
 31
0.0
  0
LINE
  5
C0
  8
0
  6
AIGENLINE001
 62
     7
 10
140.249
 20
112.679
 30
0.0
 11
140.249
 21
110.777
 31
0.0
  0
LINE
  5
C1
  8
0
  6
AIGENLINE001
 62
     7
 10
140.249
 20
110.777
 30
0.0
 11
139.048
 21
110.777
 31
0.0
  0
LINE
  5
C2
  8
0
  6
AIGENLINE001
 62
     7
 10
133.24799999999999
 20
112.679
 30
0.0
 11
133.24799999999999
 21
110.777
 31
0.0
  0
LINE
  5
C3
  8
0
  6
AIGENLINE001
 62
     7
 10
134.44800000000001
 20
112.05500000000001
 30
0.0
 11
134.44800000000001
 21
110.777
 31
0.0
  0
LINE
  5
C4
  8
0
  6
AIGENLINE001
 62
     7
 10
134.44800000000001
 20
112.402
 30
0.0
 11
136.74799999999999
 21
112.402
 31
0.0
  0
LINE
  5
C5
  8
0
  6
AIGENLINE001
 62
     7
 10
133.571
 20
113.277
 30
0.0
 11
136.74799999999999
 21
113.277
 31
0.0
  0
LINE
  5
C6
  8
0
  6
AIGENLINE001
 62
     7
 10
133.24799999999999
 20
110.777
 30
0.0
 11
134.44800000000001
 21
110.777
 31
0.0
  0
LINE
  5
C7
  8
0
  6
AIGENLINE001
 62
     7
 10
134.44800000000001
 20
110.777
 30
0.0
 11
136.74799999999999
 21
110.777
 31
0.0
  0
LINE
  5
C8
  8
0
  6
AIGENLINE001
 62
     7
 10
132.75299999999999
 20
113.295
 30
0.0
 11
133.07599999999999
 21
113.28400000000001
 31
0.0
  0
LINE
  5
C9
  8
0
  6
AIGENLINE002
 62
     7
 10
153.03700000000001
 20
115.777
 30
0.0
 11
157.553
 21
115.777
 31
0.0
  0
LINE
  5
CA
  8
0
  6
AIGENLINE002
 62
     7
 10
149.74799999999999
 20
122.373
 30
0.0
 11
149.74799999999999
 21
117.619
 31
0.0
  0
LINE
  5
CB
  8
0
 62
     7
 10
136.74799999999999
 20
107.729
 30
0.0
 11
136.74799999999999
 21
101.44799999999999
 31
0.0
  0
LINE
  5
CC
  8
0
  6
AIGENLINE002
 62
     7
 10
136.74799999999999
 20
121.39400000000001
 30
0.0
 11
136.74799999999999
 21
108.429
 31
0.0
  0
ARC
  5
CD
  8
0
  6
AIGENLINE001
 62
     7
 10
74.248052000000001
 20
112.85275300000001
 30
0.0
 40
0.380638
 50
122.72200599999999
 51
130.51454200000001
  0
ARC
  5
CE
  8
0
  6
AIGENLINE001
 62
     7
 10
74.424429000000003
 20
112.576182
 30
0.0
 40
0.708662
 50
91.99825300000002
 51
122.63163400000001
  0
ARC
  5
CF
  8
0
  6
AIGENLINE001
 62
     7
 10
73.525443999999993
 20
112.08202900000001
 30
0.0
 40
0.498313
 50
166.38373100000001
 51
183.12657200000001
  0
ARC
  5
D0
  8
0
  6
AIGENLINE001
 62
     7
 10
73.752760999999992
 20
112.03654899999999
 30
0.0
 40
0.730007
 50
127.984184
 51
167.11462
  0
LINE
  5
D1
  8
0
  6
AIGENLINE002
 62
     7
 10
81.787400000000005
 20
115.77500000000001
 30
0.0
 11
77.600200000000001
 21
115.77500000000001
 31
0.0
  0
LINE
  5
D2
  8
0
  6
AIGENLINE002
 62
     7
 10
79.723100000000002
 20
117.372
 30
0.0
 11
79.723100000000002
 21
114.342
 31
0.0
  0
LINE
  5
D3
  8
0
 62
     7
 10
86.342600000000004
 20
109.777
 30
0.0
 11
70.727900000000005
 21
109.777
 31
0.0
  0
LINE
  5
D4
  8
0
 62
     7
 10
87.041899999999998
 20
110.453
 30
0.0
 11
87.024699999999996
 21
110.31999999999999
 31
0.0
  0
LINE
  5
D5
  8
0
 62
     7
 10
87.024699999999996
 20
110.31999999999999
 30
0.0
 11
86.982000000000014
 21
110.19199999999999
 31
0.0
  0
LINE
  5
D6
  8
0
 62
     7
 10
86.982000000000014
 20
110.19199999999999
 30
0.0
 11
86.915800000000004
 21
110.075
 31
0.0
  0
LINE
  5
D7
  8
0
 62
     7
 10
86.915800000000004
 20
110.075
 30
0.0
 11
86.828299999999999
 21
109.973
 31
0.0
  0
LINE
  5
D8
  8
0
 62
     7
 10
86.828299999999999
 20
109.973
 30
0.0
 11
86.723600000000005
 21
109.89
 31
0.0
  0
LINE
  5
D9
  8
0
 62
     7
 10
86.723600000000005
 20
109.89
 30
0.0
 11
86.604399999999984
 21
109.828
 31
0.0
  0
LINE
  5
DA
  8
0
 62
     7
 10
86.604399999999984
 20
109.828
 30
0.0
 11
86.476200000000006
 21
109.79000000000001
 31
0.0
  0
LINE
  5
DB
  8
0
 62
     7
 10
86.476200000000006
 20
109.79000000000001
 30
0.0
 11
86.342600000000004
 21
109.777
 31
0.0
  0
LINE
  5
DC
  8
0
 62
     7
 10
87.204499999999996
 20
115.101
 30
0.0
 11
87.041899999999998
 21
110.453
 31
0.0
  0
LINE
  5
DD
  8
0
 62
     7
 10
87.903899999999993
 20
115.777
 30
0.0
 11
87.770200000000003
 21
115.764
 31
0.0
  0
LINE
  5
DE
  8
0
 62
     7
 10
87.770200000000003
 20
115.764
 30
0.0
 11
87.641400000000004
 21
115.726
 31
0.0
  0
LINE
  5
DF
  8
0
 62
     7
 10
87.641400000000004
 20
115.726
 30
0.0
 11
87.522199999999984
 21
115.664
 31
0.0
  0
LINE
  5
E0
  8
0
 62
     7
 10
87.522199999999984
 20
115.664
 30
0.0
 11
87.417400000000001
 21
115.58
 31
0.0
  0
LINE
  5
E1
  8
0
 62
     7
 10
87.417400000000001
 20
115.58
 30
0.0
 11
87.330600000000004
 21
115.47799999999999
 31
0.0
  0
LINE
  5
E2
  8
0
 62
     7
 10
87.330600000000004
 20
115.47799999999999
 30
0.0
 11
87.264499999999984
 21
115.36199999999999
 31
0.0
  0
LINE
  5
E3
  8
0
 62
     7
 10
87.264499999999984
 20
115.36199999999999
 30
0.0
 11
87.221799999999988
 21
115.23399999999999
 31
0.0
  0
LINE
  5
E4
  8
0
 62
     7
 10
87.221799999999988
 20
115.23399999999999
 30
0.0
 11
87.204499999999996
 21
115.101
 31
0.0
  0
LINE
  5
E5
  8
0
 62
     7
 10
90.727500000000006
 20
119.777
 30
0.0
 11
90.727500000000006
 21
116.277
 31
0.0
  0
LINE
  5
E6
  8
0
 62
     7
 10
90.227999999999994
 20
115.777
 30
0.0
 11
87.903899999999993
 21
115.777
 31
0.0
  0
LINE
  5
E7
  8
0
 62
     7
 10
70.727900000000005
 20
120.277
 30
0.0
 11
90.227999999999994
 21
120.277
 31
0.0
  0
LINE
  5
E8
  8
0
  6
AIGENLINE001
 62
     7
 10
74.000799999999984
 20
113.142
 30
0.0
 11
73.3035
 21
112.61199999999999
 31
0.0
  0
LINE
  5
E9
  8
0
  6
AIGENLINE001
 62
     7
 10
73.027900000000002
 20
112.05500000000001
 30
0.0
 11
73.027900000000002
 21
110.777
 31
0.0
  0
LINE
  5
EA
  8
0
  6
AIGENLINE001
 62
     7
 10
73.027900000000002
 20
112.402
 30
0.0
 11
70.727900000000005
 21
112.402
 31
0.0
  0
LINE
  5
EB
  8
0
  6
AIGENLINE001
 62
     7
 10
73.905000000000001
 20
113.277
 30
0.0
 11
70.727900000000005
 21
113.277
 31
0.0
  0
LINE
  5
EC
  8
0
  6
AIGENLINE001
 62
     7
 10
73.027900000000002
 20
110.777
 30
0.0
 11
70.727900000000005
 21
110.777
 31
0.0
  0
LINE
  5
ED
  8
0
  6
AIGENLINE001
 62
     7
 10
84.194900000000004
 20
113.616
 30
0.0
 11
74.399699999999996
 21
113.28400000000001
 31
0.0
  0
ARC
  5
EE
  8
0
  6
AIGENLINE001
 62
     7
 10
84.410948000000005
 20
115.44226399999999
 30
0.0
 40
1.6753409999999991
 50
318.32029299999999
 51
342.22567400000003
  0
ARC
  5
EF
  8
0
  6
AIGENLINE001
 62
     7
 10
84.075637
 20
115.70150599999999
 30
0.0
 40
2.098368999999999
 50
279.22401400000001
 51
319.1217069999999
  0
ARC
  5
F0
  8
0
  6
AIGENLINE001
 62
     7
 10
84.200199999999995
 20
115.213706
 30
0.0
 40
1.5975369999999991
 50
269.80907000000008
 51
277.61844100000002
  0
LINE
  5
F1
  8
0
 62
     7
 10
87.903899999999993
 20
115.777
 30
0.0
 11
70.727900000000005
 21
115.777
 31
0.0
  0
ARC
  5
F2
  8
0
  6
AIGENLINE001
 62
     7
 10
61.547429999999999
 20
115.76917899999999
 30
0.0
 40
1.6852949999999991
 50
0.182391
 51
36.628281999999999
  0
ARC
  5
F3
  8
0
  6
AIGENLINE001
 62
     7
 10
61.550697
 20
115.77882099999999
 30
0.0
 40
1.682024
 50
323.335035
 51
359.85429099999999
  0
ARC
  5
F4
  8
0
  6
AIGENLINE001
 62
     7
 10
61.914535000000001
 20
115.771259
 30
0.0
 40
1.6818310000000001
 50
143.372286
 51
179.888092
  0
ARC
  5
F5
  8
0
  6
AIGENLINE001
 62
     7
 10
61.917487999999999
 20
115.778809
 30
0.0
 40
1.6847859999999999
 50
180.145062
 51
216.59456
  0
LINE
  5
F6
  8
0
  6
AIGENLINE001
 62
     7
 10
62.899900000000002
 20
114.774
 30
0.0
 11
60.564799999999998
 21
114.774
 31
0.0
  0
LINE
  5
F7
  8
0
  6
AIGENLINE001
 62
     7
 10
60.564799999999998
 20
116.77500000000001
 30
0.0
 11
62.899900000000002
 21
116.77500000000001
 31
0.0
  0
ARC
  5
F8
  8
0
 62
     7
 10
51.22786
 20
116.276842
 30
0.0
 40
0.5002310000000002
 50
179.99996999999999
 51
270.00002000000001
  0
ARC
  5
F9
  8
0
 62
     7
 10
51.246842000000001
 20
119.75774199999999
 30
0.0
 40
0.519573
 50
92.093641000000005
 51
177.86685600000001
  0
ARC
  5
FA
  8
0
  6
AIGENLINE001
 62
     7
 10
53.310124999999992
 20
119.624472
 30
0.0
 40
0.6147590000000001
 50
17.917285
 51
49.649126000000003
  0
ARC
  5
FB
  8
0
  6
AIGENLINE001
 62
     7
 10
53.231237
 20
119.557553
 30
0.0
 40
0.717033
 50
48.307198
 51
89.480226000000016
  0
LINE
  5
FC
  8
0
  6
AIGENLINE001
 62
     7
 10
53.895099999999999
 20
119.81399999999999
 30
0.0
 11
55.448799999999999
 21
114.931
 31
0.0
  0
ARC
  5
FD
  8
0
  6
AIGENLINE001
 62
     7
 10
67.207773000000003
 20
112.85275300000001
 30
0.0
 40
0.380638
 50
49.485438000000002
 51
57.277974
  0
ARC
  5
FE
  8
0
  6
AIGENLINE001
 62
     7
 10
67.031368999999998
 20
112.575943
 30
0.0
 40
0.708878
 50
57.376888999999991
 51
88.055841000000001
  0
ARC
  5
FF
  8
0
  6
AIGENLINE001
 62
     7
 10
67.926975999999996
 20
112.080445
 30
0.0
 40
0.5016300000000001
 50
357.07532099999997
 51
13.710646000000001
  0
ARC
  5
100
  8
0
  6
AIGENLINE001
 62
     7
 10
67.700259000000003
 20
112.03466299999999
 30
0.0
 40
0.7327970000000001
 50
12.986765999999999
 51
51.976118
  0
LINE
  5
101
  8
0
  6
AIGENLINE002
 62
     7
 10
59.667700000000004
 20
115.77500000000001
 30
0.0
 11
63.854900000000001
 21
115.77500000000001
 31
0.0
  0
LINE
  5
102
  8
0
  6
AIGENLINE002
 62
     7
 10
61.732700000000001
 20
117.372
 30
0.0
 11
61.732700000000001
 21
114.342
 31
0.0
  0
LINE
  5
103
  8
0
 62
     7
 10
55.113300000000002
 20
109.777
 30
0.0
 11
70.727900000000005
 21
109.777
 31
0.0
  0
LINE
  5
104
  8
0
 62
     7
 10
54.41320000000001
 20
110.453
 30
0.0
 11
54.431100000000001
 21
110.31999999999999
 31
0.0
  0
LINE
  5
105
  8
0
 62
     7
 10
54.431100000000001
 20
110.31999999999999
 30
0.0
 11
54.47379999999999
 21
110.19199999999999
 31
0.0
  0
LINE
  5
106
  8
0
 62
     7
 10
54.47379999999999
 20
110.19199999999999
 30
0.0
 11
54.53929999999999
 21
110.075
 31
0.0
  0
LINE
  5
107
  8
0
 62
     7
 10
54.53929999999999
 20
110.075
 30
0.0
 11
54.626800000000003
 21
109.973
 31
0.0
  0
LINE
  5
108
  8
0
 62
     7
 10
54.626800000000003
 20
109.973
 30
0.0
 11
54.731499999999997
 21
109.89
 31
0.0
  0
LINE
  5
109
  8
0
 62
     7
 10
54.731499999999997
 20
109.89
 30
0.0
 11
54.850700000000003
 21
109.828
 31
0.0
  0
LINE
  5
10A
  8
0
 62
     7
 10
54.850700000000003
 20
109.828
 30
0.0
 11
54.979599999999991
 21
109.79000000000001
 31
0.0
  0
LINE
  5
10B
  8
0
 62
     7
 10
54.979599999999991
 20
109.79000000000001
 30
0.0
 11
55.113300000000002
 21
109.777
 31
0.0
  0
LINE
  5
10C
  8
0
 62
     7
 10
54.251300000000001
 20
115.101
 30
0.0
 11
54.41320000000001
 21
110.453
 31
0.0
  0
LINE
  5
10D
  8
0
 62
     7
 10
53.551900000000003
 20
115.777
 30
0.0
 11
53.684899999999999
 21
115.764
 31
0.0
  0
LINE
  5
10E
  8
0
 62
     7
 10
53.684899999999999
 20
115.764
 30
0.0
 11
53.813800000000001
 21
115.726
 31
0.0
  0
LINE
  5
10F
  8
0
 62
     7
 10
53.813800000000001
 20
115.726
 30
0.0
 11
53.932999999999993
 21
115.664
 31
0.0
  0
LINE
  5
110
  8
0
 62
     7
 10
53.932999999999993
 20
115.664
 30
0.0
 11
54.037700000000001
 21
115.58
 31
0.0
  0
LINE
  5
111
  8
0
 62
     7
 10
54.037700000000001
 20
115.58
 30
0.0
 11
54.1252
 21
115.47799999999999
 31
0.0
  0
LINE
  5
112
  8
0
 62
     7
 10
54.1252
 20
115.47799999999999
 30
0.0
 11
54.191400000000002
 21
115.36199999999999
 31
0.0
  0
LINE
  5
113
  8
0
 62
     7
 10
54.191400000000002
 20
115.36199999999999
 30
0.0
 11
54.233400000000003
 21
115.23399999999999
 31
0.0
  0
LINE
  5
114
  8
0
 62
     7
 10
54.233400000000003
 20
115.23399999999999
 30
0.0
 11
54.251300000000001
 21
115.101
 31
0.0
  0
LINE
  5
115
  8
0
 62
     7
 10
50.727600000000002
 20
119.777
 30
0.0
 11
50.727600000000002
 21
116.277
 31
0.0
  0
LINE
  5
116
  8
0
 62
     7
 10
51.227899999999998
 20
115.777
 30
0.0
 11
53.551900000000003
 21
115.777
 31
0.0
  0
LINE
  5
117
  8
0
 62
     7
 10
70.727900000000005
 20
120.277
 30
0.0
 11
51.227899999999998
 21
120.277
 31
0.0
  0
LINE
  5
118
  8
0
  6
AIGENLINE001
 62
     7
 10
67.455100000000002
 20
113.142
 30
0.0
 11
68.151700000000005
 21
112.61199999999999
 31
0.0
  0
LINE
  5
119
  8
0
  6
AIGENLINE001
 62
     7
 10
68.427999999999997
 20
112.05500000000001
 30
0.0
 11
68.427999999999997
 21
110.777
 31
0.0
  0
LINE
  5
11A
  8
0
  6
AIGENLINE001
 62
     7
 10
68.427999999999997
 20
112.402
 30
0.0
 11
70.727900000000005
 21
112.402
 31
0.0
  0
LINE
  5
11B
  8
0
  6
AIGENLINE001
 62
     7
 10
67.5501
 20
113.277
 30
0.0
 11
70.727900000000005
 21
113.277
 31
0.0
  0
LINE
  5
11C
  8
0
  6
AIGENLINE001
 62
     7
 10
68.427999999999997
 20
110.777
 30
0.0
 11
70.727900000000005
 21
110.777
 31
0.0
  0
LINE
  5
11D
  8
0
  6
AIGENLINE001
 62
     7
 10
57.260300000000001
 20
113.616
 30
0.0
 11
67.055400000000006
 21
113.28400000000001
 31
0.0
  0
LINE
  5
11E
  8
0
  6
AIGENLINE002
 62
     7
 10
70.727900000000005
 20
121.39400000000001
 30
0.0
 11
70.727900000000005
 21
108.429
 31
0.0
  0
ARC
  5
11F
  8
0
  6
AIGENLINE001
 62
     7
 10
57.044189000000003
 20
115.44226399999999
 30
0.0
 40
1.6753409999999991
 50
197.77434600000001
 51
221.67972700000001
  0
ARC
  5
120
  8
0
  6
AIGENLINE001
 62
     7
 10
57.3795
 20
115.70150599999999
 30
0.0
 40
2.098368999999999
 50
220.87831299999999
 51
260.776006
  0
ARC
  5
121
  8
0
  6
AIGENLINE001
 62
     7
 10
57.254936999999998
 20
115.213706
 30
0.0
 40
1.5975369999999991
 50
262.38157899999999
 51
270.19094999999999
  0
LINE
  5
122
  8
0
 62
     7
 10
53.551900000000003
 20
115.777
 30
0.0
 11
70.727900000000005
 21
115.777
 31
0.0
  0
LINE
  5
123
  8
0
 62
     7
 10
67.507199999999997
 20
196.37799999999999
 30
0.0
 11
69.490300000000005
 21
197.523
 31
0.0
  0
LINE
  5
124
  8
0
 62
     7
 10
69.490300000000005
 20
197.523
 30
0.0
 11
68.345399999999998
 21
195.53999999999999
 31
0.0
  0
LINE
  5
125
  8
0
 62
     7
 10
68.345399999999998
 20
195.53999999999999
 30
0.0
 11
67.507199999999997
 21
196.37799999999999
 31
0.0
  0
LINE
  5
126
  8
0
 62
     7
 10
73.948099999999997
 20
201.143
 30
0.0
 11
71.965400000000002
 21
199.99799999999999
 31
0.0
  0
LINE
  5
127
  8
0
 62
     7
 10
71.965400000000002
 20
199.99799999999999
 30
0.0
 11
73.110200000000006
 21
201.98099999999999
 31
0.0
  0
LINE
  5
128
  8
0
 62
     7
 10
73.110200000000006
 20
201.98099999999999
 30
0.0
 11
73.948099999999997
 21
201.143
 31
0.0
  0
LINE
  5
129
  8
0
 62
     7
 10
67.165000000000006
 20
195.19800000000001
 30
0.0
 11
79.364800000000002
 21
207.398
 31
0.0
  0
LINE
  5
12A
  8
0
 62
     7
 10
79.364800000000002
 20
207.398
 30
0.0
 11
85.441500000000005
 21
207.398
 31
0.0
  0
LINE
  5
12B
  8
0
 62
     7
 10
67.118799999999993
 20
188.53200000000001
 30
0.0
 11
69.101799999999997
 21
187.387
 31
0.0
  0
LINE
  5
12C
  8
0
 62
     7
 10
69.101799999999997
 20
187.387
 30
0.0
 11
67.956999999999994
 21
189.37
 31
0.0
  0
LINE
  5
12D
  8
0
 62
     7
 10
67.956999999999994
 20
189.37
 30
0.0
 11
67.118799999999993
 21
188.53200000000001
 31
0.0
  0
LINE
  5
12E
  8
0
 62
     7
 10
74.337000000000003
 20
182.99000000000001
 30
0.0
 11
72.354399999999998
 21
184.13499999999999
 31
0.0
  0
LINE
  5
12F
  8
0
 62
     7
 10
72.354399999999998
 20
184.13499999999999
 30
0.0
 11
73.499200000000002
 21
182.15199999999999
 31
0.0
  0
LINE
  5
130
  8
0
 62
     7
 10
73.499200000000002
 20
182.15199999999999
 30
0.0
 11
74.337000000000003
 21
182.99000000000001
 31
0.0
  0
LINE
  5
131
  8
0
 62
     7
 10
66.227900000000005
 20
190.261
 30
0.0
 11
75.227900000000005
 21
181.261
 31
0.0
  0
LINE
  5
132
  8
0
 62
     7
 10
75.227900000000005
 20
181.261
 30
0.0
 11
81.654600000000016
 21
181.261
 31
0.0
  0
LINE
  5
133
  8
0
 62
     7
 10
98.973100000000002
 20
192.55000000000001
 30
0.0
 11
98.380499999999998
 21
194.761
 31
0.0
  0
LINE
  5
134
  8
0
 62
     7
 10
98.380499999999998
 20
194.761
 30
0.0
 11
97.787899999999993
 21
192.55000000000001
 31
0.0
  0
LINE
  5
135
  8
0
 62
     7
 10
97.787899999999993
 20
192.55000000000001
 30
0.0
 11
98.973100000000002
 21
192.55000000000001
 31
0.0
  0
LINE
  5
136
  8
0
 62
     7
 10
98.973100000000002
 20
202.05099999999999
 30
0.0
 11
98.380499999999998
 21
204.262
 31
0.0
  0
LINE
  5
137
  8
0
 62
     7
 10
98.380499999999998
 20
204.262
 30
0.0
 11
97.787899999999993
 21
202.05099999999999
 31
0.0
  0
LINE
  5
138
  8
0
 62
     7
 10
97.787899999999993
 20
202.05099999999999
 30
0.0
 11
98.973100000000002
 21
202.05099999999999
 31
0.0
  0
LINE
  5
139
  8
0
 62
     7
 10
97.802400000000006
 20
200.97300000000001
 30
0.0
 11
98.39500000000001
 21
198.761
 31
0.0
  0
LINE
  5
13A
  8
0
 62
     7
 10
98.39500000000001
 20
198.761
 30
0.0
 11
98.987499999999983
 21
200.97300000000001
 31
0.0
  0
LINE
  5
13B
  8
0
 62
     7
 10
98.987499999999983
 20
200.97300000000001
 30
0.0
 11
97.802400000000006
 21
200.97300000000001
 31
0.0
  0
LINE
  5
13C
  8
0
 62
     7
 10
98.387699999999995
 20
204.261
 30
0.0
 11
98.387699999999995
 21
191.66200000000001
 31
0.0
  0
LINE
  5
13D
  8
0
 62
     7
 10
91.427599999999998
 20
204.261
 30
0.0
 11
99.095000000000013
 21
204.261
 31
0.0
  0
LINE
  5
13E
  8
0
 62
     7
 10
88.427499999999995
 20
194.761
 30
0.0
 11
99.095000000000013
 21
194.761
 31
0.0
  0
LINE
  5
13F
  8
0
 62
     7
 10
74.1785
 20
198.761
 30
0.0
 11
99.095000000000013
 21
198.761
 31
0.0
  0
LINE
  5
140
  8
0
 62
     7
 10
60.463200000000001
 20
202.05099999999999
 30
0.0
 11
59.870600000000003
 21
204.262
 31
0.0
  0
LINE
  5
141
  8
0
 62
     7
 10
59.870600000000003
 20
204.262
 30
0.0
 11
59.278100000000002
 21
202.05099999999999
 31
0.0
  0
LINE
  5
142
  8
0
 62
     7
 10
59.278100000000002
 20
202.05099999999999
 30
0.0
 11
60.463200000000001
 21
202.05099999999999
 31
0.0
  0
LINE
  5
143
  8
0
 62
     7
 10
59.29249999999999
 20
187.971
 30
0.0
 11
59.885100000000001
 21
185.75999999999999
 31
0.0
  0
LINE
  5
144
  8
0
 62
     7
 10
59.885100000000001
 20
185.75999999999999
 30
0.0
 11
60.477699999999992
 21
187.971
 31
0.0
  0
LINE
  5
145
  8
0
 62
     7
 10
60.477699999999992
 20
187.971
 30
0.0
 11
59.29249999999999
 21
187.971
 31
0.0
  0
LINE
  5
146
  8
0
 62
     7
 10
59.877899999999997
 20
204.261
 30
0.0
 11
59.877899999999997
 21
185.761
 31
0.0
  0
LINE
  5
147
  8
0
 62
     7
 10
59.067199999999993
 20
185.761
 30
0.0
 11
64.687899999999999
 21
185.761
 31
0.0
  0
LINE
  5
148
  8
0
 62
     7
 10
33.060400000000001
 20
174.261
 30
0.0
 11
50.0276
 21
174.261
 31
0.0
  0
LINE
  5
149
  8
0
 62
     7
 10
34.369500000000002
 20
202.05000000000001
 30
0.0
 11
33.777000000000001
 21
204.261
 31
0.0
  0
LINE
  5
14A
  8
0
 62
     7
 10
33.777000000000001
 20
204.261
 30
0.0
 11
33.184399999999997
 21
202.05000000000001
 31
0.0
  0
LINE
  5
14B
  8
0
 62
     7
 10
33.184399999999997
 20
202.05000000000001
 30
0.0
 11
34.369500000000002
 21
202.05000000000001
 31
0.0
  0
LINE
  5
14C
  8
0
 62
     7
 10
33.198900000000002
 20
176.471
 30
0.0
 11
33.791400000000003
 21
174.25999999999999
 31
0.0
  0
LINE
  5
14D
  8
0
 62
     7
 10
33.791400000000003
 20
174.25999999999999
 30
0.0
 11
34.384
 21
176.471
 31
0.0
  0
LINE
  5
14E
  8
0
 62
     7
 10
34.384
 20
176.471
 30
0.0
 11
33.198900000000002
 21
176.471
 31
0.0
  0
LINE
  5
14F
  8
0
 62
     7
 10
33.783900000000003
 20
204.261
 30
0.0
 11
33.783900000000003
 21
174.261
 31
0.0
  0
LINE
  5
150
  8
0
 62
     7
 10
41.312100000000001
 20
202.05000000000001
 30
0.0
 11
40.719599999999993
 21
204.261
 31
0.0
  0
LINE
  5
151
  8
0
 62
     7
 10
40.719599999999993
 20
204.261
 30
0.0
 11
40.126999999999988
 21
202.05000000000001
 31
0.0
  0
LINE
  5
152
  8
0
 62
     7
 10
40.126999999999988
 20
202.05000000000001
 30
0.0
 11
41.312100000000001
 21
202.05000000000001
 31
0.0
  0
LINE
  5
153
  8
0
 62
     7
 10
40.141499999999994
 20
196.97200000000001
 30
0.0
 11
40.734000000000002
 21
194.75999999999999
 31
0.0
  0
LINE
  5
154
  8
0
 62
     7
 10
40.734000000000002
 20
194.75999999999999
 30
0.0
 11
41.326599999999999
 21
196.97200000000001
 31
0.0
  0
LINE
  5
155
  8
0
 62
     7
 10
41.326599999999999
 20
196.97200000000001
 30
0.0
 11
40.141499999999994
 21
196.97200000000001
 31
0.0
  0
LINE
  5
156
  8
0
 62
     7
 10
41.312100000000001
 20
192.55000000000001
 30
0.0
 11
40.719599999999993
 21
194.761
 31
0.0
  0
LINE
  5
157
  8
0
 62
     7
 10
40.719599999999993
 20
194.761
 30
0.0
 11
40.126999999999988
 21
192.55000000000001
 31
0.0
  0
LINE
  5
158
  8
0
 62
     7
 10
40.126999999999988
 20
192.55000000000001
 30
0.0
 11
41.312100000000001
 21
192.55000000000001
 31
0.0
  0
LINE
  5
159
  8
0
 62
     7
 10
40.141499999999994
 20
179.47200000000001
 30
0.0
 11
40.734000000000002
 21
177.25999999999999
 31
0.0
  0
LINE
  5
15A
  8
0
 62
     7
 10
40.734000000000002
 20
177.25999999999999
 30
0.0
 11
41.326599999999999
 21
179.47200000000001
 31
0.0
  0
LINE
  5
15B
  8
0
 62
     7
 10
41.326599999999999
 20
179.47200000000001
 30
0.0
 11
40.141499999999994
 21
179.47200000000001
 31
0.0
  0
LINE
  5
15C
  8
0
 62
     7
 10
41.312100000000001
 20
172.04900000000001
 30
0.0
 11
40.719599999999993
 21
174.261
 31
0.0
  0
LINE
  5
15D
  8
0
 62
     7
 10
40.719599999999993
 20
174.261
 30
0.0
 11
40.126999999999988
 21
172.04900000000001
 31
0.0
  0
LINE
  5
15E
  8
0
 62
     7
 10
40.126999999999988
 20
172.04900000000001
 30
0.0
 11
41.312100000000001
 21
172.04900000000001
 31
0.0
  0
LINE
  5
15F
  8
0
 62
     7
 10
40.726500000000001
 20
204.261
 30
0.0
 11
40.726500000000001
 21
168.56100000000001
 31
0.0
  0
LINE
  5
160
  8
0
 62
     7
 10
50.0276
 20
204.261
 30
0.0
 11
33.083799999999997
 21
204.261
 31
0.0
  0
LINE
  5
161
  8
0
 62
     7
 10
48.51659999999999
 20
165.755
 30
0.0
 11
50.72829999999999
 21
166.34700000000001
 31
0.0
  0
LINE
  5
162
  8
0
 62
     7
 10
50.72829999999999
 20
166.34700000000001
 30
0.0
 11
48.51659999999999
 21
166.94
 31
0.0
  0
LINE
  5
163
  8
0
 62
     7
 10
48.51659999999999
 20
166.94
 30
0.0
 11
48.51659999999999
 21
165.755
 31
0.0
  0
LINE
  5
164
  8
0
 62
     7
 10
92.939999999999998
 20
166.92599999999999
 30
0.0
 11
90.728200000000001
 21
166.333
 31
0.0
  0
LINE
  5
165
  8
0
 62
     7
 10
90.728200000000001
 20
166.333
 30
0.0
 11
92.939999999999998
 21
165.74000000000001
 31
0.0
  0
LINE
  5
166
  8
0
 62
     7
 10
92.939999999999998
 20
165.74000000000001
 30
0.0
 11
92.939999999999998
 21
166.92599999999999
 31
0.0
  0
LINE
  5
167
  8
0
 62
     7
 10
44.753799999999998
 20
166.34
 30
0.0
 11
96.656599999999997
 21
166.34
 31
0.0
  0
LINE
  5
168
  8
0
 62
     7
 10
55.938400000000001
 20
166.92599999999999
 30
0.0
 11
53.726900000000001
 21
166.333
 31
0.0
  0
LINE
  5
169
  8
0
 62
     7
 10
53.726900000000001
 20
166.333
 30
0.0
 11
55.938400000000001
 21
165.74000000000001
 31
0.0
  0
LINE
  5
16A
  8
0
 62
     7
 10
55.938400000000001
 20
165.74000000000001
 30
0.0
 11
55.938400000000001
 21
166.92599999999999
 31
0.0
  0
LINE
  5
16B
  8
0
 62
     7
 10
85.516800000000003
 20
165.755
 30
0.0
 11
87.728200000000015
 21
166.34700000000001
 31
0.0
  0
LINE
  5
16C
  8
0
 62
     7
 10
87.728200000000015
 20
166.34700000000001
 30
0.0
 11
85.516800000000003
 21
166.94
 31
0.0
  0
LINE
  5
16D
  8
0
 62
     7
 10
85.516800000000003
 20
166.94
 30
0.0
 11
85.516800000000003
 21
165.755
 31
0.0
  0
LINE
  5
16E
  8
0
 62
     7
 10
52.938400000000001
 20
159.93299999999999
 30
0.0
 11
50.726900000000001
 21
159.34
 31
0.0
  0
LINE
  5
16F
  8
0
 62
     7
 10
50.726900000000001
 20
159.34
 30
0.0
 11
52.938400000000001
 21
158.74799999999999
 31
0.0
  0
LINE
  5
170
  8
0
 62
     7
 10
52.938400000000001
 20
158.74799999999999
 30
0.0
 11
52.938400000000001
 21
159.93299999999999
 31
0.0
  0
LINE
  5
171
  8
0
 62
     7
 10
88.516799999999989
 20
158.762
 30
0.0
 11
90.728200000000001
 21
159.35499999999999
 31
0.0
  0
LINE
  5
172
  8
0
 62
     7
 10
90.728200000000001
 20
159.35499999999999
 30
0.0
 11
88.516799999999989
 21
159.947
 31
0.0
  0
LINE
  5
173
  8
0
 62
     7
 10
88.516799999999989
 20
159.947
 30
0.0
 11
88.516799999999989
 21
158.762
 31
0.0
  0
LINE
  5
174
  8
0
 62
     7
 10
50.727600000000002
 20
159.34700000000001
 30
0.0
 11
90.727500000000006
 21
159.34700000000001
 31
0.0
  0
LINE
  5
175
  8
0
 62
     7
 10
90.727500000000006
 20
173.56100000000001
 30
0.0
 11
90.727500000000006
 21
158.64699999999999
 31
0.0
  0
LINE
  5
176
  8
0
 62
     7
 10
50.727600000000002
 20
173.56100000000001
 30
0.0
 11
50.727600000000002
 21
158.64699999999999
 31
0.0
  0
LINE
  5
177
  8
0
  6
AIGENLINE002
 62
     7
 10
73.478499999999997
 20
198.761
 30
0.0
 11
67.9773
 21
198.761
 31
0.0
  0
LINE
  5
178
  8
0
  6
AIGENLINE002
 62
     7
 10
75.978300000000004
 20
185.761
 30
0.0
 11
65.476900000000001
 21
185.761
 31
0.0
  0
LINE
  5
179
  8
0
  6
AIGENLINE002
 62
     7
 10
79.727900000000005
 20
206.393
 30
0.0
 11
79.727900000000005
 21
201.232
 31
0.0
  0
LINE
  5
17A
  8
0
  6
AIGENLINE002
 62
     7
 10
61.727899999999991
 20
206.393
 30
0.0
 11
61.727899999999991
 21
201.232
 31
0.0
  0
LINE
  5
17B
  8
0
  6
AIGENLINE002
 62
     7
 10
70.727900000000005
 20
206.37100000000001
 30
0.0
 11
70.727900000000005
 21
172.672
 31
0.0
  0
ARC
  5
17C
  8
0
 62
     7
 10
70.660679999999999
 20
198.69363999999999
 30
0.0
 40
1.818595999999999
 50
2.1186869999999991
 51
87.881303000000003
  0
ARC
  5
17D
  8
0
 62
     7
 10
70.795523000000003
 20
198.693263
 30
0.0
 40
1.8189859999999991
 50
92.130105000000015
 51
177.869866
  0
ARC
  5
17E
  8
0
 62
     7
 10
70.727913000000001
 20
198.760873
 30
0.0
 40
1.7501189999999991
 50
179.99996999999999
 51
270.00002000000001
  0
ARC
  5
17F
  8
0
 62
     7
 10
70.660287999999994
 20
198.828498
 30
0.0
 40
1.819002
 50
272.13059299999998
 51
357.869417
  0
ARC
  5
180
  8
0
 62
     7
 10
70.639769000000001
 20
185.67257900000001
 30
0.0
 40
2.3897300000000001
 50
2.113801
 51
87.886189000000016
  0
ARC
  5
181
  8
0
 62
     7
 10
70.816449000000006
 20
185.67218700000001
 30
0.0
 40
2.390136
 50
92.122834999999995
 51
177.87713600000001
  0
ARC
  5
182
  8
0
 62
     7
 10
70.816405000000003
 20
185.84885700000001
 30
0.0
 40
2.390077999999999
 50
182.11327800000001
 51
267.87817000000001
  0
ARC
  5
183
  8
0
 62
     7
 10
70.639337999999995
 20
185.848941
 30
0.0
 40
2.3901639999999991
 50
272.1237799999999
 51
357.88481200000001
  0
ARC
  5
184
  8
0
 62
     7
 10
83.399940000000001
 20
190.43284299999991
 30
0.0
 40
0.7279270000000001
 50
2.1543759999999992
 51
87.845613999999983
  0
ARC
  5
185
  8
0
 62
     7
 10
87.000102999999996
 20
194.03335100000001
 30
0.0
 40
0.7279100000000001
 50
2.153163999999999
 51
87.846826000000007
  0
LINE
  5
186
  8
0
 62
     7
 10
87.027499999999989
 20
194.761
 30
0.0
 11
70.727900000000005
 21
194.761
 31
0.0
  0
LINE
  5
187
  8
0
 62
     7
 10
83.427300000000017
 20
191.16
 30
0.0
 11
70.727900000000005
 21
191.16
 31
0.0
  0
ARC
  5
188
  8
0
 62
     7
 10
83.399984000000003
 20
181.588088
 30
0.0
 40
0.7278680000000001
 50
272.15111100000001
 51
357.87708900000001
  0
ARC
  5
189
  8
0
 62
     7
 10
87.000479999999996
 20
177.987605
 30
0.0
 40
0.7275199999999999
 50
272.1246450000001
 51
357.87536499999999
  0
LINE
  5
18A
  8
0
 62
     7
 10
83.427300000000017
 20
180.86099999999999
 30
0.0
 11
70.727900000000005
 21
180.86099999999999
 31
0.0
  0
LINE
  5
18B
  8
0
 62
     7
 10
87.027499999999989
 20
177.261
 30
0.0
 11
70.727900000000005
 21
177.261
 31
0.0
  0
LINE
  5
18C
  8
0
 62
     7
 10
90.051599999999993
 20
174.261
 30
0.0
 11
70.727900000000005
 21
174.261
 31
0.0
  0
LINE
  5
18D
  8
0
 62
     7
 10
90.727500000000006
 20
174.96000000000001
 30
0.0
 11
90.715100000000007
 21
174.827
 31
0.0
  0
LINE
  5
18E
  8
0
 62
     7
 10
90.715100000000007
 20
174.827
 30
0.0
 11
90.676500000000004
 21
174.69799999999989
 31
0.0
  0
LINE
  5
18F
  8
0
 62
     7
 10
90.676500000000004
 20
174.69799999999989
 30
0.0
 11
90.614500000000007
 21
174.57900000000001
 31
0.0
  0
LINE
  5
190
  8
0
 62
     7
 10
90.614500000000007
 20
174.57900000000001
 30
0.0
 11
90.531099999999995
 21
174.47399999999999
 31
0.0
  0
LINE
  5
191
  8
0
 62
     7
 10
90.531099999999995
 20
174.47399999999999
 30
0.0
 11
90.429199999999994
 21
174.387
 31
0.0
  0
LINE
  5
192
  8
0
 62
     7
 10
90.429199999999994
 20
174.387
 30
0.0
 11
90.312000000000012
 21
174.321
 31
0.0
  0
LINE
  5
193
  8
0
 62
     7
 10
90.312000000000012
 20
174.321
 30
0.0
 11
90.184600000000003
 21
174.27799999999999
 31
0.0
  0
LINE
  5
194
  8
0
 62
     7
 10
90.184600000000003
 20
174.27799999999999
 30
0.0
 11
90.051599999999993
 21
174.261
 31
0.0
  0
LINE
  5
195
  8
0
 62
     7
 10
90.727500000000006
 20
203.56100000000001
 30
0.0
 11
90.727500000000006
 21
174.96000000000001
 31
0.0
  0
LINE
  5
196
  8
0
 62
     7
 10
90.027500000000003
 20
204.261
 30
0.0
 11
90.164599999999993
 21
204.24799999999999
 31
0.0
  0
LINE
  5
197
  8
0
 62
     7
 10
90.164599999999993
 20
204.24799999999999
 30
0.0
 11
90.295500000000004
 21
204.208
 31
0.0
  0
LINE
  5
198
  8
0
 62
     7
 10
90.295500000000004
 20
204.208
 30
0.0
 11
90.416799999999995
 21
204.143
 31
0.0
  0
LINE
  5
199
  8
0
 62
     7
 10
90.416799999999995
 20
204.143
 30
0.0
 11
90.522900000000007
 21
204.05600000000001
 31
0.0
  0
LINE
  5
19A
  8
0
 62
     7
 10
90.522900000000007
 20
204.05600000000001
 30
0.0
 11
90.609700000000004
 21
203.94999999999999
 31
0.0
  0
LINE
  5
19B
  8
0
 62
     7
 10
90.609700000000004
 20
203.94999999999999
 30
0.0
 11
90.674499999999995
 21
203.82900000000001
 31
0.0
  0
LINE
  5
19C
  8
0
 62
     7
 10
90.674499999999995
 20
203.82900000000001
 30
0.0
 11
90.714399999999998
 21
203.697
 31
0.0
  0
LINE
  5
19D
  8
0
 62
     7
 10
90.714399999999998
 20
203.697
 30
0.0
 11
90.727500000000006
 21
203.56100000000001
 31
0.0
  0
LINE
  5
19E
  8
0
 62
     7
 10
70.727900000000005
 20
204.261
 30
0.0
 11
90.027500000000003
 21
204.261
 31
0.0
  0
LINE
  5
19F
  8
0
 62
     7
 10
87.727500000000006
 20
176.56100000000001
 30
0.0
 11
87.727500000000006
 21
165.63300000000001
 31
0.0
  0
LINE
  5
1A0
  8
0
 62
     7
 10
53.727600000000002
 20
176.56100000000001
 30
0.0
 11
53.727600000000002
 21
165.63300000000001
 31
0.0
  0
LINE
  5
1A1
  8
0
 62
     7
 10
87.727500000000006
 20
194.06099999999989
 30
0.0
 11
87.727500000000006
 21
177.96100000000001
 31
0.0
  0
LINE
  5
1A2
  8
0
 62
     7
 10
84.127399999999994
 20
190.46000000000001
 30
0.0
 11
84.127399999999994
 21
181.56099999999989
 31
0.0
  0
ARC
  5
1A3
  8
0
 62
     7
 10
58.055197
 20
190.43284299999991
 30
0.0
 40
0.7279270000000001
 50
92.154366000000024
 51
177.84560400000001
  0
ARC
  5
1A4
  8
0
 62
     7
 10
54.455049000000002
 20
194.03333499999999
 30
0.0
 40
0.7279270000000001
 50
92.154366000000024
 51
177.84560400000001
  0
LINE
  5
1A5
  8
0
 62
     7
 10
40.033999999999999
 20
194.761
 30
0.0
 11
53.026899999999998
 21
194.761
 31
0.0
  0
LINE
  5
1A6
  8
0
 62
     7
 10
40.033999999999999
 20
177.261
 30
0.0
 11
53.026899999999998
 21
177.261
 31
0.0
  0
LINE
  5
1A7
  8
0
 62
     7
 10
54.427700000000002
 20
194.761
 30
0.0
 11
70.727900000000005
 21
194.761
 31
0.0
  0
LINE
  5
1A8
  8
0
 62
     7
 10
58.027799999999999
 20
191.16
 30
0.0
 11
70.727900000000005
 21
191.16
 31
0.0
  0
ARC
  5
1A9
  8
0
 62
     7
 10
58.055152999999997
 20
181.588088
 30
0.0
 40
0.7278680000000001
 50
182.12293099999999
 51
267.84890899999999
  0
ARC
  5
1AA
  8
0
 62
     7
 10
54.45465699999999
 20
177.987605
 30
0.0
 40
0.7275199999999999
 50
182.12465499999999
 51
267.87537500000002
  0
LINE
  5
1AB
  8
0
 62
     7
 10
58.027799999999999
 20
180.86099999999999
 30
0.0
 11
70.727900000000005
 21
180.86099999999999
 31
0.0
  0
LINE
  5
1AC
  8
0
 62
     7
 10
54.427700000000002
 20
177.261
 30
0.0
 11
70.727900000000005
 21
177.261
 31
0.0
  0
LINE
  5
1AD
  8
0
 62
     7
 10
51.403599999999997
 20
174.261
 30
0.0
 11
70.727900000000005
 21
174.261
 31
0.0
  0
LINE
  5
1AE
  8
0
 62
     7
 10
50.727600000000002
 20
174.96000000000001
 30
0.0
 11
50.74069999999999
 21
174.827
 31
0.0
  0
LINE
  5
1AF
  8
0
 62
     7
 10
50.74069999999999
 20
174.827
 30
0.0
 11
50.778599999999997
 21
174.69799999999989
 31
0.0
  0
LINE
  5
1B0
  8
0
 62
     7
 10
50.778599999999997
 20
174.69799999999989
 30
0.0
 11
50.840600000000002
 21
174.57900000000001
 31
0.0
  0
LINE
  5
1B1
  8
0
 62
     7
 10
50.840600000000002
 20
174.57900000000001
 30
0.0
 11
50.923999999999999
 21
174.47399999999999
 31
0.0
  0
LINE
  5
1B2
  8
0
 62
     7
 10
50.923999999999999
 20
174.47399999999999
 30
0.0
 11
51.026699999999991
 21
174.387
 31
0.0
  0
LINE
  5
1B3
  8
0
 62
     7
 10
51.026699999999991
 20
174.387
 30
0.0
 11
51.14309999999999
 21
174.321
 31
0.0
  0
LINE
  5
1B4
  8
0
 62
     7
 10
51.14309999999999
 20
174.321
 30
0.0
 11
51.270600000000002
 21
174.27799999999999
 31
0.0
  0
LINE
  5
1B5
  8
0
 62
     7
 10
51.270600000000002
 20
174.27799999999999
 30
0.0
 11
51.403599999999997
 21
174.261
 31
0.0
  0
LINE
  5
1B6
  8
0
 62
     7
 10
50.727600000000002
 20
203.56100000000001
 30
0.0
 11
50.727600000000002
 21
174.96000000000001
 31
0.0
  0
LINE
  5
1B7
  8
0
 62
     7
 10
51.427700000000002
 20
204.261
 30
0.0
 11
51.291299999999993
 21
204.24799999999999
 31
0.0
  0
LINE
  5
1B8
  8
0
 62
     7
 10
51.291299999999993
 20
204.24799999999999
 30
0.0
 11
51.159599999999998
 21
204.208
 31
0.0
  0
LINE
  5
1B9
  8
0
 62
     7
 10
51.159599999999998
 20
204.208
 30
0.0
 11
51.038400000000003
 21
204.143
 31
0.0
  0
LINE
  5
1BA
  8
0
 62
     7
 10
51.038400000000003
 20
204.143
 30
0.0
 11
50.932299999999998
 21
204.05600000000001
 31
0.0
  0
LINE
  5
1BB
  8
0
 62
     7
 10
50.932299999999998
 20
204.05600000000001
 30
0.0
 11
50.845500000000001
 21
203.94999999999999
 31
0.0
  0
LINE
  5
1BC
  8
0
 62
     7
 10
50.845500000000001
 20
203.94999999999999
 30
0.0
 11
50.780700000000003
 21
203.82900000000001
 31
0.0
  0
LINE
  5
1BD
  8
0
 62
     7
 10
50.780700000000003
 20
203.82900000000001
 30
0.0
 11
50.74069999999999
 21
203.697
 31
0.0
  0
LINE
  5
1BE
  8
0
 62
     7
 10
50.74069999999999
 20
203.697
 30
0.0
 11
50.727600000000002
 21
203.56100000000001
 31
0.0
  0
LINE
  5
1BF
  8
0
 62
     7
 10
70.727900000000005
 20
204.261
 30
0.0
 11
51.427700000000002
 21
204.261
 31
0.0
  0
LINE
  5
1C0
  8
0
 62
     7
 10
53.727600000000002
 20
194.06099999999989
 30
0.0
 11
53.727600000000002
 21
177.96100000000001
 31
0.0
  0
LINE
  5
1C1
  8
0
 62
     7
 10
57.327800000000003
 20
190.46000000000001
 30
0.0
 11
57.327800000000003
 21
181.56099999999989
 31
0.0
  0
ARC
  5
1C2
  8
0
 62
     7
 10
70.727739999999983
 20
185.760895
 30
0.0
 40
3.7498390000000001
 50
359.99737800000003
 51
89.997348000000002
  0
ARC
  5
1C3
  8
0
 62
     7
 10
70.727741000000009
 20
185.76054999999999
 30
0.0
 40
3.7501829999999998
 50
89.997367999999994
 51
179.99733800000001
  0
ARC
  5
1C4
  8
0
 62
     7
 10
70.727739999999983
 20
185.760895
 30
0.0
 40
3.7501820000000001
 50
180.0026419999999
 51
270.00265200000001
  0
ARC
  5
1C5
  8
0
 62
     7
 10
70.727739999999983
 20
185.76055099999999
 30
0.0
 40
3.7498390000000001
 50
270.00265200000001
 51
0.002622
  0
TEXT
  5
1C6
  8
_________2
 62
     7
 10
132.5628375
 20
9.1082000000000001
 30
0.0
 40
3.9357000000000002
  1
DV079040R-00
 41
0.5
 72
     1
 11
143.55000000000001
 21
9.1082000000000001
 31
0.0
  0
TEXT
  5
1C7
  8
_________2
 62
     7
 10
135.18663749999999
 20
-0.8926299999999999
 30
0.0
 40
3.9357000000000002
  1
DV079040R
 41
0.5
 72
     1
 11
143.55000000000001
 21
-0.8926299999999999
 31
0.0
  0
TEXT
  5
1C8
  8
_________2
 62
     7
 10
24.586600000000001
 20
0.707627
 30
0.0
 40
3.9357000000000002
  1
重量：7kg、オーバーフローなし
 41
0.5
  0
LINE
  5
1C9
  8
_________2
 62
     7
 10
205.30099999999999
 20
127.411
 30
0.0
 11
183.55099999999999
 21
127.411
 31
0.0
  0
LINE
  5
1CA
  8
_________2
 62
     7
 10
100.3
 20
-4.0910799999999998
 30
0.0
 11
100.3
 21
-21.071000000000002
 31
0.0
  0
LINE
  5
1CB
  8
_________2
 62
     7
 10
100.3
 20
275.93099999999998
 30
0.0
 11
100.3
 21
258.911
 31
0.0
  0
LINE
  5
1CC
  8
_________2
 62
     7
 10
17.049399999999999
 20
127.411
 30
0.0
 11
-4.7010300000000003
 21
127.411
 31
0.0
  0
LINE
  5
1CD
  8
_________2
 62
     7
 10
76.740799999999993
 20
29.8047
 30
0.0
 11
74.554599999999994
 21
29.8047
 31
0.0
  0
LINE
  5
1CE
  8
_________2
 62
     7
 10
77.233500000000006
 20
29.8047
 30
0.0
 11
76.981300000000005
 21
29.8047
 31
0.0
  0
LINE
  5
1CF
  8
_________2
 62
     7
 10
77.726200000000006
 20
29.8047
 30
0.0
 11
80.6511
 21
29.8047
 31
0.0
  0
LINE
  5
1D0
  8
_________2
 62
     7
 10
77.233500000000006
 20
29.8047
 30
0.0
 11
77.485699999999994
 21
29.8047
 31
0.0
  0
LINE
  5
1D1
  8
_________2
 62
     7
 10
70.837299999999999
 20
29.8047
 30
0.0
 11
68.650300000000001
 21
29.8047
 31
0.0
  0
LINE
  5
1D2
  8
_________2
 62
     7
 10
71.329300000000003
 20
29.8047
 30
0.0
 11
71.077799999999996
 21
29.8047
 31
0.0
  0
LINE
  5
1D3
  8
_________2
 62
     7
 10
71.329300000000003
 20
30.2974
 30
0.0
 11
71.329300000000003
 21
32.484400000000001
 31
0.0
  0
LINE
  5
1D4
  8
_________2
 62
     7
 10
71.329300000000003
 20
29.8047
 30
0.0
 11
71.329300000000003
 21
30.057300000000001
 31
0.0
  0
LINE
  5
1D5
  8
_________2
 62
     7
 10
71.821899999999999
 20
29.8047
 30
0.0
 11
74.008899999999997
 21
29.8047
 31
0.0
  0
LINE
  5
1D6
  8
_________2
 62
     7
 10
71.329300000000003
 20
29.8047
 30
0.0
 11
71.581400000000002
 21
29.8047
 31
0.0
  0
LINE
  5
1D7
  8
_________2
 62
     7
 10
71.329300000000003
 20
29.312799999999999
 30
0.0
 11
71.329300000000003
 21
27.126200000000001
 31
0.0
  0
LINE
  5
1D8
  8
_________2
 62
     7
 10
71.329300000000003
 20
29.8047
 30
0.0
 11
71.329300000000003
 21
29.5532
 31
0.0
  0
LINE
  5
1D9
  8
_________2
 62
     7
 10
75.040300000000002
 20
28.5852
 30
0.0
 11
80.218299999999985
 21
27.720400000000001
 31
0.0
  0
LINE
  5
1DA
  8
_________2
 62
     7
 10
75.040300000000002
 20
31.024699999999999
 30
0.0
 11
80.218299999999985
 21
31.8901
 31
0.0
  0
LINE
  5
1DB
  8
_________2
 62
     7
 10
80.218299999999985
 20
27.720400000000001
 30
0.0
 11
80.218299999999985
 21
31.8901
 31
0.0
  0
LINE
  5
1DC
  8
_________2
 62
     7
 10
75.040300000000002
 20
28.5852
 30
0.0
 11
75.040300000000002
 21
31.024699999999999
 31
0.0
  0
ARC
  5
1DD
  8
_________2
 62
     7
 10
71.282674
 20
29.757801000000001
 30
0.0
 40
1.267714
 50
2.1220840000000001
 51
87.894083999999992
  0
ARC
  5
1DE
  8
_________2
 62
     7
 10
71.375812999999994
 20
29.758545999999999
 30
0.0
 40
1.2669680000000001
 50
92.105782999999988
 51
177.91037
  0
ARC
  5
1DF
  8
_________2
 62
     7
 10
71.376186000000004
 20
29.851671
 30
0.0
 40
1.2673680000000001
 50
182.12203600000001
 51
267.877993
  0
ARC
  5
1E0
  8
_________2
 62
     7
 10
71.282368999999989
 20
29.852347999999999
 30
0.0
 40
1.2680439999999991
 50
272.11916400000001
 51
357.84848499999998
  0
ARC
  5
1E1
  8
_________2
 62
     7
 10
71.248890000000003
 20
29.724731999999999
 30
0.0
 40
2.1668310000000002
 50
2.1161439999999989
 51
87.874379000000005
  0
ARC
  5
1E2
  8
_________2
 62
     7
 10
71.408928000000003
 20
29.726146
 30
0.0
 40
2.165392999999999
 50
92.108508999999998
 51
177.91986499999999
  0
ARC
  5
1E3
  8
_________2
 62
     7
 10
71.409267
 20
29.884751999999999
 30
0.0
 40
2.1657829999999998
 50
182.117133
 51
267.88289700000001
  0
ARC
  5
1E4
  8
_________2
 62
     7
 10
71.249286999999995
 20
29.885429999999999
 30
0.0
 40
2.1664590000000001
 50
272.11546800000002
 51
357.86560400000002
  0
TEXT
  5
1E5
  8
_________2
 62
     7
 10
104.605
 20
1.6794899999999999
 30
0.0
 40
3.0923400000000001
  1
図番
 41
0.5
  0
LINE
  5
1E6
  8
_________2
 62
     7
 10
103.55
 20
5.9087199999999989
 30
0.0
 11
183.55099999999999
 21
5.9087199999999989
 31
0.0
  0
TEXT
  5
1E7
  8
_________2
 62
     7
 10
104.605
 20
11.6793
 30
0.0
 40
3.0923400000000001
  1
品番
 41
0.5
  0
TEXT
  5
1E8
  8
_________2
 62
     7
 10
104.605
 20
31.8184
 30
0.0
 40
3.0923400000000001
  1
名称
 41
0.5
  0
TEXT
  5
1E9
  8
_________2
 62
     7
 10
91.844958333333338
 20
26.822299999999998
 30
0.0
 40
3.6545800000000002
  1
mm
 41
0.5
 72
     1
 11
93.367699999999985
 21
26.822299999999998
 31
0.0
  0
TEXT
  5
1EA
  8
_________2
 62
     7
 10
85.642999999999986
 20
31.8184
 30
0.0
 40
3.0923400000000001
  1
単位
 41
0.5
  0
TEXT
  5
1EB
  8
_________2
 62
     7
 10
85.642999999999986
 20
19.410799999999998
 30
0.0
 40
3.0923400000000001
  1
尺度
 41
0.5
  0
TEXT
  5
1EC
  8
_________2
 62
     7
 10
90.091736166666678
 20
13.2182
 30
0.0
 40
3.6545800000000002
  1
1 ： 10
 41
0.5
 72
     1
 11
93.959500000000006
 21
13.2182
 31
0.0
  0
TEXT
  5
1ED
  8
_________2
 62
     7
 10
109.179
 20
24.226099999999999
 30
0.0
 40
3.9357000000000002
  1
セカンドフロア　手洗器
 41
0.5
  0
TEXT
  5
1EE
  8
_________2
 62
     7
 10
39.425100333333333
 20
13.603400000000001
 30
0.0
 40
3.6545800000000002
  1
早川
 41
0.5
 72
     1
 11
41.313299999999998
 21
13.603400000000001
 31
0.0
  0
TEXT
  5
1EF
  8
_________2
 62
     7
 10
20.790190666666671
 20
13.603400000000001
 30
0.0
 40
3.6545800000000002
  1
菅原
 41
0.5
 72
     1
 11
22.7393
 21
13.603400000000001
 31
0.0
  0
TEXT
  5
1F0
  8
_________2
 62
     7
 10
67.785600000000002
 20
13.2182
 30
0.0
 40
3.6545800000000002
  1
15.07.30
 41
0.5
  0
TEXT
  5
1F1
  8
_________2
 62
     7
 10
66.5929
 20
19.410799999999998
 30
0.0
 40
3.0923400000000001
  1
日付
 41
0.5
  0
TEXT
  5
1F2
  8
_________2
 62
     7
 10
29.639199999999999
 20
19.410799999999998
 30
0.0
 40
3.0923400000000001
  1
検図
 41
0.5
  0
TEXT
  5
1F3
  8
_________2
 62
     7
 10
18.020900000000001
 20
5.21143
 30
0.0
 40
3.0923400000000001
  1
備考
 41
0.5
  0
TEXT
  5
1F4
  8
_________2
 62
     7
 10
18.020900000000001
 20
19.410799999999998
 30
0.0
 40
3.0923400000000001
  1
製図
 41
0.5
  0
TEXT
  5
1F5
  8
_________2
 62
     7
 10
23.788265333333339
 20
27.936800000000002
 30
0.0
 40
4.4979399999999989
  1
セラトレーディング株式会社
 41
0.5
 72
     1
 11
41.180300000000003
 21
27.936800000000002
 31
0.0
  0
LINE
  5
1F6
  8
_________2
 62
     7
 10
183.55099999999999
 20
-4.0910799999999998
 30
0.0
 11
17.049399999999999
 21
-4.0910799999999998
 31
0.0
  0
LINE
  5
1F7
  8
_________2
 62
     7
 10
17.049399999999999
 20
-4.0910799999999998
 30
0.0
 11
17.049399999999999
 21
258.911
 31
0.0
  0
LINE
  5
1F8
  8
_________2
 62
     7
 10
17.049399999999999
 20
258.911
 30
0.0
 11
183.55099999999999
 21
258.911
 31
0.0
  0
LINE
  5
1F9
  8
_________2
 62
     7
 10
183.55099999999999
 20
258.911
 30
0.0
 11
183.55099999999999
 21
-4.0910799999999998
 31
0.0
  0
LINE
  5
1FA
  8
_________2
 62
     7
 10
65.549700000000001
 20
9.4092999999999982
 30
0.0
 11
65.549700000000001
 21
35.909100000000002
 31
0.0
  0
LINE
  5
1FB
  8
_________2
 62
     7
 10
84.549599999999984
 20
9.4092999999999982
 30
0.0
 11
84.549599999999984
 21
35.909100000000002
 31
0.0
  0
LINE
  5
1FC
  8
_________2
 62
     7
 10
103.55
 20
-4.0910799999999998
 30
0.0
 11
103.55
 21
35.909100000000002
 31
0.0
  0
LINE
  5
1FD
  8
_________2
 62
     7
 10
28.549199999999999
 20
9.4092999999999982
 30
0.0
 11
28.549199999999999
 21
23.409199999999998
 31
0.0
  0
LINE
  5
1FE
  8
_________2
 62
     7
 10
17.049399999999999
 20
9.4092999999999982
 30
0.0
 11
103.55
 21
9.4092999999999982
 31
0.0
  0
LINE
  5
1FF
  8
_________2
 62
     7
 10
17.049399999999999
 20
23.409199999999998
 30
0.0
 11
103.55
 21
23.409199999999998
 31
0.0
  0
LINE
  5
200
  8
_________2
 62
     7
 10
103.55
 20
15.9085
 30
0.0
 11
183.55099999999999
 21
15.9085
 31
0.0
  0
LINE
  5
201
  8
_________2
 62
     7
 10
17.049399999999999
 20
35.909100000000002
 30
0.0
 11
183.55099999999999
 21
35.909100000000002
 31
0.0
  0
ENDSEC
  0
EOF
