  0
SECTION
  2
HEADER
  9
$ACADVER
  1
AC1009
  9
$INSBASE
 10
0.0
 20
0.0
 30
0.0
  9
$EXTMIN
 10
-4.70052
 20
-21.071400000000001
 30
0.0
  9
$EXTMAX
 10
205.30099999999999
 20
275.93099999999993
 30
0.0
  9
$LIMMIN
 10
0.0
 20
0.0
  9
$LIMMAX
 10
12.0
 20
9.0
  9
$ORTHOMODE
 70
     0
  9
$REGENMODE
 70
     1
  9
$FILLMODE
 70
     1
  9
$QTEXTMODE
 70
     0
  9
$MIRRTEXT
 70
     1
  9
$DRAGMODE
 70
     2
  9
$LTSCALE
 40
1.0
  9
$OSMODE
 70
    37
  9
$ATTMODE
 70
     1
  9
$TEXTSIZE
 40
0.0
  9
$TRACEWID
 40
0.05
  9
$TEXTSTYLE
  7
STANDARD
  9
$CLAYER
  8
0
  9
$CELTYPE
  6
CONTINUOUS
  9
$CECOLOR
 62
   256
  9
$DIMSCALE
 40
1.0
  9
$DIMASZ
 40
0.18
  9
$DIMEXO
 40
0.0625
  9
$DIMDLI
 40
0.38
  9
$DIMRND
 40
0.0
  9
$DIMDLE
 40
0.0
  9
$DIMEXE
 40
0.18
  9
$DIMTP
 40
0.0
  9
$DIMTM
 40
0.0
  9
$DIMTXT
 40
0.18
  9
$DIMCEN
 40
0.09
  9
$DIMTSZ
 40
0.0
  9
$DIMTOL
 70
     0
  9
$DIMLIM
 70
     0
  9
$DIMTIH
 70
     1
  9
$DIMTOH
 70
     1
  9
$DIMSE1
 70
     0
  9
$DIMSE2
 70
     0
  9
$DIMTAD
 70
     0
  9
$DIMZIN
 70
     0
  9
$DIMBLK
  1

  9
$DIMASO
 70
     1
  9
$DIMSHO
 70
     1
  9
$DIMPOST
  1

  9
$DIMAPOST
  1

  9
$DIMALT
 70
     0
  9
$DIMALTD
 70
     2
  9
$DIMALTF
 40
25.399999999999999
  9
$DIMLFAC
 40
1.0
  9
$DIMTOFL
 70
     0
  9
$DIMTVP
 40
0.0
  9
$DIMTIX
 70
     0
  9
$DIMSOXD
 70
     0
  9
$DIMSAH
 70
     0
  9
$DIMBLK1
  1

  9
$DIMBLK2
  1

  9
$DIMSTYLE
  2
STANDARD
  9
$DIMCLRD
 70
     0
  9
$DIMCLRE
 70
     0
  9
$DIMCLRT
 70
     0
  9
$DIMTFAC
 40
1.0
  9
$DIMGAP
 40
0.09
  9
$LUNITS
 70
     2
  9
$LUPREC
 70
     4
  9
$SKETCHINC
 40
0.1
  9
$FILLETRAD
 40
0.0
  9
$AUNITS
 70
     0
  9
$AUPREC
 70
     0
  9
$MENU
  1
.
  9
$ELEVATION
 40
0.0
  9
$PELEVATION
 40
0.0
  9
$THICKNESS
 40
0.0
  9
$LIMCHECK
 70
     0
  9
$BLIPMODE
 70
     0
  9
$CHAMFERA
 40
0.0
  9
$CHAMFERB
 40
0.0
  9
$SKPOLY
 70
     0
  9
$TDCREATE
 40
2444972.375
  9
$TDUPDATE
 40
2453839.2562268521
  9
$TDINDWG
 40
0.0000120255
  9
$TDUSRTIMER
 40
0.0000120255
  9
$USRTIMER
 70
     1
  9
$ANGBASE
 50
0.0
  9
$ANGDIR
 70
     0
  9
$PDMODE
 70
     0
  9
$PDSIZE
 40
0.0
  9
$PLINEWID
 40
0.0
  9
$COORDS
 70
     1
  9
$SPLFRAME
 70
     0
  9
$SPLINETYPE
 70
     6
  9
$SPLINESEGS
 70
     8
  9
$ATTDIA
 70
     0
  9
$ATTREQ
 70
     1
  9
$HANDLING
 70
     1
  9
$HANDSEED
  5
158
  9
$SURFTAB1
 70
     6
  9
$SURFTAB2
 70
     6
  9
$SURFTYPE
 70
     6
  9
$SURFU
 70
     6
  9
$SURFV
 70
     6
  9
$UCSNAME
  2

  9
$UCSORG
 10
0.0
 20
0.0
 30
0.0
  9
$UCSXDIR
 10
1.0
 20
0.0
 30
0.0
  9
$UCSYDIR
 10
0.0
 20
1.0
 30
0.0
  9
$PUCSNAME
  2

  9
$PUCSORG
 10
0.0
 20
0.0
 30
0.0
  9
$PUCSXDIR
 10
1.0
 20
0.0
 30
0.0
  9
$PUCSYDIR
 10
0.0
 20
1.0
 30
0.0
  9
$USERI1
 70
     0
  9
$USERI2
 70
     0
  9
$USERI3
 70
     0
  9
$USERI4
 70
     0
  9
$USERI5
 70
     0
  9
$USERR1
 40
0.0
  9
$USERR2
 40
0.0
  9
$USERR3
 40
0.0
  9
$USERR4
 40
0.0
  9
$USERR5
 40
0.0
  9
$WORLDVIEW
 70
     1
  9
$SHADEDGE
 70
     3
  9
$SHADEDIF
 70
    70
  9
$TILEMODE
 70
     1
  9
$MAXACTVP
 70
    48
  9
$PLIMCHECK
 70
     0
  9
$PEXTMIN
 10
1.0000000000000000E+020
 20
1.0000000000000000E+020
 30
1.0000000000000000E+020
  9
$PEXTMAX
 10
-1.0000000000000000E+020
 20
-1.0000000000000000E+020
 30
-1.0000000000000000E+020
  9
$PLIMMIN
 10
0.0
 20
0.0
  9
$PLIMMAX
 10
12.0
 20
9.0
  9
$UNITMODE
 70
     0
  9
$VISRETAIN
 70
     1
  9
$PLINEGEN
 70
     0
  9
$PSLTSCALE
 70
     1
  0
ENDSEC
  0
SECTION
  2
TABLES
  0
TABLE
  2
VPORT
 70
     2
  0
VPORT
  2
*ACTIVE
 70
     0
 10
0.0
 20
0.0
 11
1.0
 21
1.0
 12
159.8852052981108
 22
127.4297999999999
 13
0.0
 23
0.0
 14
1.0
 24
1.0
 15
0.0
 25
0.0
 16
0.0
 26
0.0
 36
1.0
 17
0.0
 27
0.0
 37
0.0
 40
299.81314826498419
 41
2.1842105263157889
 42
50.0
 43
0.0
 44
0.0
 50
0.0
 51
0.0
 71
     0
 72
   100
 73
     1
 74
     1
 75
     0
 76
     0
 77
     0
 78
     0
  0
ENDTAB
  0
TABLE
  2
LTYPE
 70
     3
  0
LTYPE
  2
CONTINUOUS
 70
     0
  3
Solid line
 72
    65
 73
     0
 40
0.0
  0
LTYPE
  2
AIGENLINE001
 70
     0
  3
generate AI->DXF Converter
 72
    65
 73
     2
 40
1.5522299999999991
 49
0.776115
 49
-0.776115
  0
LTYPE
  2
AIGENLINE002
 70
     0
  3
generate AI->DXF Converter
 72
    65
 73
     4
 40
5.8561449999999988
 49
3.5278
 49
-0.776115
 49
0.776115
 49
-0.776115
  0
ENDTAB
  0
TABLE
  2
LAYER
 70
     2
  0
LAYER
  2
0
 70
     0
 62
     7
  6
CONTINUOUS
  0
LAYER
  2
_________2
 70
     0
 62
     7
  6
CONTINUOUS
  0
ENDTAB
  0
TABLE
  2
STYLE
 70
     1
  0
STYLE
  2
STANDARD
 70
     0
 40
0.0
 41
0.0
 50
0.0
 71
     0
 42
0.0
  3
TXT
  4
EXTFONT.SHX
  0
ENDTAB
  0
TABLE
  2
VIEW
 70
     0
  0
ENDTAB
  0
TABLE
  2
UCS
 70
     0
  0
ENDTAB
  0
TABLE
  2
APPID
 70
     1
  0
APPID
  2
ACAD
 70
     0
  0
ENDTAB
  0
TABLE
  2
DIMSTYLE
 70
     1
  0
DIMSTYLE
  2
STANDARD
 70
     0
  3

  4

  5

  6

  7

 40
1.0
 41
0.18
 42
0.0625
 43
0.38
 44
0.18
 45
0.0
 46
0.0
 47
0.0
 48
0.0
140
0.18
141
0.09
142
0.0
143
25.399999999999999
144
1.0
145
0.0
146
1.0
147
0.09
 71
     0
 72
     0
 73
     1
 74
     1
 75
     0
 76
     0
 77
     0
 78
     0
170
     0
171
     2
172
     0
173
     0
174
     0
175
     0
176
     0
177
     0
178
     0
  0
ENDTAB
  0
ENDSEC
  0
SECTION
  2
BLOCKS
  0
BLOCK
  8
0
  2
$MODEL_SPACE
 70
     0
 10
0.0
 20
0.0
 30
0.0
  3
$MODEL_SPACE
  1

  0
ENDBLK
  5
1A
  8
0
  0
BLOCK
 67
     1
  8
0
  2
$PAPER_SPACE
 70
     0
 10
0.0
 20
0.0
 30
0.0
  3
$PAPER_SPACE
  1

  0
ENDBLK
  5
17
 67
     1
  8
0
  0
ENDSEC
  0
SECTION
  2
ENTITIES
  0
TEXT
  5
23
  8
0
 62
     7
 10
149.15700000000001
 20
128.99628749999999
 30
0.0
 40
3.0923400000000001
  1
290
 50
90.0
 41
0.5
 72
     1
 11
149.15700000000001
 21
130.929
 31
0.0
  0
TEXT
  5
24
  8
0
 62
     7
 10
87.643600000000006
 20
111.5002875
 30
0.0
 40
3.0923400000000001
  1
640
 50
90.0
 41
0.5
 72
     1
 11
87.643600000000006
 21
113.43300000000001
 31
0.0
  0
TEXT
  5
25
  8
0
 62
     7
 10
133.01298249999991
 20
153.2829999999999
 30
0.0
 40
3.0923400000000001
  1
130
 41
0.5
 72
     1
 11
134.6879999999999
 21
153.2829999999999
 31
0.0
  0
TEXT
  5
26
  8
0
 62
     7
 10
132.75528749999989
 20
74.833500000000001
 30
0.0
 40
3.0923400000000001
  1
280
 41
0.5
 72
     1
 11
134.6879999999999
 21
74.833500000000001
 31
0.0
  0
TEXT
  5
27
  8
0
 62
     7
 10
65.596587500000012
 20
74.880300000000005
 30
0.0
 40
3.0923400000000001
  1
290
 41
0.5
 72
     1
 11
67.529300000000006
 21
74.880300000000005
 31
0.0
  0
TEXT
  5
28
  8
0
 62
     7
 10
66.369672500000007
 20
220.59700000000001
 30
0.0
 40
3.0923400000000001
  1
90
 41
0.5
 72
     1
 11
67.529300000000006
 21
220.59700000000001
 31
0.0
  0
TEXT
  5
29
  8
0
 62
     7
 10
65.854282500000011
 20
153.2829999999999
 30
0.0
 40
3.0923400000000001
  1
140
 41
0.5
 72
     1
 11
67.529300000000006
 21
153.2829999999999
 31
0.0
  0
LINE
  5
2A
  8
0
 62
     7
 10
149.91
 20
145.72599999999991
 30
0.0
 11
149.91
 21
116.7259999999999
 31
0.0
  0
ARC
  5
2B
  8
0
  6
AIGENLINE001
 62
     7
 10
140.97040899999999
 20
115.7259669999999
 30
0.0
 40
1.0001180000000001
 50
0.00001
 51
89.999980000000008
  0
ARC
  5
2C
  8
0
  6
AIGENLINE001
 62
     7
 10
140.98729
 20
114.2263079999999
 30
0.0
 40
1.0001180000000001
 50
270.00002000000001
 51
359.99998999999991
  0
ARC
  5
2D
  8
0
  6
AIGENLINE001
 62
     7
 10
129.36969999999991
 20
93.707568999999992
 30
0.0
 40
0.518788
 50
2.0512199999999998
 51
87.948769999999996
  0
ARC
  5
2E
  8
0
  6
AIGENLINE001
 62
     7
 10
129.4069519999999
 20
94.744938000000005
 30
0.0
 40
0.519262
 50
182.0999679999999
 51
267.90006099999999
  0
ARC
  5
2F
  8
0
  6
AIGENLINE001
 62
     7
 10
130.888273
 20
85.225999999999999
 30
0.0
 40
1.000116999999999
 50
179.99996999999991
 51
270.00002000000001
  0
ARC
  5
30
  8
0
  6
AIGENLINE001
 62
     7
 10
147.68804299999999
 20
83.225764999999996
 30
0.0
 40
1.0001180000000001
 50
0.00001
 51
89.999980000000008
  0
ARC
  5
31
  8
0
  6
AIGENLINE001
 62
     7
 10
130.88810100000001
 20
111.22612700000001
 30
0.0
 40
2.000062999999999
 50
90.004935000000003
 51
180.00494499999991
  0
LINE
  5
32
  8
0
  6
AIGENLINE001
 62
     7
 10
129.88800000000001
 20
93.726099999999988
 30
0.0
 11
129.88800000000001
 21
85.225999999999999
 31
0.0
  0
LINE
  5
33
  8
0
  6
AIGENLINE001
 62
     7
 10
128.88800000000001
 20
94.725899999999996
 30
0.0
 11
128.88800000000001
 21
111.226
 31
0.0
  0
ARC
  5
34
  8
0
  6
AIGENLINE001
 62
     7
 10
130.88810100000001
 20
118.7261479999999
 30
0.0
 40
2.0000619999999989
 50
179.995036
 51
269.99508500000002
  0
ARC
  5
35
  8
0
 62
     7
 10
190.2299219999999
 20
96.705682999999993
 30
0.0
 40
50.041558000000002
 50
179.976946
 51
183.40643499999999
  0
ARC
  5
36
  8
0
 62
     7
 10
157.71024099999991
 20
94.923913999999996
 30
0.0
 40
17.474139999999998
 50
183.910203
 51
190.96492099999989
  0
ARC
  5
37
  8
0
 62
     7
 10
149.07646800000001
 20
93.335484999999991
 30
0.0
 40
8.6962489999999981
 50
191.510324
 51
221.81285
  0
ARC
  5
38
  8
0
 62
     7
 10
155.599604
 20
98.897120000000015
 30
0.0
 40
17.267257000000001
 50
221.13680299999999
 51
225.23122699999999
  0
ARC
  5
39
  8
0
 62
     7
 10
155.1371969999999
 20
96.750177000000008
 30
0.0
 40
12.948962
 50
180.10787499999989
 51
212.303797
  0
ARC
  5
3A
  8
0
 62
     7
 10
152.291606
 20
95.182760000000002
 30
0.0
 40
9.7081289999999996
 50
213.45995499999989
 51
243.9241089999999
  0
LINE
  5
3B
  8
0
 62
     7
 10
139.21199999999999
 20
144.578
 30
0.0
 11
140.18799999999999
 21
96.725800000000007
 31
0.0
  0
LINE
  5
3C
  8
0
 62
     7
 10
141.6879999999999
 20
141.04099999999991
 30
0.0
 11
142.1879999999999
 21
96.725800000000007
 31
0.0
  0
ARC
  5
3D
  8
0
 62
     7
 10
79.127144999999985
 20
96.705717000000007
 30
0.0
 40
50.060966999999998
 50
356.59486800000002
 51
0.022987
  0
ARC
  5
3E
  8
0
 62
     7
 10
111.665161
 20
94.923365000000004
 30
0.0
 40
17.475204999999999
 50
349.03760899999997
 51
356.09185899999989
  0
ARC
  5
3F
  8
0
 62
     7
 10
120.2997419999999
 20
93.335334000000003
 30
0.0
 40
8.696594000000001
 50
318.19054199999999
 51
348.491175
  0
ARC
  5
40
  8
0
 62
     7
 10
113.783125
 20
98.891418999999999
 30
0.0
 40
17.259048
 50
314.76819599999988
 51
318.86454399999991
  0
ARC
  5
41
  8
0
 62
     7
 10
104.2469199999999
 20
98.139471
 30
0.0
 40
22.485548999999988
 50
347.93427500000001
 51
356.39542999999992
  0
ARC
  5
42
  8
0
 62
     7
 10
111.8446899999999
 20
96.633376999999996
 30
0.0
 40
14.741253
 50
335.96243199999992
 51
347.485862
  0
ARC
  5
43
  8
0
 62
     7
 10
116.45855899999999
 20
94.687922000000015
 30
0.0
 40
9.7355929999999997
 50
317.19576999999998
 51
335.35830299999992
  0
ARC
  5
44
  8
0
 62
     7
 10
118.1635379999999
 20
93.294635000000014
 30
0.0
 40
7.5391849999999998
 50
295.017697
 51
316.15988299999992
  0
LINE
  5
45
  8
0
 62
     7
 10
130.16499999999991
 20
144.578
 30
0.0
 11
129.1879999999999
 21
96.725800000000007
 31
0.0
  0
LINE
  5
46
  8
0
 62
     7
 10
127.688
 20
145.42599999999999
 30
0.0
 11
126.688
 21
96.725800000000007
 31
0.0
  0
ARC
  5
47
  8
0
 62
     7
 10
111.6938039999999
 20
96.708149000000006
 30
0.0
 40
38.664383999999998
 50
179.97382200000001
 51
184.113574
  0
ARC
  5
48
  8
0
 62
     7
 10
89.602665999999999
 20
95.247808000000006
 30
0.0
 40
16.525898000000002
 50
184.557681
 51
191.9002889999999
  0
ARC
  5
49
  8
0
 62
     7
 10
82.335982999999999
 20
93.787864999999996
 30
0.0
 40
9.1146060000000002
 50
192.3396229999999
 51
222.28751199999991
  0
ARC
  5
4A
  8
0
 62
     7
 10
90.806666000000007
 20
101.02705400000001
 30
0.0
 40
20.254848999999989
 50
221.31404800000001
 51
225.26690300000001
  0
ARC
  5
4B
  8
0
 62
     7
 10
91.575579999999988
 20
97.74787400000001
 30
0.0
 40
16.078552999999989
 50
183.64462499999991
 51
204.56713400000001
  0
ARC
  5
4C
  8
0
 62
     7
 10
86.999565000000004
 20
95.861257999999992
 30
0.0
 40
11.133969999999991
 50
205.527884
 51
222.93103599999989
  0
ARC
  5
4D
  8
0
 62
     7
 10
85.019439999999989
 20
94.186015999999995
 30
0.0
 40
8.5440109999999994
 50
223.75005699999991
 51
244.68006899999989
  0
LINE
  5
4E
  8
0
 62
     7
 10
72.052700000000002
 20
144.578
 30
0.0
 11
73.029399999999995
 21
96.725800000000007
 31
0.0
  0
LINE
  5
4F
  8
0
 62
     7
 10
74.529600000000002
 20
145.42599999999999
 30
0.0
 11
75.529499999999999
 21
96.725800000000007
 31
0.0
  0
ARC
  5
50
  8
0
 62
     7
 10
23.364412999999999
 20
96.708162000000002
 30
0.0
 40
38.664754999999992
 50
355.8864660000001
 51
0.026139
  0
ARC
  5
51
  8
0
 62
     7
 10
45.455921999999987
 20
95.247808000000006
 30
0.0
 40
16.525898000000002
 50
348.09973100000002
 51
355.442339
  0
ARC
  5
52
  8
0
 62
     7
 10
52.722603999999997
 20
93.787864999999996
 30
0.0
 40
9.1146060000000002
 50
317.71250800000001
 51
347.66039699999999
  0
ARC
  5
53
  8
0
 62
     7
 10
44.251922
 20
101.02705400000001
 30
0.0
 40
20.254848999999989
 50
314.73311699999999
 51
318.685971
  0
ARC
  5
54
  8
0
 62
     7
 10
43.483007999999991
 20
97.74787400000001
 30
0.0
 40
16.078552999999989
 50
335.43288599999988
 51
356.35539499999999
  0
ARC
  5
55
  8
0
 62
     7
 10
48.059021999999999
 20
95.861257999999992
 30
0.0
 40
11.133969999999991
 50
317.068983
 51
334.47213599999998
  0
ARC
  5
56
  8
0
 62
     7
 10
50.039147999999997
 20
94.186015999999995
 30
0.0
 40
8.5440109999999994
 50
295.31995000000001
 51
316.24996299999992
  0
LINE
  5
57
  8
0
 62
     7
 10
72.0291
 20
220.23099999999999
 30
0.0
 11
72.0291
 21
214.51400000000001
 31
0.0
  0
LINE
  5
58
  8
0
 62
     7
 10
63.0291
 20
220.23099999999999
 30
0.0
 11
63.0291
 21
214.51400000000001
 31
0.0
  0
LINE
  5
59
  8
0
 62
     7
 10
64.797499999999999
 20
220.32199999999989
 30
0.0
 11
63.0291
 21
219.8479999999999
 31
0.0
  0
LINE
  5
5A
  8
0
 62
     7
 10
63.0291
 20
219.8479999999999
 30
0.0
 11
64.797499999999999
 21
219.374
 31
0.0
  0
LINE
  5
5B
  8
0
 62
     7
 10
64.797499999999999
 20
219.374
 30
0.0
 11
64.797499999999999
 21
220.32199999999989
 31
0.0
  0
LINE
  5
5C
  8
0
 62
     7
 10
70.260800000000003
 20
219.38599999999991
 30
0.0
 11
72.0291
 21
219.86000000000001
 31
0.0
  0
LINE
  5
5D
  8
0
 62
     7
 10
72.0291
 20
219.86000000000001
 30
0.0
 11
70.260800000000003
 21
220.334
 31
0.0
  0
LINE
  5
5E
  8
0
 62
     7
 10
70.260800000000003
 20
220.334
 30
0.0
 11
70.260800000000003
 21
219.38599999999991
 31
0.0
  0
LINE
  5
5F
  8
0
 62
     7
 10
63.0291
 20
219.85400000000001
 30
0.0
 11
72.0291
 21
219.85400000000001
 31
0.0
  0
LINE
  5
60
  8
0
 62
     7
 10
67.813299999999998
 20
211.017
 30
0.0
 11
72.0291
 21
213.92799999999991
 31
0.0
  0
LINE
  5
61
  8
0
 62
     7
 10
72.180400000000006
 20
193.25200000000001
 30
0.0
 11
76.653300000000002
 21
186.30000000000001
 31
0.0
  0
LINE
  5
62
  8
0
 62
     7
 10
74.729200000000006
 20
195.81200000000001
 30
0.0
 11
81.472399999999993
 21
191.215
 31
0.0
  0
LINE
  5
63
  8
0
 62
     7
 10
74.787599999999998
 20
206.01899999999989
 30
0.0
 11
81.5304
 21
208.726
 31
0.0
  0
LINE
  5
64
  8
0
 62
     7
 10
76.677599999999998
 20
213.53200000000001
 30
0.0
 11
72.267899999999997
 21
208.65599999999989
 31
0.0
  0
LINE
  5
65
  8
0
 62
     7
 10
72.0291
 20
196.6279999999999
 30
0.0
 11
72.0291
 21
213.92799999999991
 31
0.0
  0
LINE
  5
66
  8
0
 62
     7
 10
72.719200000000001
 20
199.548
 30
0.0
 11
72.089299999999994
 21
198.70799999999991
 31
0.0
  0
LINE
  5
67
  8
0
 62
     7
 10
72.779300000000006
 20
199.72799999999989
 30
0.0
 11
72.779300000000006
 21
207.67799999999991
 31
0.0
  0
ARC
  5
68
  8
0
 62
     7
 10
72.476699999999994
 20
199.72911099999999
 30
0.0
 40
0.302611
 50
323.25730399999992
 51
359.77404499999989
  0
ARC
  5
69
  8
0
 62
     7
 10
72.332982999999999
 20
198.52672100000001
 30
0.0
 40
0.3038530000000001
 50
143.33481499999999
 51
179.72946999999999
  0
ARC
  5
6A
  8
0
 62
     7
 10
70.029156999999984
 20
196.627915
 30
0.0
 40
1.9999769999999999
 50
270.00248699999997
 51
0.002457
  0
LINE
  5
6B
  8
0
 62
     7
 10
72.322100000000006
 20
193.72099999999989
 30
0.0
 11
74.236199999999997
 21
195.63499999999999
 31
0.0
  0
ARC
  5
6C
  8
0
 62
     7
 10
71.609736999999996
 20
194.44051399999989
 30
0.0
 40
1.0125239999999991
 50
270.28979800000002
 51
314.71591299999989
  0
LINE
  5
6D
  8
0
 62
     7
 10
74.529300000000006
 20
196.34200000000001
 30
0.0
 11
74.529300000000006
 21
205.51400000000001
 31
0.0
  0
ARC
  5
6E
  8
0
 62
     7
 10
73.518085999999997
 20
196.34696700000001
 30
0.0
 40
1.0111799999999991
 50
315.25294600000001
 51
359.731493
  0
LINE
  5
6F
  8
0
 62
     7
 10
74.236199999999997
 20
206.22099999999989
 30
0.0
 11
72.322100000000006
 21
208.13499999999999
 31
0.0
  0
ARC
  5
70
  8
0
 62
     7
 10
73.517820999999998
 20
205.50914299999999
 30
0.0
 40
1.011445999999999
 50
0.274649
 51
44.740912000000002
  0
ARC
  5
71
  8
0
 62
     7
 10
71.609863000000004
 20
207.41600799999989
 30
0.0
 40
1.0122209999999989
 50
45.277079999999991
 51
89.717208999999997
  0
LINE
  5
72
  8
0
 62
     7
 10
77.322199999999995
 20
186.22099999999989
 30
0.0
 11
81.736400000000003
 21
190.63499999999991
 31
0.0
  0
ARC
  5
73
  8
0
 62
     7
 10
76.609897000000004
 20
186.940279
 30
0.0
 40
1.0123089999999999
 50
270.28482300000002
 51
314.72088799999989
  0
LINE
  5
74
  8
0
 62
     7
 10
82.029300000000006
 20
191.34200000000001
 30
0.0
 11
82.029300000000006
 21
208.5139999999999
 31
0.0
  0
ARC
  5
75
  8
0
 62
     7
 10
81.015726999999998
 20
191.34770499999999
 30
0.0
 40
1.0135629999999991
 50
315.32201199999997
 51
359.69611999999989
  0
LINE
  5
76
  8
0
 62
     7
 10
81.736400000000003
 20
209.22099999999989
 30
0.0
 11
77.322199999999995
 21
213.63499999999991
 31
0.0
  0
ARC
  5
77
  8
0
 62
     7
 10
81.017426999999998
 20
208.508983
 30
0.0
 40
1.0118599999999991
 50
0.274351
 51
44.717384000000003
  0
LINE
  5
78
  8
0
 62
     7
 10
76.614900000000006
 20
213.92799999999991
 30
0.0
 11
72.0291
 21
213.92799999999991
 31
0.0
  0
ARC
  5
79
  8
0
 62
     7
 10
76.610353000000003
 20
212.91638299999991
 30
0.0
 40
1.0116289999999999
 50
45.277318000000001
 51
89.740793000000011
  0
LINE
  5
7A
  8
0
 62
     7
 10
62.878
 20
193.25200000000001
 30
0.0
 11
58.405200000000001
 21
186.30000000000001
 31
0.0
  0
LINE
  5
7B
  8
0
 62
     7
 10
60.328999999999994
 20
195.81200000000001
 30
0.0
 11
53.586199999999998
 21
191.215
 31
0.0
  0
LINE
  5
7C
  8
0
 62
     7
 10
60.270600000000002
 20
206.01899999999989
 30
0.0
 11
53.527799999999999
 21
208.726
 31
0.0
  0
LINE
  5
7D
  8
0
 62
     7
 10
58.381
 20
213.53200000000001
 30
0.0
 11
62.790399999999998
 21
208.65599999999989
 31
0.0
  0
LINE
  5
7E
  8
0
 62
     7
 10
63.0291
 20
196.6279999999999
 30
0.0
 11
63.0291
 21
213.92799999999991
 31
0.0
  0
LINE
  5
7F
  8
0
 62
     7
 10
62.339199999999998
 20
199.548
 30
0.0
 11
62.968999999999987
 21
198.70799999999991
 31
0.0
  0
LINE
  5
80
  8
0
 62
     7
 10
62.2791
 20
199.72799999999989
 30
0.0
 11
62.2791
 21
207.67799999999991
 31
0.0
  0
ARC
  5
81
  8
0
 62
     7
 10
62.580525000000002
 20
199.728713
 30
0.0
 40
0.301419
 50
180.1512129999999
 51
216.81747799999991
  0
ARC
  5
82
  8
0
 62
     7
 10
62.727130000000002
 20
198.527345
 30
0.0
 40
0.301981
 50
0.153719
 51
36.781956000000001
  0
LINE
  5
83
  8
0
 62
     7
 10
65.029200000000003
 20
194.6279999999999
 30
0.0
 11
70.029200000000003
 21
194.6279999999999
 31
0.0
  0
ARC
  5
84
  8
0
 62
     7
 10
65.029172000000003
 20
196.6279999999999
 30
0.0
 40
2.0000619999999989
 50
179.99996999999991
 51
270.00002000000001
  0
LINE
  5
85
  8
0
 62
     7
 10
67.245099999999994
 20
211.017
 30
0.0
 11
63.0291
 21
213.92799999999991
 31
0.0
  0
ARC
  5
86
  8
0
 62
     7
 10
67.52907900000001
 20
211.44283299999989
 30
0.0
 40
0.512099
 50
236.31724199999999
 51
303.717513
  0
LINE
  5
87
  8
0
 62
     7
 10
63.44339999999999
 20
193.428
 30
0.0
 11
71.614900000000006
 21
193.428
 31
0.0
  0
LINE
  5
88
  8
0
 62
     7
 10
62.736400000000003
 20
193.72099999999989
 30
0.0
 11
60.822000000000003
 21
195.63499999999999
 31
0.0
  0
ARC
  5
89
  8
0
 62
     7
 10
63.448504000000007
 20
194.439673
 30
0.0
 40
1.011682999999999
 50
225.26451599999999
 51
269.71006899999992
  0
LINE
  5
8A
  8
0
 62
     7
 10
60.529000000000003
 20
196.34200000000001
 30
0.0
 11
60.529000000000003
 21
205.51400000000001
 31
0.0
  0
ARC
  5
8B
  8
0
 62
     7
 10
61.540420999999988
 20
196.3470759999999
 30
0.0
 40
1.0114449999999999
 50
180.27464900000001
 51
224.74095099999991
  0
LINE
  5
8C
  8
0
 62
     7
 10
60.822000000000003
 20
206.22099999999989
 30
0.0
 11
62.736400000000003
 21
208.13499999999999
 31
0.0
  0
ARC
  5
8D
  8
0
 62
     7
 10
61.543443999999987
 20
205.507891
 30
0.0
 40
1.014475
 50
135.32898599999999
 51
179.6554129999999
  0
LINE
  5
8E
  8
0
 62
     7
 10
63.44339999999999
 20
208.428
 30
0.0
 11
71.614900000000006
 21
208.428
 31
0.0
  0
ARC
  5
8F
  8
0
 62
     7
 10
63.449106000000008
 20
207.41509599999989
 30
0.0
 40
1.013137
 50
90.323527999999996
 51
134.701888
  0
LINE
  5
90
  8
0
 62
     7
 10
58.4435
 20
185.928
 30
0.0
 11
76.614900000000006
 21
185.928
 31
0.0
  0
LINE
  5
91
  8
0
 62
     7
 10
57.736400000000003
 20
186.22099999999989
 30
0.0
 11
53.322099999999992
 21
190.63499999999991
 31
0.0
  0
ARC
  5
92
  8
0
 62
     7
 10
58.448433999999999
 20
186.93965900000001
 30
0.0
 40
1.011687999999999
 50
225.26469900000001
 51
269.71975999999989
  0
LINE
  5
93
  8
0
 62
     7
 10
53.0291
 20
191.34200000000001
 30
0.0
 11
53.0291
 21
208.5139999999999
 31
0.0
  0
ARC
  5
94
  8
0
 62
     7
 10
54.040995000000002
 20
191.34717900000001
 30
0.0
 40
1.0118670000000001
 50
180.27461099999999
 51
224.73112
  0
LINE
  5
95
  8
0
 62
     7
 10
53.322099999999992
 20
209.22099999999989
 30
0.0
 11
57.736400000000003
 21
213.63499999999991
 31
0.0
  0
ARC
  5
96
  8
0
 62
     7
 10
54.038423999999999
 20
208.50987000000001
 30
0.0
 40
1.0092920000000001
 50
135.20908799999989
 51
179.77531099999999
  0
LINE
  5
97
  8
0
 62
     7
 10
58.4435
 20
213.92799999999991
 30
0.0
 11
63.0291
 21
213.92799999999991
 31
0.0
  0
ARC
  5
98
  8
0
 62
     7
 10
58.449188999999997
 20
212.91408199999989
 30
0.0
 40
1.013935
 50
90.322237000000015
 51
134.669477
  0
LINE
  5
99
  8
0
 62
     7
 10
140.6879999999999
 20
145.42599999999999
 30
0.0
 11
140.6879999999999
 21
141.91200000000001
 31
0.0
  0
LINE
  5
9A
  8
0
  6
AIGENLINE001
 62
     7
 10
130.88800000000001
 20
113.226
 30
0.0
 11
140.98699999999991
 21
113.226
 31
0.0
  0
LINE
  5
9B
  8
0
  6
AIGENLINE001
 62
     7
 10
130.88800000000001
 20
116.7259999999999
 30
0.0
 11
140.96999999999991
 21
116.7259999999999
 31
0.0
  0
LINE
  5
9C
  8
0
 62
     7
 10
143.251
 20
116.7259999999999
 30
0.0
 11
150.61000000000001
 21
116.7259999999999
 31
0.0
  0
LINE
  5
9D
  8
0
 62
     7
 10
141.67699999999999
 20
145.72599999999991
 30
0.0
 11
150.61000000000001
 21
145.72599999999991
 31
0.0
  0
LINE
  5
9E
  8
0
 62
     7
 10
127.988
 20
145.72599999999991
 30
0.0
 11
140.38800000000001
 21
145.72599999999991
 31
0.0
  0
ARC
  5
9F
  8
0
 62
     7
 10
140.37683100000001
 20
145.41497100000001
 30
0.0
 40
0.31163
 50
2.087809
 51
87.912181000000004
  0
LINE
  5
A0
  8
0
 62
     7
 10
141.52199999999999
 20
141.30899999999991
 30
0.0
 11
140.8539999999999
 21
141.643
 31
0.0
  0
ARC
  5
A1
  8
0
 62
     7
 10
140.99481299999991
 20
141.91573099999991
 30
0.0
 40
0.306587
 50
180.769193
 51
242.65093300000001
  0
ARC
  5
A2
  8
0
 62
     7
 10
141.38119399999991
 20
141.03675200000001
 30
0.0
 40
0.306861
 50
0.7674000000000002
 51
62.619791999999997
  0
LINE
  5
A3
  8
0
 62
     7
 10
148.68799999999999
 20
80.982299999999995
 30
0.0
 11
148.68799999999999
 21
73.781000000000006
 31
0.0
  0
LINE
  5
A4
  8
0
 62
     7
 10
140.6879999999999
 20
146.387
 30
0.0
 11
140.6879999999999
 21
152.828
 31
0.0
  0
LINE
  5
A5
  8
0
 62
     7
 10
143.68899999999999
 20
85.577100000000002
 30
0.0
 11
143.68899999999999
 21
81.725800000000007
 31
0.0
  0
LINE
  5
A6
  8
0
 62
     7
 10
148.68799999999999
 20
85.520899999999983
 30
0.0
 11
148.68799999999999
 21
82.026200000000017
 31
0.0
  0
ARC
  5
A7
  8
0
 62
     7
 10
148.37692999999999
 20
82.036978000000005
 30
0.0
 40
0.311418
 50
272.05378399999989
 51
358.01196900000002
  0
ARC
  5
A8
  8
0
 62
     7
 10
147.6607689999999
 20
85.501673999999994
 30
0.0
 40
1.027571
 50
1.072203
 51
69.282302000000001
  0
LINE
  5
A9
  8
0
 62
     7
 10
122.45699999999999
 20
74.621600000000001
 30
0.0
 11
120.6879999999999
 21
74.147499999999994
 31
0.0
  0
LINE
  5
AA
  8
0
 62
     7
 10
120.6879999999999
 20
74.147499999999994
 30
0.0
 11
122.45699999999999
 21
73.6738
 31
0.0
  0
LINE
  5
AB
  8
0
 62
     7
 10
122.45699999999999
 20
73.6738
 30
0.0
 11
122.45699999999999
 21
74.621600000000001
 31
0.0
  0
LINE
  5
AC
  8
0
 62
     7
 10
146.9199999999999
 20
73.685500000000005
 30
0.0
 11
148.68899999999999
 21
74.158900000000003
 31
0.0
  0
LINE
  5
AD
  8
0
 62
     7
 10
148.68899999999999
 20
74.158900000000003
 30
0.0
 11
146.9199999999999
 21
74.632999999999996
 31
0.0
  0
LINE
  5
AE
  8
0
 62
     7
 10
146.9199999999999
 20
74.632999999999996
 30
0.0
 11
146.9199999999999
 21
73.685500000000005
 31
0.0
  0
LINE
  5
AF
  8
0
 62
     7
 10
120.6879999999999
 20
74.153400000000005
 30
0.0
 11
148.68799999999999
 21
74.153400000000005
 31
0.0
  0
LINE
  5
B0
  8
0
 62
     7
 10
120.6879999999999
 20
80.982299999999995
 30
0.0
 11
120.6879999999999
 21
73.781000000000006
 31
0.0
  0
LINE
  5
B1
  8
0
 62
     7
 10
129.45599999999999
 20
152.971
 30
0.0
 11
127.688
 21
152.49700000000001
 31
0.0
  0
LINE
  5
B2
  8
0
 62
     7
 10
127.688
 20
152.49700000000001
 30
0.0
 11
129.45599999999999
 21
152.02299999999991
 31
0.0
  0
LINE
  5
B3
  8
0
 62
     7
 10
129.45599999999999
 20
152.02299999999991
 30
0.0
 11
129.45599999999999
 21
152.971
 31
0.0
  0
LINE
  5
B4
  8
0
 62
     7
 10
138.9199999999999
 20
152.035
 30
0.0
 11
140.68899999999991
 21
152.5089999999999
 31
0.0
  0
LINE
  5
B5
  8
0
 62
     7
 10
140.68899999999991
 20
152.5089999999999
 30
0.0
 11
138.9199999999999
 21
152.983
 31
0.0
  0
LINE
  5
B6
  8
0
 62
     7
 10
138.9199999999999
 20
152.983
 30
0.0
 11
138.9199999999999
 21
152.035
 31
0.0
  0
LINE
  5
B7
  8
0
 62
     7
 10
127.688
 20
152.5029999999999
 30
0.0
 11
140.6879999999999
 21
152.5029999999999
 31
0.0
  0
LINE
  5
B8
  8
0
  6
AIGENLINE001
 62
     7
 10
128.88800000000001
 20
145.72599999999991
 30
0.0
 11
128.88800000000001
 21
118.7259999999999
 31
0.0
  0
LINE
  5
B9
  8
0
 62
     7
 10
127.688
 20
146.06399999999991
 30
0.0
 11
127.688
 21
152.828
 31
0.0
  0
LINE
  5
BA
  8
0
 62
     7
 10
125.6879999999999
 20
85.577100000000002
 30
0.0
 11
125.6879999999999
 21
81.725800000000007
 31
0.0
  0
LINE
  5
BB
  8
0
  6
AIGENLINE001
 62
     7
 10
130.88800000000001
 20
84.225899999999996
 30
0.0
 11
147.6879999999999
 21
84.225899999999996
 31
0.0
  0
LINE
  5
BC
  8
0
 62
     7
 10
120.988
 20
81.725800000000007
 30
0.0
 11
148.38800000000001
 21
81.725800000000007
 31
0.0
  0
LINE
  5
BD
  8
0
 62
     7
 10
120.6879999999999
 20
85.520899999999983
 30
0.0
 11
120.6879999999999
 21
82.026200000000017
 31
0.0
  0
ARC
  5
BE
  8
0
 62
     7
 10
121.0000509999999
 20
82.037469999999985
 30
0.0
 40
0.311941
 50
182.07511700000001
 51
267.79334999999992
  0
ARC
  5
BF
  8
0
 62
     7
 10
121.714162
 20
85.502893999999998
 30
0.0
 40
1.0260059999999991
 50
110.6791459999999
 51
178.99431699999991
  0
ARC
  5
C0
  8
0
 62
     7
 10
127.999557
 20
145.41494
 30
0.0
 40
0.311661
 50
92.093204000000014
 51
177.906766
  0
LINE
  5
C1
  8
0
 62
     7
 10
122.1879999999999
 20
86.225800000000007
 30
0.0
 11
147.1879999999999
 21
86.225800000000007
 31
0.0
  0
LINE
  5
C2
  8
0
 62
     7
 10
54.797499999999999
 20
74.621600000000001
 30
0.0
 11
53.0291
 21
74.147499999999994
 31
0.0
  0
LINE
  5
C3
  8
0
 62
     7
 10
53.0291
 20
74.147499999999994
 30
0.0
 11
54.797499999999999
 21
73.6738
 31
0.0
  0
LINE
  5
C4
  8
0
 62
     7
 10
54.797499999999999
 20
73.6738
 30
0.0
 11
54.797499999999999
 21
74.621600000000001
 31
0.0
  0
LINE
  5
C5
  8
0
 62
     7
 10
80.260900000000007
 20
73.685500000000005
 30
0.0
 11
82.029300000000006
 21
74.158900000000003
 31
0.0
  0
LINE
  5
C6
  8
0
 62
     7
 10
82.029300000000006
 20
74.158900000000003
 30
0.0
 11
80.260900000000007
 21
74.632999999999996
 31
0.0
  0
LINE
  5
C7
  8
0
 62
     7
 10
80.260900000000007
 20
74.632999999999996
 30
0.0
 11
80.260900000000007
 21
73.685500000000005
 31
0.0
  0
LINE
  5
C8
  8
0
 62
     7
 10
53.0291
 20
74.153400000000005
 30
0.0
 11
82.029300000000006
 21
74.153400000000005
 31
0.0
  0
LINE
  5
C9
  8
0
 62
     7
 10
82.029300000000006
 20
80.982299999999995
 30
0.0
 11
82.029300000000006
 21
73.781000000000006
 31
0.0
  0
LINE
  5
CA
  8
0
 62
     7
 10
53.0291
 20
80.982299999999995
 30
0.0
 11
53.0291
 21
73.781000000000006
 31
0.0
  0
LINE
  5
CB
  8
0
  6
AIGENLINE001
 62
     7
 10
64.029200000000003
 20
84.225899999999996
 30
0.0
 11
71.029200000000003
 21
84.225899999999996
 31
0.0
  0
LINE
  5
CC
  8
0
 62
     7
 10
149.44799999999989
 20
118.495
 30
0.0
 11
149.922
 21
116.7259999999999
 31
0.0
  0
LINE
  5
CD
  8
0
 62
     7
 10
149.922
 20
116.7259999999999
 30
0.0
 11
150.39599999999999
 21
118.495
 31
0.0
  0
LINE
  5
CE
  8
0
 62
     7
 10
150.39599999999999
 20
118.495
 30
0.0
 11
149.44799999999989
 21
118.495
 31
0.0
  0
LINE
  5
CF
  8
0
 62
     7
 10
150.3839999999999
 20
143.958
 30
0.0
 11
149.91
 21
145.72599999999991
 31
0.0
  0
LINE
  5
D0
  8
0
 62
     7
 10
149.91
 20
145.72599999999991
 30
0.0
 11
149.43600000000001
 21
143.958
 31
0.0
  0
LINE
  5
D1
  8
0
 62
     7
 10
149.43600000000001
 20
143.958
 30
0.0
 11
150.3839999999999
 21
143.958
 31
0.0
  0
LINE
  5
D2
  8
0
 62
     7
 10
87.933999999999997
 20
83.494500000000002
 30
0.0
 11
88.407700000000006
 21
81.725800000000007
 31
0.0
  0
LINE
  5
D3
  8
0
 62
     7
 10
88.407700000000006
 20
81.725800000000007
 30
0.0
 11
88.881600000000006
 21
83.494500000000002
 31
0.0
  0
LINE
  5
D4
  8
0
 62
     7
 10
88.881600000000006
 20
83.494500000000002
 30
0.0
 11
87.933999999999997
 21
83.494500000000002
 31
0.0
  0
LINE
  5
D5
  8
0
 62
     7
 10
88.869900000000001
 20
143.958
 30
0.0
 11
88.396199999999993
 21
145.72599999999991
 31
0.0
  0
LINE
  5
D6
  8
0
 62
     7
 10
88.396199999999993
 20
145.72599999999991
 30
0.0
 11
87.922300000000007
 21
143.958
 31
0.0
  0
LINE
  5
D7
  8
0
 62
     7
 10
87.922300000000007
 20
143.958
 30
0.0
 11
88.869900000000001
 21
143.958
 31
0.0
  0
LINE
  5
D8
  8
0
 62
     7
 10
88.402100000000004
 20
81.725800000000007
 30
0.0
 11
88.402100000000004
 21
145.72599999999991
 31
0.0
  0
LINE
  5
D9
  8
0
 62
     7
 10
88.700199999999995
 20
81.725800000000007
 30
0.0
 11
82.668999999999997
 21
81.725800000000007
 31
0.0
  0
LINE
  5
DA
  8
0
 62
     7
 10
88.700199999999995
 20
145.72599999999991
 30
0.0
 11
75.132499999999993
 21
145.72599999999991
 31
0.0
  0
LINE
  5
DB
  8
0
 62
     7
 10
62.297400000000003
 20
152.971
 30
0.0
 11
60.529000000000003
 21
152.49700000000001
 31
0.0
  0
LINE
  5
DC
  8
0
 62
     7
 10
60.529000000000003
 20
152.49700000000001
 30
0.0
 11
62.297400000000003
 21
152.02299999999991
 31
0.0
  0
LINE
  5
DD
  8
0
 62
     7
 10
62.297400000000003
 20
152.02299999999991
 30
0.0
 11
62.297400000000003
 21
152.971
 31
0.0
  0
LINE
  5
DE
  8
0
 62
     7
 10
72.7607
 20
152.035
 30
0.0
 11
74.529300000000006
 21
152.5089999999999
 31
0.0
  0
LINE
  5
DF
  8
0
 62
     7
 10
74.529300000000006
 20
152.5089999999999
 30
0.0
 11
72.7607
 21
152.983
 31
0.0
  0
LINE
  5
E0
  8
0
 62
     7
 10
72.7607
 20
152.983
 30
0.0
 11
72.7607
 21
152.035
 31
0.0
  0
LINE
  5
E1
  8
0
 62
     7
 10
60.529000000000003
 20
152.5029999999999
 30
0.0
 11
74.529300000000006
 21
152.5029999999999
 31
0.0
  0
LINE
  5
E2
  8
0
 62
     7
 10
74.529300000000006
 20
146.06399999999991
 30
0.0
 11
74.529300000000006
 21
152.828
 31
0.0
  0
LINE
  5
E3
  8
0
 62
     7
 10
60.529000000000003
 20
146.06399999999991
 30
0.0
 11
60.529000000000003
 21
152.828
 31
0.0
  0
LINE
  5
E4
  8
0
 62
     7
 10
77.029200000000003
 20
85.577100000000002
 30
0.0
 11
77.029200000000003
 21
81.725800000000007
 31
0.0
  0
LINE
  5
E5
  8
0
  6
AIGENLINE001
 62
     7
 10
72.0291
 20
112.226
 30
0.0
 11
72.0291
 21
85.225999999999999
 31
0.0
  0
ARC
  5
E6
  8
0
  6
AIGENLINE001
 62
     7
 10
70.990941000000007
 20
85.264068999999992
 30
0.0
 40
1.038889999999999
 50
272.10986699999989
 51
357.90001199999989
  0
ARC
  5
E7
  8
0
  6
AIGENLINE001
 62
     7
 10
70.991118
 20
112.18816799999991
 30
0.0
 40
1.038721
 50
2.1103309999999991
 51
87.899529999999999
  0
LINE
  5
E8
  8
0
  6
AIGENLINE001
 62
     7
 10
72.0291
 20
140.226
 30
0.0
 11
72.0291
 21
117.727
 31
0.0
  0
ARC
  5
E9
  8
0
  6
AIGENLINE001
 62
     7
 10
70.990499999999997
 20
117.7643409999999
 30
0.0
 40
1.0393209999999991
 50
272.13330200000001
 51
357.91603700000002
  0
ARC
  5
EA
  8
0
  6
AIGENLINE001
 62
     7
 10
72.548079999999999
 20
140.20738299999999
 30
0.0
 40
0.5192890000000001
 50
92.103393000000011
 51
177.91631699999991
  0
LINE
  5
EB
  8
0
  6
AIGENLINE001
 62
     7
 10
73.029300000000006
 20
141.226
 30
0.0
 11
73.029300000000006
 21
145.72599999999991
 31
0.0
  0
ARC
  5
EC
  8
0
  6
AIGENLINE001
 62
     7
 10
72.510400000000004
 20
141.24518699999999
 30
0.0
 40
0.519199
 50
272.055317
 51
357.90521899999999
  0
LINE
  5
ED
  8
0
 62
     7
 10
82.029300000000006
 20
85.520899999999983
 30
0.0
 11
82.029300000000006
 21
82.026200000000017
 31
0.0
  0
ARC
  5
EE
  8
0
 62
     7
 10
81.717893999999987
 20
82.037129000000007
 30
0.0
 40
0.311574
 50
272.080557
 51
357.98519700000003
  0
ARC
  5
EF
  8
0
 62
     7
 10
81.002632999999989
 20
85.502201999999997
 30
0.0
 40
1.0268129999999991
 50
1.0435289999999999
 51
69.310977000000008
  0
LINE
  5
F0
  8
0
 62
     7
 10
63.00589999999999
 20
144.578
 30
0.0
 11
62.029200000000003
 21
96.725800000000007
 31
0.0
  0
LINE
  5
F1
  8
0
 62
     7
 10
58.029200000000003
 20
85.577100000000002
 30
0.0
 11
58.029200000000003
 21
81.725800000000007
 31
0.0
  0
LINE
  5
F2
  8
0
  6
AIGENLINE002
 62
     7
 10
134.6879999999999
 20
147.422
 30
0.0
 11
134.6879999999999
 21
79.842699999999994
 31
0.0
  0
LINE
  5
F3
  8
0
  6
AIGENLINE002
 62
     7
 10
67.529300000000006
 20
147.422
 30
0.0
 11
67.529300000000006
 21
79.842699999999994
 31
0.0
  0
LINE
  5
F4
  8
0
  6
AIGENLINE001
 62
     7
 10
63.0291
 20
112.226
 30
0.0
 11
63.0291
 21
85.225999999999999
 31
0.0
  0
ARC
  5
F5
  8
0
  6
AIGENLINE001
 62
     7
 10
64.029227000000006
 20
85.225999999999999
 30
0.0
 40
1.000116999999999
 50
179.99996999999991
 51
270.00002000000001
  0
ARC
  5
F6
  8
0
  6
AIGENLINE001
 62
     7
 10
64.067843000000011
 20
112.187444
 30
0.0
 40
1.0394639999999991
 50
92.128997999999996
 51
177.85123200000001
  0
LINE
  5
F7
  8
0
  6
AIGENLINE001
 62
     7
 10
64.029200000000003
 20
113.226
 30
0.0
 11
71.029200000000003
 21
113.226
 31
0.0
  0
LINE
  5
F8
  8
0
  6
AIGENLINE001
 62
     7
 10
64.029200000000003
 20
116.7259999999999
 30
0.0
 11
71.029200000000003
 21
116.7259999999999
 31
0.0
  0
LINE
  5
F9
  8
0
  6
AIGENLINE001
 62
     7
 10
63.0291
 20
140.226
 30
0.0
 11
63.0291
 21
117.727
 31
0.0
  0
ARC
  5
FA
  8
0
  6
AIGENLINE001
 62
     7
 10
64.068177000000006
 20
117.764782
 30
0.0
 40
1.039771
 50
182.107371
 51
267.85319900000002
  0
ARC
  5
FB
  8
0
  6
AIGENLINE001
 62
     7
 10
62.51001999999999
 20
140.2072399999999
 30
0.0
 40
0.5194380000000001
 50
2.0988699999999998
 51
87.881380000000007
  0
LINE
  5
FC
  8
0
  6
AIGENLINE001
 62
     7
 10
62.029200000000003
 20
141.226
 30
0.0
 11
62.029200000000003
 21
145.72599999999991
 31
0.0
  0
ARC
  5
FD
  8
0
  6
AIGENLINE001
 62
     7
 10
62.548082999999998
 20
141.24524799999989
 30
0.0
 40
0.519269
 50
182.10128899999989
 51
267.91848099999987
  0
LINE
  5
FE
  8
0
 62
     7
 10
53.328999999999994
 20
81.725800000000007
 30
0.0
 11
81.729200000000006
 21
81.725800000000007
 31
0.0
  0
LINE
  5
FF
  8
0
 62
     7
 10
53.0291
 20
85.520899999999983
 30
0.0
 11
53.0291
 21
82.026200000000017
 31
0.0
  0
ARC
  5
100
  8
0
 62
     7
 10
53.340881000000003
 20
82.037481999999983
 30
0.0
 40
0.311946
 50
182.077314
 51
267.824072
  0
ARC
  5
101
  8
0
 62
     7
 10
54.055492999999998
 20
85.502339000000006
 30
0.0
 40
1.026521999999999
 50
110.6676379999999
 51
178.96381700000001
  0
LINE
  5
102
  8
0
 62
     7
 10
60.8292
 20
145.72599999999991
 30
0.0
 11
74.229399999999998
 21
145.72599999999991
 31
0.0
  0
ARC
  5
103
  8
0
 62
     7
 10
74.217737999999997
 20
145.41488200000001
 30
0.0
 40
0.3117269999999999
 50
2.1033499999999989
 51
87.863740000000007
  0
LINE
  5
104
  8
0
 62
     7
 10
60.529000000000003
 20
145.42599999999999
 30
0.0
 11
59.528999999999989
 21
96.725800000000007
 31
0.0
  0
ARC
  5
105
  8
0
 62
     7
 10
60.840581
 20
145.41479299999989
 30
0.0
 40
0.311807
 50
92.086334999999991
 51
177.880754
  0
LINE
  5
106
  8
0
 62
     7
 10
55.029200000000003
 20
86.225800000000007
 30
0.0
 11
80.029200000000003
 21
86.225800000000007
 31
0.0
  0
LINE
  5
107
  8
0
  6
AIGENLINE002
 62
     7
 10
67.529300000000006
 20
184.352
 30
0.0
 11
67.529300000000006
 21
215.464
 31
0.0
  0
LINE
  5
108
  8
_________2
 62
     7
 10
205.30099999999999
 20
127.411
 30
0.0
 11
183.55000000000001
 21
127.411
 31
0.0
  0
LINE
  5
109
  8
_________2
 62
     7
 10
100.2999999999999
 20
-4.0910799999999998
 30
0.0
 11
100.2999999999999
 21
-21.071400000000001
 31
0.0
  0
LINE
  5
10A
  8
_________2
 62
     7
 10
100.2999999999999
 20
275.93099999999993
 30
0.0
 11
100.2999999999999
 21
258.911
 31
0.0
  0
LINE
  5
10B
  8
_________2
 62
     7
 10
17.049499999999998
 20
127.411
 30
0.0
 11
-4.70052
 21
127.411
 31
0.0
  0
LINE
  5
10C
  8
_________2
 62
     7
 10
76.741
 20
29.8047
 30
0.0
 11
74.554699999999997
 21
29.8047
 31
0.0
  0
LINE
  5
10D
  8
_________2
 62
     7
 10
77.233699999999999
 20
29.8047
 30
0.0
 11
76.981499999999997
 21
29.8047
 31
0.0
  0
LINE
  5
10E
  8
_________2
 62
     7
 10
77.726299999999995
 20
29.8047
 30
0.0
 11
80.651200000000003
 21
29.8047
 31
0.0
  0
LINE
  5
10F
  8
_________2
 62
     7
 10
77.233699999999999
 20
29.8047
 30
0.0
 11
77.485500000000002
 21
29.8047
 31
0.0
  0
LINE
  5
110
  8
_________2
 62
     7
 10
70.837100000000007
 20
29.8047
 30
0.0
 11
68.650499999999994
 21
29.8047
 31
0.0
  0
LINE
  5
111
  8
_________2
 62
     7
 10
71.329400000000007
 20
29.8047
 30
0.0
 11
71.077600000000004
 21
29.8047
 31
0.0
  0
LINE
  5
112
  8
_________2
 62
     7
 10
71.329400000000007
 20
30.2974
 30
0.0
 11
71.329400000000007
 21
32.484400000000001
 31
0.0
  0
LINE
  5
113
  8
_________2
 62
     7
 10
71.329400000000007
 20
29.8047
 30
0.0
 11
71.329400000000007
 21
30.056899999999992
 31
0.0
  0
LINE
  5
114
  8
_________2
 62
     7
 10
71.822100000000006
 20
29.8047
 30
0.0
 11
74.009
 21
29.8047
 31
0.0
  0
LINE
  5
115
  8
_________2
 62
     7
 10
71.329400000000007
 20
29.8047
 30
0.0
 11
71.581599999999995
 21
29.8047
 31
0.0
  0
LINE
  5
116
  8
_________2
 62
     7
 10
71.329400000000007
 20
29.312799999999999
 30
0.0
 11
71.329400000000007
 21
27.125800000000002
 31
0.0
  0
LINE
  5
117
  8
_________2
 62
     7
 10
71.329400000000007
 20
29.8047
 30
0.0
 11
71.329400000000007
 21
29.5532
 31
0.0
  0
LINE
  5
118
  8
_________2
 62
     7
 10
75.040499999999994
 20
28.5852
 30
0.0
 11
80.218500000000006
 21
27.720400000000001
 31
0.0
  0
LINE
  5
119
  8
_________2
 62
     7
 10
75.040499999999994
 20
31.0243
 30
0.0
 11
80.218500000000006
 21
31.889700000000001
 31
0.0
  0
LINE
  5
11A
  8
_________2
 62
     7
 10
80.218500000000006
 20
27.720400000000001
 30
0.0
 11
80.218500000000006
 21
31.889700000000001
 31
0.0
  0
LINE
  5
11B
  8
_________2
 62
     7
 10
75.040499999999994
 20
28.5852
 30
0.0
 11
75.040499999999994
 21
31.0243
 31
0.0
  0
ARC
  5
11C
  8
_________2
 62
     7
 10
71.28285600000001
 20
29.757811
 30
0.0
 40
1.2673589999999999
 50
2.122214
 51
87.893958999999995
  0
ARC
  5
11D
  8
_________2
 62
     7
 10
71.375959999999992
 20
29.758213000000001
 30
0.0
 40
1.2669559999999991
 50
92.104701000000006
 51
177.8952689999999
  0
ARC
  5
11E
  8
_________2
 62
     7
 10
71.376357999999996
 20
29.851671
 30
0.0
 40
1.2673680000000001
 50
182.12203600000001
 51
267.877993
  0
ARC
  5
11F
  8
_________2
 62
     7
 10
71.282531999999989
 20
29.851998999999989
 30
0.0
 40
1.267695999999999
 50
272.12015300000002
 51
357.863674
  0
ARC
  5
120
  8
_________2
 62
     7
 10
71.329430000000002
 20
29.804742999999998
 30
0.0
 40
2.0849849999999992
 50
0.00001
 51
89.999980000000008
  0
ARC
  5
121
  8
_________2
 62
     7
 10
71.329603000000006
 20
29.804915000000001
 30
0.0
 40
2.084813
 50
90.004733999999999
 51
180.00474399999999
  0
ARC
  5
122
  8
_________2
 62
     7
 10
71.409106000000008
 20
29.884775999999999
 30
0.0
 40
2.1657950000000001
 50
182.11776599999999
 51
267.89173399999999
  0
ARC
  5
123
  8
_________2
 62
     7
 10
71.249459000000002
 20
29.885429999999989
 30
0.0
 40
2.1664590000000001
 50
272.11546800000002
 51
357.86560400000002
  0
TEXT
  5
124
  8
_________2
 62
     7
 10
104.605
 20
1.6794899999999999
 30
0.0
 40
3.0923400000000001
  1
図番
 41
0.5
  0
LINE
  5
125
  8
_________2
 62
     7
 10
103.55
 20
5.9087199999999989
 30
0.0
 11
183.55099999999999
 21
5.9087199999999989
 31
0.0
  0
TEXT
  5
126
  8
_________2
 62
     7
 10
104.605
 20
11.679299999999991
 30
0.0
 40
3.0923400000000001
  1
品番
 41
0.5
  0
TEXT
  5
127
  8
_________2
 62
     7
 10
104.605
 20
31.818100000000001
 30
0.0
 40
3.0923400000000001
  1
名称
 41
0.5
  0
TEXT
  5
128
  8
_________2
 62
     7
 10
91.845058333333341
 20
26.821999999999989
 30
0.0
 40
3.6545800000000002
  1
mm
 41
0.5
 72
     1
 11
93.367800000000003
 21
26.821999999999989
 31
0.0
  0
TEXT
  5
129
  8
_________2
 62
     7
 10
85.643199999999993
 20
31.818100000000001
 30
0.0
 40
3.0923400000000001
  1
単位
 41
0.5
  0
TEXT
  5
12A
  8
_________2
 62
     7
 10
85.643199999999993
 20
19.410799999999991
 30
0.0
 40
3.0923400000000001
  1
尺度
 41
0.5
  0
TEXT
  5
12B
  8
_________2
 62
     7
 10
90.09193616666667
 20
13.2179
 30
0.0
 40
3.6545800000000002
  1
1 ： 10
 41
0.5
 72
     1
 11
93.959699999999998
 21
13.2179
 31
0.0
  0
TEXT
  5
12C
  8
_________2
 62
     7
 10
133.38277500000001
 20
9.1078600000000005
 30
0.0
 40
3.9357000000000002
  1
DV085790-00
 41
0.5
 72
     1
 11
143.55000000000001
 21
9.1078600000000005
 31
0.0
  0
TEXT
  5
12D
  8
_________2
 62
     7
 10
136.00657499999991
 20
-0.8926299999999999
 30
0.0
 40
3.9357000000000002
  1
DV085790
 41
0.5
 72
     1
 11
143.55000000000001
 21
-0.8926299999999999
 31
0.0
  0
TEXT
  5
12E
  8
_________2
 62
     7
 10
24.5868
 20
0.707283
 30
0.0
 40
3.9357000000000002
  1
重量：13.5kg
 41
0.5
  0
TEXT
  5
12F
  8
_________2
 62
     7
 10
109.179
 20
24.2257
 30
0.0
 40
3.9357000000000002
  1
1930　ペデスタル
 41
0.5
  0
TEXT
  5
130
  8
_________2
 62
     7
 10
39.364390666666658
 20
13.603
 30
0.0
 40
3.6545800000000002
  1
高橋
 41
0.5
 72
     1
 11
41.313499999999998
 21
13.603
 31
0.0
  0
TEXT
  5
131
  8
_________2
 62
     7
 10
20.790090666666661
 20
13.603
 30
0.0
 40
3.6545800000000002
  1
石原
 41
0.5
 72
     1
 11
22.73919999999999
 21
13.603
 31
0.0
  0
TEXT
  5
132
  8
_________2
 62
     7
 10
67.785399999999996
 20
13.2179
 30
0.0
 40
3.6545800000000002
  1
06.04.11
 41
0.5
  0
TEXT
  5
133
  8
_________2
 62
     7
 10
66.593100000000007
 20
19.410799999999991
 30
0.0
 40
3.0923400000000001
  1
日付
 41
0.5
  0
TEXT
  5
134
  8
_________2
 62
     7
 10
29.639399999999998
 20
19.410799999999991
 30
0.0
 40
3.0923400000000001
  1
検図
 41
0.5
  0
TEXT
  5
135
  8
_________2
 62
     7
 10
18.021100000000001
 20
5.21143
 30
0.0
 40
3.0923400000000001
  1
備考
 41
0.5
  0
TEXT
  5
136
  8
_________2
 62
     7
 10
18.021100000000001
 20
19.410799999999991
 30
0.0
 40
3.0923400000000001
  1
製図
 41
0.5
  0
TEXT
  5
137
  8
_________2
 62
     7
 10
23.788465333333338
 20
27.936800000000002
 30
0.0
 40
4.4979399999999989
  1
セラトレーディング株式会社
 41
0.5
 72
     1
 11
41.180500000000002
 21
27.936800000000002
 31
0.0
  0
LINE
  5
138
  8
_________2
 62
     7
 10
183.55099999999999
 20
-4.0910799999999998
 30
0.0
 11
17.049499999999998
 21
-4.0910799999999998
 31
0.0
  0
LINE
  5
139
  8
_________2
 62
     7
 10
17.049499999999998
 20
-4.0910799999999998
 30
0.0
 11
17.049499999999998
 21
258.911
 31
0.0
  0
LINE
  5
13A
  8
_________2
 62
     7
 10
17.049499999999998
 20
258.911
 30
0.0
 11
183.55099999999999
 21
258.911
 31
0.0
  0
LINE
  5
13B
  8
_________2
 62
     7
 10
183.55099999999999
 20
258.911
 30
0.0
 11
183.55099999999999
 21
-4.0910799999999998
 31
0.0
  0
LINE
  5
13C
  8
_________2
 62
     7
 10
65.549599999999998
 20
9.4089600000000004
 30
0.0
 11
65.549599999999998
 21
35.908799999999999
 31
0.0
  0
LINE
  5
13D
  8
_________2
 62
     7
 10
84.549700000000016
 20
9.4089600000000004
 30
0.0
 11
84.549700000000016
 21
35.908799999999999
 31
0.0
  0
LINE
  5
13E
  8
_________2
 62
     7
 10
103.55
 20
-4.0910799999999998
 30
0.0
 11
103.55
 21
35.908799999999999
 31
0.0
  0
LINE
  5
13F
  8
_________2
 62
     7
 10
28.549299999999992
 20
9.4089600000000004
 30
0.0
 11
28.549299999999992
 21
23.409199999999998
 31
0.0
  0
LINE
  5
140
  8
_________2
 62
     7
 10
17.049499999999998
 20
9.4089600000000004
 30
0.0
 11
103.55
 21
9.4089600000000004
 31
0.0
  0
LINE
  5
141
  8
_________2
 62
     7
 10
17.049499999999998
 20
23.409199999999998
 30
0.0
 11
103.55
 21
23.409199999999998
 31
0.0
  0
LINE
  5
142
  8
_________2
 62
     7
 10
103.55
 20
15.9085
 30
0.0
 11
183.55099999999999
 21
15.9085
 31
0.0
  0
LINE
  5
143
  8
_________2
 62
     7
 10
17.049499999999998
 20
35.908799999999999
 30
0.0
 11
183.55099999999999
 21
35.908799999999999
 31
0.0
  0
ENDSEC
  0
EOF
