  0
SECTION
  2
HEADER
  9
$ACADVER
  1
AC1009
  9
$INSBASE
 10
0.0
 20
0.0
 30
0.0
  9
$EXTMIN
 10
-4.70052
 20
-21.071400000000001
 30
0.0
  9
$EXTMAX
 10
205.30099999999999
 20
275.93099999999998
 30
0.0
  9
$LIMMIN
 10
0.0
 20
0.0
  9
$LIMMAX
 10
12.0
 20
9.0
  9
$ORTHOMODE
 70
     0
  9
$REGENMODE
 70
     1
  9
$FILLMODE
 70
     1
  9
$QTEXTMODE
 70
     0
  9
$MIRRTEXT
 70
     1
  9
$DRAGMODE
 70
     2
  9
$LTSCALE
 40
1.0
  9
$OSMODE
 70
    37
  9
$ATTMODE
 70
     1
  9
$TEXTSIZE
 40
0.0
  9
$TRACEWID
 40
0.05
  9
$TEXTSTYLE
  7
STANDARD
  9
$CLAYER
  8
0
  9
$CELTYPE
  6
CONTINUOUS
  9
$CECOLOR
 62
   256
  9
$DIMSCALE
 40
1.0
  9
$DIMASZ
 40
0.18
  9
$DIMEXO
 40
0.0625
  9
$DIMDLI
 40
0.38
  9
$DIMRND
 40
0.0
  9
$DIMDLE
 40
0.0
  9
$DIMEXE
 40
0.18
  9
$DIMTP
 40
0.0
  9
$DIMTM
 40
0.0
  9
$DIMTXT
 40
0.18
  9
$DIMCEN
 40
0.09
  9
$DIMTSZ
 40
0.0
  9
$DIMTOL
 70
     0
  9
$DIMLIM
 70
     0
  9
$DIMTIH
 70
     1
  9
$DIMTOH
 70
     1
  9
$DIMSE1
 70
     0
  9
$DIMSE2
 70
     0
  9
$DIMTAD
 70
     0
  9
$DIMZIN
 70
     0
  9
$DIMBLK
  1

  9
$DIMASO
 70
     1
  9
$DIMSHO
 70
     1
  9
$DIMPOST
  1

  9
$DIMAPOST
  1

  9
$DIMALT
 70
     0
  9
$DIMALTD
 70
     2
  9
$DIMALTF
 40
25.399999999999999
  9
$DIMLFAC
 40
1.0
  9
$DIMTOFL
 70
     0
  9
$DIMTVP
 40
0.0
  9
$DIMTIX
 70
     0
  9
$DIMSOXD
 70
     0
  9
$DIMSAH
 70
     0
  9
$DIMBLK1
  1

  9
$DIMBLK2
  1

  9
$DIMSTYLE
  2
STANDARD
  9
$DIMCLRD
 70
     0
  9
$DIMCLRE
 70
     0
  9
$DIMCLRT
 70
     0
  9
$DIMTFAC
 40
1.0
  9
$DIMGAP
 40
0.09
  9
$LUNITS
 70
     2
  9
$LUPREC
 70
     4
  9
$SKETCHINC
 40
0.1
  9
$FILLETRAD
 40
0.0
  9
$AUNITS
 70
     0
  9
$AUPREC
 70
     0
  9
$MENU
  1
.
  9
$ELEVATION
 40
0.0
  9
$PELEVATION
 40
0.0
  9
$THICKNESS
 40
0.0
  9
$LIMCHECK
 70
     0
  9
$BLIPMODE
 70
     0
  9
$CHAMFERA
 40
0.0
  9
$CHAMFERB
 40
0.0
  9
$SKPOLY
 70
     0
  9
$TDCREATE
 40
2444972.375
  9
$TDUPDATE
 40
2457436.25241934
  9
$TDINDWG
 40
0.000025544
  9
$TDUSRTIMER
 40
0.000025544
  9
$USRTIMER
 70
     1
  9
$ANGBASE
 50
0.0
  9
$ANGDIR
 70
     0
  9
$PDMODE
 70
     0
  9
$PDSIZE
 40
0.0
  9
$PLINEWID
 40
0.0
  9
$COORDS
 70
     1
  9
$SPLFRAME
 70
     0
  9
$SPLINETYPE
 70
     6
  9
$SPLINESEGS
 70
     8
  9
$ATTDIA
 70
     1
  9
$ATTREQ
 70
     1
  9
$HANDLING
 70
     1
  9
$HANDSEED
  5
1B9
  9
$SURFTAB1
 70
     6
  9
$SURFTAB2
 70
     6
  9
$SURFTYPE
 70
     6
  9
$SURFU
 70
     6
  9
$SURFV
 70
     6
  9
$UCSNAME
  2

  9
$UCSORG
 10
0.0
 20
0.0
 30
0.0
  9
$UCSXDIR
 10
1.0
 20
0.0
 30
0.0
  9
$UCSYDIR
 10
0.0
 20
1.0
 30
0.0
  9
$PUCSNAME
  2

  9
$PUCSORG
 10
0.0
 20
0.0
 30
0.0
  9
$PUCSXDIR
 10
1.0
 20
0.0
 30
0.0
  9
$PUCSYDIR
 10
0.0
 20
1.0
 30
0.0
  9
$USERI1
 70
     0
  9
$USERI2
 70
     0
  9
$USERI3
 70
     0
  9
$USERI4
 70
     0
  9
$USERI5
 70
     0
  9
$USERR1
 40
0.0
  9
$USERR2
 40
0.0
  9
$USERR3
 40
0.0
  9
$USERR4
 40
0.0
  9
$USERR5
 40
0.0
  9
$WORLDVIEW
 70
     1
  9
$SHADEDGE
 70
     3
  9
$SHADEDIF
 70
    70
  9
$TILEMODE
 70
     1
  9
$MAXACTVP
 70
    48
  9
$PLIMCHECK
 70
     0
  9
$PEXTMIN
 10
1.0000000000000000E+020
 20
1.0000000000000000E+020
 30
1.0000000000000000E+020
  9
$PEXTMAX
 10
-1.0000000000000000E+020
 20
-1.0000000000000000E+020
 30
-1.0000000000000000E+020
  9
$PLIMMIN
 10
0.0
 20
0.0
  9
$PLIMMAX
 10
12.0
 20
9.0
  9
$UNITMODE
 70
     0
  9
$VISRETAIN
 70
     1
  9
$PLINEGEN
 70
     0
  9
$PSLTSCALE
 70
     1
  0
ENDSEC
  0
SECTION
  2
TABLES
  0
TABLE
  2
VPORT
 70
     1
  0
VPORT
  2
*ACTIVE
 70
     0
 10
0.0
 20
0.0
 11
1.0
 21
1.0
 12
165.72805692007461
 22
127.4298
 13
0.0
 23
0.0
 14
1.0
 24
1.0
 15
0.0
 25
0.0
 16
0.0
 26
0.0
 36
1.0
 17
0.0
 27
0.0
 37
0.0
 40
283.5288175207607
 41
2.1001926782273599
 42
50.0
 43
0.0
 44
0.0
 50
0.0
 51
0.0
 71
     0
 72
   100
 73
     1
 74
     1
 75
     0
 76
     0
 77
     0
 78
     0
  0
ENDTAB
  0
TABLE
  2
LTYPE
 70
     3
  0
LTYPE
  2
CONTINUOUS
 70
     0
  3
Solid line
 72
    65
 73
     0
 40
0.0
  0
LTYPE
  2
AIGENLINE001
 70
     0
  3
generate AI->DXF Converter
 72
    65
 73
     2
 40
1.5522299999999991
 49
0.776115
 49
-0.776115
  0
LTYPE
  2
AIGENLINE002
 70
     0
  3
generate AI->DXF Converter
 72
    65
 73
     4
 40
5.8561449999999988
 49
3.5278
 49
-0.776115
 49
0.776115
 49
-0.776115
  0
ENDTAB
  0
TABLE
  2
LAYER
 70
     2
  0
LAYER
  2
0
 70
     0
 62
     7
  6
CONTINUOUS
  0
LAYER
  2
_________2
 70
     0
 62
     7
  6
CONTINUOUS
  0
ENDTAB
  0
TABLE
  2
STYLE
 70
     1
  0
STYLE
  2
STANDARD
 70
     0
 40
0.0
 41
0.0
 50
0.0
 71
     0
 42
0.0
  3
TXT
  4
EXTFONT.SHX
  0
ENDTAB
  0
TABLE
  2
VIEW
 70
     0
  0
ENDTAB
  0
TABLE
  2
UCS
 70
     0
  0
ENDTAB
  0
TABLE
  2
APPID
 70
     3
  0
APPID
  2
ACAD
 70
     0
  0
APPID
  2
ACAD_NAV_VCDISPLAY
 70
     0
  0
APPID
  2
ACAD_MLEADERVER
 70
     0
  0
ENDTAB
  0
TABLE
  2
DIMSTYLE
 70
     1
  0
DIMSTYLE
  2
STANDARD
 70
     0
  3

  4

  5

  6

  7

 40
1.0
 41
0.18
 42
0.0625
 43
0.38
 44
0.18
 45
0.0
 46
0.0
 47
0.0
 48
0.0
140
0.18
141
0.09
142
0.0
143
25.399999999999999
144
1.0
145
0.0
146
1.0
147
0.09
 71
     0
 72
     0
 73
     1
 74
     1
 75
     0
 76
     0
 77
     0
 78
     0
170
     0
171
     2
172
     0
173
     0
174
     0
175
     0
176
     0
177
     0
178
     0
  0
ENDTAB
  0
ENDSEC
  0
SECTION
  2
BLOCKS
  0
BLOCK
  8
0
  2
$MODEL_SPACE
 70
     0
 10
0.0
 20
0.0
 30
0.0
  3
$MODEL_SPACE
  1

  0
ENDBLK
  5
1A
  8
0
  0
BLOCK
 67
     1
  8
0
  2
$PAPER_SPACE
 70
     0
 10
0.0
 20
0.0
 30
0.0
  3
$PAPER_SPACE
  1

  0
ENDBLK
  5
17
 67
     1
  8
0
  0
ENDSEC
  0
SECTION
  2
ENTITIES
  0
TEXT
  5
23
  8
0
 62
     7
 10
53.2164
 20
201.55328750000001
 30
0.0
 40
3.0923400000000001
  1
205
 50
90.0
 41
0.5
 72
     1
 11
53.2164
 21
203.48599999999999
 31
0.0
  0
TEXT
  5
24
  8
0
 62
     7
 10
112.93300000000001
 20
115.99028749999999
 30
0.0
 40
3.0923400000000001
  1
730
 50
90.0
 41
0.5
 72
     1
 11
112.93300000000001
 21
117.923
 31
0.0
  0
TEXT
  5
25
  8
0
 62
     7
 10
90.363999999999976
 20
115.99028749999999
 30
0.0
 40
3.0923400000000001
  1
730
 50
90.0
 41
0.5
 72
     1
 11
90.363999999999976
 21
117.923
 31
0.0
  0
TEXT
  5
26
  8
0
 62
     7
 10
53.2164
 20
137.24798250000001
 30
0.0
 40
3.0923400000000001
  1
310
 50
90.0
 41
0.5
 72
     1
 11
53.2164
 21
138.923
 31
0.0
  0
TEXT
  5
27
  8
0
 62
     7
 10
69.270934999999994
 20
185.173
 30
0.0
 40
3.0923400000000001
  1
155
 41
0.5
 72
     1
 11
71.074799999999996
 21
185.173
 31
0.0
  0
TEXT
  5
28
  8
0
 62
     7
 10
130.25828749999999
 20
72.646199999999993
 30
0.0
 40
3.0923400000000001
  1
205
 41
0.5
 72
     1
 11
132.191
 21
72.646199999999993
 31
0.0
  0
TEXT
  5
29
  8
0
 62
     7
 10
69.270934999999994
 20
72.646199999999993
 30
0.0
 40
3.0923400000000001
  1
155
 41
0.5
 72
     1
 11
71.074799999999996
 21
72.646199999999993
 31
0.0
  0
TEXT
  5
2A
  8
0
 62
     7
 10
69.270934999999994
 20
163.88999999999999
 30
0.0
 40
3.0923400000000001
  1
175
 41
0.5
 72
     1
 11
71.074799999999996
 21
163.88999999999999
 31
0.0
  0
TEXT
  5
2B
  8
0
 62
     7
 10
69.270934999999994
 20
222.52500000000001
 30
0.0
 40
3.0923400000000001
  1
175
 41
0.5
 72
     1
 11
71.074799999999996
 21
222.52500000000001
 31
0.0
  0
ARC
  5
2C
  8
0
 62
     7
 10
76.524839
 20
213.03554399999999
 30
0.0
 40
0.30007
 50
270.00002000000001
 51
359.99999000000003
  0
ARC
  5
2D
  8
0
 62
     7
 10
65.625176999999994
 20
213.03554399999999
 30
0.0
 40
0.30007
 50
179.99996999999999
 51
270.00002000000001
  0
ARC
  5
2E
  8
0
 62
     7
 10
74.760908999999984
 20
204.23469700000001
 30
0.0
 40
1.0960939999999999
 50
357.5114319999999
 51
0.033411
  0
ARC
  5
2F
  8
0
 62
     7
 10
74.856886000000003
 20
204.23533599999999
 30
0.0
 40
1.0001180000000001
 50
0.00001
 51
89.999980000000008
  0
ARC
  5
30
  8
0
 62
     7
 10
74.858578000000009
 20
206.23475999999999
 30
0.0
 40
1.0960939999999999
 50
357.5114319999999
 51
0.033411
  0
ARC
  5
31
  8
0
 62
     7
 10
74.954554999999999
 20
206.235399
 30
0.0
 40
1.0001180000000001
 50
0.00001
 51
89.999980000000008
  0
ARC
  5
32
  8
0
 62
     7
 10
76.019593999999998
 20
208.73523399999999
 30
0.0
 40
0.557611
 50
357.53306300000003
 51
0.01178
  0
ARC
  5
33
  8
0
 62
     7
 10
76.077145999999999
 20
208.73534900000001
 30
0.0
 40
0.5000590000000001
 50
0.00001
 51
89.999980000000008
  0
ARC
  5
34
  8
0
 62
     7
 10
74.90684499999999
 20
195.772975
 30
0.0
 40
1.038162
 50
271.96803699999998
 51
355.22872899999999
  0
ARC
  5
35
  8
0
 62
     7
 10
74.406785999999997
 20
195.772975
 30
0.0
 40
1.038162
 50
271.96803699999998
 51
355.22872899999999
  0
LINE
  5
36
  8
0
 62
     7
 10
75.441400000000002
 20
195.68700000000001
 30
0.0
 11
75.953599999999994
 21
206.18700000000001
 31
0.0
  0
LINE
  5
37
  8
0
 62
     7
 10
75.941400000000002
 20
195.68700000000001
 30
0.0
 11
76.576700000000002
 21
208.71100000000001
 31
0.0
  0
LINE
  5
38
  8
0
 62
     7
 10
74.824799999999996
 20
209.23500000000001
 30
0.0
 11
76.077100000000002
 21
209.23500000000001
 31
0.0
  0
LINE
  5
39
  8
0
 62
     7
 10
74.824799999999996
 20
209.23500000000001
 30
0.0
 11
74.824799999999996
 21
212.73500000000001
 31
0.0
  0
ARC
  5
3A
  8
0
 62
     7
 10
67.389090999999993
 20
204.23469700000001
 30
0.0
 40
1.0960769999999991
 50
179.96655000000001
 51
182.488608
  0
ARC
  5
3B
  8
0
 62
     7
 10
67.293131000000002
 20
204.23533599999999
 30
0.0
 40
1.0001180000000001
 50
90.0
 51
179.99996999999999
  0
ARC
  5
3C
  8
0
 62
     7
 10
67.291421
 20
206.23475999999999
 30
0.0
 40
1.0960769999999991
 50
179.96655000000001
 51
182.488608
  0
ARC
  5
3D
  8
0
 62
     7
 10
67.195462000000006
 20
206.235399
 30
0.0
 40
1.0001180000000001
 50
90.0
 51
179.99996999999999
  0
ARC
  5
3E
  8
0
 62
     7
 10
66.130414000000002
 20
208.73523399999999
 30
0.0
 40
0.5576020000000002
 50
179.988181
 51
182.46697700000001
  0
ARC
  5
3F
  8
0
 62
     7
 10
66.072870999999992
 20
208.73534900000001
 30
0.0
 40
0.5000590000000001
 50
90.0
 51
179.99996999999999
  0
ARC
  5
40
  8
0
 62
     7
 10
67.243172000000001
 20
195.772975
 30
0.0
 40
1.038162
 50
184.77129099999999
 51
268.03198300000003
  0
ARC
  5
41
  8
0
 62
     7
 10
67.743231000000009
 20
195.772975
 30
0.0
 40
1.038162
 50
184.77129099999999
 51
268.03198300000003
  0
ARC
  5
42
  8
0
 62
     7
 10
66.284848999999994
 20
196.3430909999999
 30
0.0
 40
3.1093570000000001
 50
184.68076199999999
 51
268.11231400000008
  0
LINE
  5
43
  8
0
 62
     7
 10
66.708699999999993
 20
195.68700000000001
 30
0.0
 11
66.196399999999997
 21
206.18700000000001
 31
0.0
  0
LINE
  5
44
  8
0
 62
     7
 10
66.208600000000004
 20
195.68700000000001
 30
0.0
 11
65.573300000000003
 21
208.71100000000001
 31
0.0
  0
LINE
  5
45
  8
0
 62
     7
 10
63.185899999999997
 20
196.089
 30
0.0
 11
62.325099999999999
 21
213.73599999999999
 31
0.0
  0
ARC
  5
46
  8
0
 62
     7
 10
75.865168000000011
 20
196.3430909999999
 30
0.0
 40
3.1093570000000001
 50
271.88770599999998
 51
355.31925799999999
  0
ARC
  5
47
  8
0
  6
AIGENLINE001
 62
     7
 10
140.92404999999999
 20
115.87529600000001
 30
0.0
 40
0.5175130000000001
 50
279.29259100000002
 51
358.380653
  0
ARC
  5
48
  8
0
  6
AIGENLINE001
 62
     7
 10
140.930204
 20
121.076425
 30
0.0
 40
0.5112
 50
0.789607
 51
67.254925
  0
LINE
  5
49
  8
0
 62
     7
 10
76.8249
 20
213.036
 30
0.0
 11
76.8249
 21
213.73599999999999
 31
0.0
  0
LINE
  5
4A
  8
0
 62
     7
 10
67.325199999999995
 20
209.23500000000001
 30
0.0
 11
66.072900000000004
 21
209.23500000000001
 31
0.0
  0
LINE
  5
4B
  8
0
 62
     7
 10
74.856899999999996
 20
205.23500000000001
 30
0.0
 11
67.293099999999995
 21
205.23500000000001
 31
0.0
  0
LINE
  5
4C
  8
0
 62
     7
 10
74.954599999999999
 20
207.23599999999999
 30
0.0
 11
67.195499999999996
 21
207.23599999999999
 31
0.0
  0
LINE
  5
4D
  8
0
 62
     7
 10
76.524799999999999
 20
212.73500000000001
 30
0.0
 11
65.625200000000007
 21
212.73500000000001
 31
0.0
  0
LINE
  5
4E
  8
0
 62
     7
 10
67.325199999999995
 20
209.23500000000001
 30
0.0
 11
67.325199999999995
 21
212.73500000000001
 31
0.0
  0
LINE
  5
4F
  8
0
 62
     7
 10
65.325100000000006
 20
213.036
 30
0.0
 11
65.325100000000006
 21
213.73599999999999
 31
0.0
  0
ARC
  5
50
  8
0
 62
     7
 10
71.074837000000002
 20
200.23538199999999
 30
0.0
 40
3.7999649999999998
 50
90.0
 51
179.99996999999999
  0
ARC
  5
51
  8
0
 62
     7
 10
71.075007999999997
 20
200.23521
 30
0.0
 40
3.8001369999999999
 50
0.002607
 51
90.002576999999974
  0
ARC
  5
52
  8
0
 62
     7
 10
71.075007999999997
 20
200.235556
 30
0.0
 40
3.8001369999999999
 50
269.99742300000003
 51
359.99739299999999
  0
ARC
  5
53
  8
0
 62
     7
 10
71.074836000000005
 20
200.23538199999999
 30
0.0
 40
3.7999640000000001
 50
179.99996999999999
 51
270.00002000000001
  0
LINE
  5
54
  8
0
 62
     7
 10
142.441
 20
71.246099999999998
 30
0.0
 11
142.441
 21
80.722199999999987
 31
0.0
  0
LINE
  5
55
  8
0
 62
     7
 10
121.941
 20
71.246099999999998
 30
0.0
 11
121.941
 21
80.722199999999987
 31
0.0
  0
LINE
  5
56
  8
0
 62
     7
 10
124.152
 20
72.537999999999997
 30
0.0
 11
121.941
 21
71.946100000000001
 31
0.0
  0
LINE
  5
57
  8
0
 62
     7
 10
121.941
 20
71.946100000000001
 30
0.0
 11
124.152
 21
71.353499999999997
 31
0.0
  0
LINE
  5
58
  8
0
 62
     7
 10
124.152
 20
71.353499999999997
 30
0.0
 11
124.152
 21
72.537999999999997
 31
0.0
  0
LINE
  5
59
  8
0
 62
     7
 10
140.23099999999999
 20
71.353899999999996
 30
0.0
 11
142.441
 21
71.946100000000001
 31
0.0
  0
LINE
  5
5A
  8
0
 62
     7
 10
142.441
 20
71.946100000000001
 30
0.0
 11
140.23099999999999
 21
72.538300000000007
 31
0.0
  0
LINE
  5
5B
  8
0
 62
     7
 10
140.23099999999999
 20
72.538300000000007
 30
0.0
 11
140.23099999999999
 21
71.353899999999996
 31
0.0
  0
LINE
  5
5C
  8
0
 62
     7
 10
121.941
 20
71.946100000000001
 30
0.0
 11
142.441
 21
71.946100000000001
 31
0.0
  0
LINE
  5
5D
  8
0
 62
     7
 10
114.22499999999999
 20
152.21199999999999
 30
0.0
 11
113.633
 21
154.423
 31
0.0
  0
LINE
  5
5E
  8
0
 62
     7
 10
113.633
 20
154.423
 30
0.0
 11
113.041
 21
152.21199999999999
 31
0.0
  0
LINE
  5
5F
  8
0
 62
     7
 10
113.041
 20
152.21199999999999
 30
0.0
 11
114.22499999999999
 21
152.21199999999999
 31
0.0
  0
LINE
  5
60
  8
0
 62
     7
 10
113.041
 20
83.632999999999996
 30
0.0
 11
113.633
 21
81.422200000000004
 31
0.0
  0
LINE
  5
61
  8
0
 62
     7
 10
113.633
 20
81.422200000000004
 30
0.0
 11
114.22499999999999
 21
83.632999999999996
 31
0.0
  0
LINE
  5
62
  8
0
 62
     7
 10
114.22499999999999
 20
83.632999999999996
 30
0.0
 11
113.041
 21
83.632999999999996
 31
0.0
  0
LINE
  5
63
  8
0
 62
     7
 10
113.633
 20
154.423
 30
0.0
 11
113.633
 21
81.422200000000004
 31
0.0
  0
LINE
  5
64
  8
0
 62
     7
 10
112.93300000000001
 20
154.423
 30
0.0
 11
121.241
 21
154.423
 31
0.0
  0
LINE
  5
65
  8
0
 62
     7
 10
112.93300000000001
 20
81.422200000000004
 30
0.0
 11
121.241
 21
81.422200000000004
 31
0.0
  0
LINE
  5
66
  8
0
  6
AIGENLINE001
 62
     7
 10
142.441
 20
82.922200000000004
 30
0.0
 11
123.441
 21
82.922200000000004
 31
0.0
  0
LINE
  5
67
  8
0
  6
AIGENLINE001
 62
     7
 10
141.0079999999999
 20
115.36499999999999
 30
0.0
 11
133.941
 21
114.422
 31
0.0
  0
LINE
  5
68
  8
0
  6
AIGENLINE001
 62
     7
 10
141.12799999999999
 20
121.548
 30
0.0
 11
136.441
 21
123.422
 31
0.0
  0
LINE
  5
69
  8
0
  6
AIGENLINE001
 62
     7
 10
137.941
 20
148.423
 30
0.0
 11
141.441
 21
148.423
 31
0.0
  0
LINE
  5
6A
  8
0
  6
AIGENLINE001
 62
     7
 10
137.941
 20
154.423
 30
0.0
 11
137.941
 21
148.423
 31
0.0
  0
LINE
  5
6B
  8
0
  6
AIGENLINE001
 62
     7
 10
136.441
 20
123.422
 30
0.0
 11
133.941
 21
114.422
 31
0.0
  0
LINE
  5
6C
  8
0
  6
AIGENLINE001
 62
     7
 10
141.441
 20
121.083
 30
0.0
 11
141.441
 21
115.861
 31
0.0
  0
LINE
  5
6D
  8
0
  6
AIGENLINE001
 62
     7
 10
141.441
 20
154.423
 30
0.0
 11
141.441
 21
148.423
 31
0.0
  0
LINE
  5
6E
  8
0
  6
AIGENLINE001
 62
     7
 10
123.441
 20
154.423
 30
0.0
 11
123.441
 21
82.922200000000004
 31
0.0
  0
LINE
  5
6F
  8
0
 62
     7
 10
142.441
 20
81.422200000000004
 30
0.0
 11
121.941
 21
81.422200000000004
 31
0.0
  0
LINE
  5
70
  8
0
 62
     7
 10
121.941
 20
81.422200000000004
 30
0.0
 11
121.941
 21
154.423
 31
0.0
  0
LINE
  5
71
  8
0
 62
     7
 10
121.941
 20
154.423
 30
0.0
 11
142.441
 21
154.423
 31
0.0
  0
LINE
  5
72
  8
0
 62
     7
 10
142.441
 20
154.423
 30
0.0
 11
142.441
 21
81.422200000000004
 31
0.0
  0
LINE
  5
73
  8
0
 62
     7
 10
78.824600000000004
 20
71.246099999999998
 30
0.0
 11
78.824600000000004
 21
80.722199999999987
 31
0.0
  0
LINE
  5
74
  8
0
 62
     7
 10
63.3247
 20
71.246099999999998
 30
0.0
 11
63.3247
 21
80.722199999999987
 31
0.0
  0
LINE
  5
75
  8
0
 62
     7
 10
65.535399999999996
 20
72.537999999999997
 30
0.0
 11
63.3247
 21
71.946100000000001
 31
0.0
  0
LINE
  5
76
  8
0
 62
     7
 10
63.3247
 20
71.946100000000001
 30
0.0
 11
65.535399999999996
 21
71.353499999999997
 31
0.0
  0
LINE
  5
77
  8
0
 62
     7
 10
65.535399999999996
 20
71.353499999999997
 30
0.0
 11
65.535399999999996
 21
72.537999999999997
 31
0.0
  0
LINE
  5
78
  8
0
 62
     7
 10
76.613900000000001
 20
71.353899999999996
 30
0.0
 11
78.824600000000004
 21
71.946100000000001
 31
0.0
  0
LINE
  5
79
  8
0
 62
     7
 10
78.824600000000004
 20
71.946100000000001
 30
0.0
 11
76.613900000000001
 21
72.538300000000007
 31
0.0
  0
LINE
  5
7A
  8
0
 62
     7
 10
76.613900000000001
 20
72.538300000000007
 30
0.0
 11
76.613900000000001
 21
71.353899999999996
 31
0.0
  0
LINE
  5
7B
  8
0
 62
     7
 10
63.3247
 20
71.946100000000001
 30
0.0
 11
78.824600000000004
 21
71.946100000000001
 31
0.0
  0
LINE
  5
7C
  8
0
 62
     7
 10
53.2164
 20
193.23500000000001
 30
0.0
 11
63.863900000000001
 21
193.23500000000001
 31
0.0
  0
LINE
  5
7D
  8
0
 62
     7
 10
53.2164
 20
213.73599999999999
 30
0.0
 11
61.62510000000001
 21
213.73599999999999
 31
0.0
  0
LINE
  5
7E
  8
0
 62
     7
 10
54.508600000000001
 20
211.52500000000001
 30
0.0
 11
53.916400000000003
 21
213.73500000000001
 31
0.0
  0
LINE
  5
7F
  8
0
 62
     7
 10
53.916400000000003
 20
213.73500000000001
 30
0.0
 11
53.32419999999999
 21
211.52500000000001
 31
0.0
  0
LINE
  5
80
  8
0
 62
     7
 10
53.32419999999999
 20
211.52500000000001
 30
0.0
 11
54.508600000000001
 21
211.52500000000001
 31
0.0
  0
LINE
  5
81
  8
0
 62
     7
 10
53.32419999999999
 20
195.446
 30
0.0
 11
53.916400000000003
 21
193.23500000000001
 31
0.0
  0
LINE
  5
82
  8
0
 62
     7
 10
53.916400000000003
 20
193.23500000000001
 30
0.0
 11
54.508600000000001
 21
195.446
 31
0.0
  0
LINE
  5
83
  8
0
 62
     7
 10
54.508600000000001
 20
195.446
 30
0.0
 11
53.32419999999999
 21
195.446
 31
0.0
  0
LINE
  5
84
  8
0
 62
     7
 10
53.916400000000003
 20
213.73599999999999
 30
0.0
 11
53.916400000000003
 21
193.23500000000001
 31
0.0
  0
LINE
  5
85
  8
0
 62
     7
 10
63.325000000000003
 20
183.773
 30
0.0
 11
63.325000000000003
 21
193.96100000000001
 31
0.0
  0
LINE
  5
86
  8
0
 62
     7
 10
78.825000000000003
 20
183.773
 30
0.0
 11
78.825000000000003
 21
193.96100000000001
 31
0.0
  0
LINE
  5
87
  8
0
 62
     7
 10
76.614199999999997
 20
183.881
 30
0.0
 11
78.825000000000003
 21
184.47300000000001
 31
0.0
  0
LINE
  5
88
  8
0
 62
     7
 10
78.825000000000003
 20
184.47300000000001
 30
0.0
 11
76.614199999999997
 21
185.065
 31
0.0
  0
LINE
  5
89
  8
0
 62
     7
 10
76.614199999999997
 20
185.065
 30
0.0
 11
76.614199999999997
 21
183.881
 31
0.0
  0
LINE
  5
8A
  8
0
 62
     7
 10
65.535799999999995
 20
185.065
 30
0.0
 11
63.325000000000003
 21
184.47300000000001
 31
0.0
  0
LINE
  5
8B
  8
0
 62
     7
 10
63.325000000000003
 20
184.47300000000001
 30
0.0
 11
65.535799999999995
 21
183.881
 31
0.0
  0
LINE
  5
8C
  8
0
 62
     7
 10
65.535799999999995
 20
183.881
 30
0.0
 11
65.535799999999995
 21
185.065
 31
0.0
  0
LINE
  5
8D
  8
0
 62
     7
 10
78.825000000000003
 20
184.47300000000001
 30
0.0
 11
63.325000000000003
 21
184.47300000000001
 31
0.0
  0
LINE
  5
8E
  8
0
 62
     7
 10
62.325099999999999
 20
222.52500000000001
 30
0.0
 11
62.325099999999999
 21
214.43600000000001
 31
0.0
  0
LINE
  5
8F
  8
0
 62
     7
 10
79.8249
 20
222.52500000000001
 30
0.0
 11
79.8249
 21
214.43600000000001
 31
0.0
  0
LINE
  5
90
  8
0
 62
     7
 10
78.964200000000005
 20
196.089
 30
0.0
 11
79.8249
 21
213.73599999999999
 31
0.0
  0
LINE
  5
91
  8
0
  6
AIGENLINE002
 62
     7
 10
77.023899999999998
 20
200.23500000000001
 30
0.0
 11
64.911500000000004
 21
200.23500000000001
 31
0.0
  0
LINE
  5
92
  8
0
 62
     7
 10
74.942499999999995
 20
194.73500000000001
 30
0.0
 11
67.207499999999996
 21
194.73500000000001
 31
0.0
  0
LINE
  5
93
  8
0
 62
     7
 10
75.967600000000004
 20
193.23500000000001
 30
0.0
 11
66.182400000000001
 21
193.23500000000001
 31
0.0
  0
LINE
  5
94
  8
0
 62
     7
 10
79.8249
 20
213.73599999999999
 30
0.0
 11
62.325099999999999
 21
213.73599999999999
 31
0.0
  0
LINE
  5
95
  8
0
 62
     7
 10
77.614199999999997
 20
221.233
 30
0.0
 11
79.8249
 21
221.82499999999999
 31
0.0
  0
LINE
  5
96
  8
0
 62
     7
 10
79.8249
 20
221.82499999999999
 30
0.0
 11
77.614199999999997
 21
222.417
 31
0.0
  0
LINE
  5
97
  8
0
 62
     7
 10
77.614199999999997
 20
222.417
 30
0.0
 11
77.614199999999997
 21
221.233
 31
0.0
  0
LINE
  5
98
  8
0
 62
     7
 10
64.535799999999995
 20
222.417
 30
0.0
 11
62.325099999999999
 21
221.82499999999999
 31
0.0
  0
LINE
  5
99
  8
0
 62
     7
 10
62.325099999999999
 20
221.82499999999999
 30
0.0
 11
64.535799999999995
 21
221.232
 31
0.0
  0
LINE
  5
9A
  8
0
 62
     7
 10
64.535799999999995
 20
221.232
 30
0.0
 11
64.535799999999995
 21
222.417
 31
0.0
  0
LINE
  5
9B
  8
0
 62
     7
 10
79.8249
 20
221.82499999999999
 30
0.0
 11
62.325099999999999
 21
221.82499999999999
 31
0.0
  0
LINE
  5
9C
  8
0
 62
     7
 10
79.824700000000007
 20
163.88999999999999
 30
0.0
 11
79.824700000000007
 21
155.12299999999999
 31
0.0
  0
LINE
  5
9D
  8
0
 62
     7
 10
91.656300000000002
 20
152.21199999999999
 30
0.0
 11
91.064099999999996
 21
154.423
 31
0.0
  0
LINE
  5
9E
  8
0
 62
     7
 10
91.064099999999996
 20
154.423
 30
0.0
 11
90.471900000000005
 21
152.21199999999999
 31
0.0
  0
LINE
  5
9F
  8
0
 62
     7
 10
90.471900000000005
 20
152.21199999999999
 30
0.0
 11
91.656300000000002
 21
152.21199999999999
 31
0.0
  0
LINE
  5
A0
  8
0
 62
     7
 10
90.471900000000005
 20
83.632999999999996
 30
0.0
 11
91.064099999999996
 21
81.422200000000004
 31
0.0
  0
LINE
  5
A1
  8
0
 62
     7
 10
91.064099999999996
 20
81.422200000000004
 30
0.0
 11
91.656300000000002
 21
83.632999999999996
 31
0.0
  0
LINE
  5
A2
  8
0
 62
     7
 10
91.656300000000002
 20
83.632999999999996
 30
0.0
 11
90.471900000000005
 21
83.632999999999996
 31
0.0
  0
LINE
  5
A3
  8
0
 62
     7
 10
91.064099999999996
 20
154.423
 30
0.0
 11
91.064099999999996
 21
81.422200000000004
 31
0.0
  0
LINE
  5
A4
  8
0
 62
     7
 10
54.508600000000001
 20
152.21199999999999
 30
0.0
 11
53.916400000000003
 21
154.423
 31
0.0
  0
LINE
  5
A5
  8
0
 62
     7
 10
53.916400000000003
 20
154.423
 30
0.0
 11
53.32419999999999
 21
152.21199999999999
 31
0.0
  0
LINE
  5
A6
  8
0
 62
     7
 10
53.32419999999999
 20
152.21199999999999
 30
0.0
 11
54.508600000000001
 21
152.21199999999999
 31
0.0
  0
LINE
  5
A7
  8
0
 62
     7
 10
53.32419999999999
 20
125.633
 30
0.0
 11
53.916400000000003
 21
123.422
 31
0.0
  0
LINE
  5
A8
  8
0
 62
     7
 10
53.916400000000003
 20
123.422
 30
0.0
 11
54.508600000000001
 21
125.633
 31
0.0
  0
LINE
  5
A9
  8
0
 62
     7
 10
54.508600000000001
 20
125.633
 30
0.0
 11
53.32419999999999
 21
125.633
 31
0.0
  0
LINE
  5
AA
  8
0
 62
     7
 10
53.916400000000003
 20
154.423
 30
0.0
 11
53.916400000000003
 21
123.422
 31
0.0
  0
LINE
  5
AB
  8
0
  6
AIGENLINE002
 62
     7
 10
71.074799999999996
 20
191.4959999999999
 30
0.0
 11
71.074799999999996
 21
215.40000000000001
 31
0.0
  0
LINE
  5
AC
  8
0
  6
AIGENLINE002
 62
     7
 10
71.074799999999996
 20
157.0
 30
0.0
 11
71.074799999999996
 21
78.985200000000006
 31
0.0
  0
LINE
  5
AD
  8
0
 62
     7
 10
62.32459999999999
 20
163.88999999999999
 30
0.0
 11
62.32459999999999
 21
155.12299999999999
 31
0.0
  0
LINE
  5
AE
  8
0
 62
     7
 10
80.622299999999996
 20
81.422200000000004
 30
0.0
 11
91.764099999999999
 21
81.422200000000004
 31
0.0
  0
LINE
  5
AF
  8
0
 62
     7
 10
80.622299999999996
 20
154.423
 30
0.0
 11
91.764099999999999
 21
154.423
 31
0.0
  0
LINE
  5
B0
  8
0
 62
     7
 10
53.2164
 20
154.423
 30
0.0
 11
61.624499999999991
 21
154.423
 31
0.0
  0
LINE
  5
B1
  8
0
 62
     7
 10
53.2164
 20
123.422
 30
0.0
 11
64.374600000000001
 21
123.422
 31
0.0
  0
LINE
  5
B2
  8
0
 62
     7
 10
64.535300000000007
 20
163.78200000000001
 30
0.0
 11
62.32459999999999
 21
163.19
 31
0.0
  0
LINE
  5
B3
  8
0
 62
     7
 10
62.32459999999999
 20
163.19
 30
0.0
 11
64.535300000000007
 21
162.59800000000001
 31
0.0
  0
LINE
  5
B4
  8
0
 62
     7
 10
64.535300000000007
 20
162.59800000000001
 30
0.0
 11
64.535300000000007
 21
163.78200000000001
 31
0.0
  0
LINE
  5
B5
  8
0
 62
     7
 10
77.61399999999999
 20
162.59800000000001
 30
0.0
 11
79.824700000000007
 21
163.19
 31
0.0
  0
LINE
  5
B6
  8
0
 62
     7
 10
79.824700000000007
 20
163.19
 30
0.0
 11
77.61399999999999
 21
163.78299999999999
 31
0.0
  0
LINE
  5
B7
  8
0
 62
     7
 10
77.61399999999999
 20
163.78299999999999
 30
0.0
 11
77.61399999999999
 21
162.59800000000001
 31
0.0
  0
LINE
  5
B8
  8
0
 62
     7
 10
62.32459999999999
 20
163.19
 30
0.0
 11
79.824700000000007
 21
163.19
 31
0.0
  0
LINE
  5
B9
  8
0
  6
AIGENLINE001
 62
     7
 10
76.824700000000007
 20
82.922200000000004
 30
0.0
 11
65.324600000000004
 21
82.922200000000004
 31
0.0
  0
LINE
  5
BA
  8
0
  6
AIGENLINE001
 62
     7
 10
76.824700000000007
 20
114.422
 30
0.0
 11
65.324600000000004
 21
114.422
 31
0.0
  0
LINE
  5
BB
  8
0
  6
AIGENLINE001
 62
     7
 10
76.824700000000007
 20
123.422
 30
0.0
 11
65.324600000000004
 21
123.422
 31
0.0
  0
LINE
  5
BC
  8
0
  6
AIGENLINE001
 62
     7
 10
74.824700000000007
 20
148.423
 30
0.0
 11
76.824700000000007
 21
148.423
 31
0.0
  0
LINE
  5
BD
  8
0
  6
AIGENLINE001
 62
     7
 10
74.824700000000007
 20
154.423
 30
0.0
 11
74.824700000000007
 21
148.423
 31
0.0
  0
LINE
  5
BE
  8
0
  6
AIGENLINE001
 62
     7
 10
132.74100000000001
 20
82.922200000000004
 30
0.0
 11
132.74100000000001
 21
81.422200000000004
 31
0.0
  0
LINE
  5
BF
  8
0
  6
AIGENLINE001
 62
     7
 10
125.14100000000001
 20
82.922200000000004
 30
0.0
 11
125.14100000000001
 21
81.422200000000004
 31
0.0
  0
LINE
  5
C0
  8
0
  6
AIGENLINE001
 62
     7
 10
74.874600000000001
 20
82.922200000000004
 30
0.0
 11
74.874600000000001
 21
81.422200000000004
 31
0.0
  0
LINE
  5
C1
  8
0
  6
AIGENLINE001
 62
     7
 10
67.274699999999996
 20
82.922200000000004
 30
0.0
 11
67.274699999999996
 21
81.422200000000004
 31
0.0
  0
LINE
  5
C2
  8
0
  6
AIGENLINE001
 62
     7
 10
76.824700000000007
 20
154.423
 30
0.0
 11
76.824700000000007
 21
82.922200000000004
 31
0.0
  0
LINE
  5
C3
  8
0
 62
     7
 10
78.824600000000004
 20
154.423
 30
0.0
 11
78.824600000000004
 21
81.422200000000004
 31
0.0
  0
LINE
  5
C4
  8
0
  6
AIGENLINE001
 62
     7
 10
67.324700000000007
 20
148.423
 30
0.0
 11
65.324600000000004
 21
148.423
 31
0.0
  0
LINE
  5
C5
  8
0
  6
AIGENLINE001
 62
     7
 10
67.324700000000007
 20
154.423
 30
0.0
 11
67.324700000000007
 21
148.423
 31
0.0
  0
LINE
  5
C6
  8
0
  6
AIGENLINE001
 62
     7
 10
65.324600000000004
 20
154.423
 30
0.0
 11
65.324600000000004
 21
82.922200000000004
 31
0.0
  0
LINE
  5
C7
  8
0
 62
     7
 10
63.3247
 20
154.423
 30
0.0
 11
63.3247
 21
81.422200000000004
 31
0.0
  0
LINE
  5
C8
  8
0
 62
     7
 10
79.824700000000007
 20
81.422200000000004
 30
0.0
 11
62.32459999999999
 21
81.422200000000004
 31
0.0
  0
LINE
  5
C9
  8
0
 62
     7
 10
62.32459999999999
 20
81.422200000000004
 30
0.0
 11
62.32459999999999
 21
154.423
 31
0.0
  0
LINE
  5
CA
  8
0
 62
     7
 10
62.32459999999999
 20
154.423
 30
0.0
 11
79.824700000000007
 21
154.423
 31
0.0
  0
LINE
  5
CB
  8
0
 62
     7
 10
79.824700000000007
 20
154.423
 30
0.0
 11
79.824700000000007
 21
81.422200000000004
 31
0.0
  0
LINE
  5
CC
  8
_________2
 62
     7
 10
205.30099999999999
 20
127.411
 30
0.0
 11
183.55000000000001
 21
127.411
 31
0.0
  0
LINE
  5
CD
  8
_________2
 62
     7
 10
100.3
 20
-4.0910799999999998
 30
0.0
 11
100.3
 21
-21.071400000000001
 31
0.0
  0
LINE
  5
CE
  8
_________2
 62
     7
 10
100.3
 20
275.93099999999998
 30
0.0
 11
100.3
 21
258.911
 31
0.0
  0
LINE
  5
CF
  8
_________2
 62
     7
 10
17.049499999999998
 20
127.411
 30
0.0
 11
-4.70052
 21
127.411
 31
0.0
  0
LINE
  5
D0
  8
_________2
 62
     7
 10
76.741
 20
29.8047
 30
0.0
 11
74.554699999999997
 21
29.8047
 31
0.0
  0
LINE
  5
D1
  8
_________2
 62
     7
 10
77.233699999999999
 20
29.8047
 30
0.0
 11
76.981499999999997
 21
29.8047
 31
0.0
  0
LINE
  5
D2
  8
_________2
 62
     7
 10
77.726299999999995
 20
29.8047
 30
0.0
 11
80.651200000000003
 21
29.8047
 31
0.0
  0
LINE
  5
D3
  8
_________2
 62
     7
 10
77.233699999999999
 20
29.8047
 30
0.0
 11
77.485500000000002
 21
29.8047
 31
0.0
  0
LINE
  5
D4
  8
_________2
 62
     7
 10
70.837100000000007
 20
29.8047
 30
0.0
 11
68.650499999999994
 21
29.8047
 31
0.0
  0
LINE
  5
D5
  8
_________2
 62
     7
 10
71.329400000000007
 20
29.8047
 30
0.0
 11
71.077600000000004
 21
29.8047
 31
0.0
  0
LINE
  5
D6
  8
_________2
 62
     7
 10
71.329400000000007
 20
30.2974
 30
0.0
 11
71.329400000000007
 21
32.484400000000001
 31
0.0
  0
LINE
  5
D7
  8
_________2
 62
     7
 10
71.329400000000007
 20
29.8047
 30
0.0
 11
71.329400000000007
 21
30.056899999999999
 31
0.0
  0
LINE
  5
D8
  8
_________2
 62
     7
 10
71.822100000000006
 20
29.8047
 30
0.0
 11
74.009
 21
29.8047
 31
0.0
  0
LINE
  5
D9
  8
_________2
 62
     7
 10
71.329400000000007
 20
29.8047
 30
0.0
 11
71.581599999999995
 21
29.8047
 31
0.0
  0
LINE
  5
DA
  8
_________2
 62
     7
 10
71.329400000000007
 20
29.312799999999999
 30
0.0
 11
71.329400000000007
 21
27.125800000000002
 31
0.0
  0
LINE
  5
DB
  8
_________2
 62
     7
 10
71.329400000000007
 20
29.8047
 30
0.0
 11
71.329400000000007
 21
29.5532
 31
0.0
  0
LINE
  5
DC
  8
_________2
 62
     7
 10
75.040499999999994
 20
28.5852
 30
0.0
 11
80.218500000000006
 21
27.720400000000001
 31
0.0
  0
LINE
  5
DD
  8
_________2
 62
     7
 10
75.040499999999994
 20
31.0243
 30
0.0
 11
80.218500000000006
 21
31.889700000000001
 31
0.0
  0
LINE
  5
DE
  8
_________2
 62
     7
 10
80.218500000000006
 20
27.720400000000001
 30
0.0
 11
80.218500000000006
 21
31.889700000000001
 31
0.0
  0
LINE
  5
DF
  8
_________2
 62
     7
 10
75.040499999999994
 20
28.5852
 30
0.0
 11
75.040499999999994
 21
31.0243
 31
0.0
  0
ARC
  5
E0
  8
_________2
 62
     7
 10
71.28285600000001
 20
29.757811
 30
0.0
 40
1.2673589999999999
 50
2.122214
 51
87.893958999999995
  0
ARC
  5
E1
  8
_________2
 62
     7
 10
71.375959999999992
 20
29.758213000000001
 30
0.0
 40
1.2669559999999991
 50
92.104701000000006
 51
177.89526900000001
  0
ARC
  5
E2
  8
_________2
 62
     7
 10
71.376357999999996
 20
29.851671
 30
0.0
 40
1.2673680000000001
 50
182.12203600000001
 51
267.877993
  0
ARC
  5
E3
  8
_________2
 62
     7
 10
71.282531999999989
 20
29.851998999999999
 30
0.0
 40
1.267695999999999
 50
272.12015300000002
 51
357.863674
  0
ARC
  5
E4
  8
_________2
 62
     7
 10
71.329430000000002
 20
29.804742999999998
 30
0.0
 40
2.0849849999999992
 50
0.00001
 51
89.999980000000008
  0
ARC
  5
E5
  8
_________2
 62
     7
 10
71.329603000000006
 20
29.804915000000001
 30
0.0
 40
2.084813
 50
90.004733999999999
 51
180.00474399999999
  0
ARC
  5
E6
  8
_________2
 62
     7
 10
71.409106000000008
 20
29.884775999999999
 30
0.0
 40
2.1657950000000001
 50
182.11776599999999
 51
267.89173399999999
  0
ARC
  5
E7
  8
_________2
 62
     7
 10
71.249459000000002
 20
29.885429999999999
 30
0.0
 40
2.1664590000000001
 50
272.11546800000002
 51
357.86560400000002
  0
TEXT
  5
E8
  8
_________2
 62
     7
 10
104.605
 20
1.6794899999999999
 30
0.0
 40
3.0923400000000001
  1
図番
 41
0.5
  0
LINE
  5
E9
  8
_________2
 62
     7
 10
103.55
 20
5.9087199999999989
 30
0.0
 11
183.55099999999999
 21
5.9087199999999989
 31
0.0
  0
TEXT
  5
EA
  8
_________2
 62
     7
 10
104.605
 20
11.6793
 30
0.0
 40
3.0923400000000001
  1
品番
 41
0.5
  0
TEXT
  5
EB
  8
_________2
 62
     7
 10
104.605
 20
31.818100000000001
 30
0.0
 40
3.0923400000000001
  1
名称
 41
0.5
  0
TEXT
  5
EC
  8
_________2
 62
     7
 10
91.845058333333341
 20
26.821999999999999
 30
0.0
 40
3.6545800000000002
  1
mm
 41
0.5
 72
     1
 11
93.367800000000003
 21
26.821999999999999
 31
0.0
  0
TEXT
  5
ED
  8
_________2
 62
     7
 10
85.643199999999993
 20
31.818100000000001
 30
0.0
 40
3.0923400000000001
  1
単位
 41
0.5
  0
TEXT
  5
EE
  8
_________2
 62
     7
 10
85.643199999999993
 20
19.410799999999998
 30
0.0
 40
3.0923400000000001
  1
尺度
 41
0.5
  0
TEXT
  5
EF
  8
_________2
 62
     7
 10
90.09193616666667
 20
13.2179
 30
0.0
 40
3.6545800000000002
  1
1 ： 10
 41
0.5
 72
     1
 11
93.959699999999998
 21
13.2179
 31
0.0
  0
TEXT
  5
F0
  8
_________2
 62
     7
 10
135.84258750000001
 20
9.1078600000000005
 30
0.0
 40
3.9357000000000002
  1
DV085839
 41
0.5
 72
     1
 11
143.55000000000001
 21
9.1078600000000005
 31
0.0
  0
TEXT
  5
F1
  8
_________2
 62
     7
 10
135.84258750000001
 20
-0.8926299999999999
 30
0.0
 40
3.9357000000000002
  1
DV085839
 41
0.5
 72
     1
 11
143.55000000000001
 21
-0.8926299999999999
 31
0.0
  0
TEXT
  5
F2
  8
_________2
 62
     7
 10
24.5868
 20
0.707283
 30
0.0
 40
3.9357000000000002
  1
重量：15.2kg
 41
0.5
  0
TEXT
  5
F3
  8
_________2
 62
     7
 10
109.179
 20
24.2257
 30
0.0
 40
3.9357000000000002
  1
ミーバイスタルク　ペデスタル
 41
0.5
  0
TEXT
  5
F4
  8
_________2
 62
     7
 10
39.425300333333333
 20
13.603
 30
0.0
 40
3.6545800000000002
  1
早川
 41
0.5
 72
     1
 11
41.313499999999998
 21
13.603
 31
0.0
  0
TEXT
  5
F5
  8
_________2
 62
     7
 10
20.790090666666661
 20
13.603
 30
0.0
 40
3.6545800000000002
  1
近藤
 41
0.5
 72
     1
 11
22.7392
 21
13.603
 31
0.0
  0
TEXT
  5
F6
  8
_________2
 62
     7
 10
67.785399999999996
 20
13.2179
 30
0.0
 40
3.6545800000000002
  1
15.12.18
 41
0.5
  0
TEXT
  5
F7
  8
_________2
 62
     7
 10
66.593100000000007
 20
19.410799999999998
 30
0.0
 40
3.0923400000000001
  1
日付
 41
0.5
  0
TEXT
  5
F8
  8
_________2
 62
     7
 10
29.639399999999998
 20
19.410799999999998
 30
0.0
 40
3.0923400000000001
  1
検図
 41
0.5
  0
TEXT
  5
F9
  8
_________2
 62
     7
 10
18.021100000000001
 20
5.21143
 30
0.0
 40
3.0923400000000001
  1
備考
 41
0.5
  0
TEXT
  5
FA
  8
_________2
 62
     7
 10
18.021100000000001
 20
19.410799999999998
 30
0.0
 40
3.0923400000000001
  1
製図
 41
0.5
  0
TEXT
  5
FB
  8
_________2
 62
     7
 10
23.788465333333338
 20
27.936800000000002
 30
0.0
 40
4.4979399999999989
  1
セラトレーディング株式会社
 41
0.5
 72
     1
 11
41.180500000000002
 21
27.936800000000002
 31
0.0
  0
LINE
  5
FC
  8
_________2
 62
     7
 10
183.55099999999999
 20
-4.0910799999999998
 30
0.0
 11
17.049499999999998
 21
-4.0910799999999998
 31
0.0
  0
LINE
  5
FD
  8
_________2
 62
     7
 10
17.049499999999998
 20
-4.0910799999999998
 30
0.0
 11
17.049499999999998
 21
258.911
 31
0.0
  0
LINE
  5
FE
  8
_________2
 62
     7
 10
17.049499999999998
 20
258.911
 30
0.0
 11
183.55099999999999
 21
258.911
 31
0.0
  0
LINE
  5
FF
  8
_________2
 62
     7
 10
183.55099999999999
 20
258.911
 30
0.0
 11
183.55099999999999
 21
-4.0910799999999998
 31
0.0
  0
LINE
  5
100
  8
_________2
 62
     7
 10
65.549599999999998
 20
9.4089600000000004
 30
0.0
 11
65.549599999999998
 21
35.908799999999999
 31
0.0
  0
LINE
  5
101
  8
_________2
 62
     7
 10
84.549700000000016
 20
9.4089600000000004
 30
0.0
 11
84.549700000000016
 21
35.908799999999999
 31
0.0
  0
LINE
  5
102
  8
_________2
 62
     7
 10
103.55
 20
-4.0910799999999998
 30
0.0
 11
103.55
 21
35.908799999999999
 31
0.0
  0
LINE
  5
103
  8
_________2
 62
     7
 10
28.549299999999999
 20
9.4089600000000004
 30
0.0
 11
28.549299999999999
 21
23.409199999999998
 31
0.0
  0
LINE
  5
104
  8
_________2
 62
     7
 10
17.049499999999998
 20
9.4089600000000004
 30
0.0
 11
103.55
 21
9.4089600000000004
 31
0.0
  0
LINE
  5
105
  8
_________2
 62
     7
 10
17.049499999999998
 20
23.409199999999998
 30
0.0
 11
103.55
 21
23.409199999999998
 31
0.0
  0
LINE
  5
106
  8
_________2
 62
     7
 10
103.55
 20
15.9085
 30
0.0
 11
183.55099999999999
 21
15.9085
 31
0.0
  0
LINE
  5
107
  8
_________2
 62
     7
 10
17.049499999999998
 20
35.908799999999999
 30
0.0
 11
183.55099999999999
 21
35.908799999999999
 31
0.0
  0
ENDSEC
  0
EOF
