  0
SECTION
  2
HEADER
  9
$ACADVER
  1
AC1009
  9
$INSBASE
 10
0.0
 20
0.0
 30
0.0
  9
$EXTMIN
 10
-4.70052
 20
-21.070699999999992
 30
0.0
  9
$EXTMAX
 10
205.30099999999999
 20
275.93099999999993
 30
0.0
  9
$LIMMIN
 10
0.0
 20
0.0
  9
$LIMMAX
 10
12.0
 20
9.0
  9
$ORTHOMODE
 70
     0
  9
$REGENMODE
 70
     1
  9
$FILLMODE
 70
     1
  9
$QTEXTMODE
 70
     0
  9
$MIRRTEXT
 70
     1
  9
$DRAGMODE
 70
     2
  9
$LTSCALE
 40
1.0
  9
$OSMODE
 70
    37
  9
$ATTMODE
 70
     1
  9
$TEXTSIZE
 40
0.0
  9
$TRACEWID
 40
0.05
  9
$TEXTSTYLE
  7
STANDARD
  9
$CLAYER
  8
0
  9
$CELTYPE
  6
CONTINUOUS
  9
$CECOLOR
 62
   256
  9
$DIMSCALE
 40
1.0
  9
$DIMASZ
 40
0.18
  9
$DIMEXO
 40
0.0625
  9
$DIMDLI
 40
0.38
  9
$DIMRND
 40
0.0
  9
$DIMDLE
 40
0.0
  9
$DIMEXE
 40
0.18
  9
$DIMTP
 40
0.0
  9
$DIMTM
 40
0.0
  9
$DIMTXT
 40
0.18
  9
$DIMCEN
 40
0.09
  9
$DIMTSZ
 40
0.0
  9
$DIMTOL
 70
     0
  9
$DIMLIM
 70
     0
  9
$DIMTIH
 70
     1
  9
$DIMTOH
 70
     1
  9
$DIMSE1
 70
     0
  9
$DIMSE2
 70
     0
  9
$DIMTAD
 70
     0
  9
$DIMZIN
 70
     0
  9
$DIMBLK
  1

  9
$DIMASO
 70
     1
  9
$DIMSHO
 70
     1
  9
$DIMPOST
  1

  9
$DIMAPOST
  1

  9
$DIMALT
 70
     0
  9
$DIMALTD
 70
     2
  9
$DIMALTF
 40
25.399999999999999
  9
$DIMLFAC
 40
1.0
  9
$DIMTOFL
 70
     0
  9
$DIMTVP
 40
0.0
  9
$DIMTIX
 70
     0
  9
$DIMSOXD
 70
     0
  9
$DIMSAH
 70
     0
  9
$DIMBLK1
  1

  9
$DIMBLK2
  1

  9
$DIMSTYLE
  2
STANDARD
  9
$DIMCLRD
 70
     0
  9
$DIMCLRE
 70
     0
  9
$DIMCLRT
 70
     0
  9
$DIMTFAC
 40
1.0
  9
$DIMGAP
 40
0.09
  9
$LUNITS
 70
     2
  9
$LUPREC
 70
     4
  9
$SKETCHINC
 40
0.1
  9
$FILLETRAD
 40
0.0
  9
$AUNITS
 70
     0
  9
$AUPREC
 70
     0
  9
$MENU
  1
.
  9
$ELEVATION
 40
0.0
  9
$PELEVATION
 40
0.0
  9
$THICKNESS
 40
0.0
  9
$LIMCHECK
 70
     0
  9
$BLIPMODE
 70
     0
  9
$CHAMFERA
 40
0.0
  9
$CHAMFERB
 40
0.0
  9
$SKPOLY
 70
     0
  9
$TDCREATE
 40
2444972.375
  9
$TDUPDATE
 40
2453620.256232453
  9
$TDINDWG
 40
0.0000101968
  9
$TDUSRTIMER
 40
0.0000101968
  9
$USRTIMER
 70
     1
  9
$ANGBASE
 50
0.0
  9
$ANGDIR
 70
     0
  9
$PDMODE
 70
     0
  9
$PDSIZE
 40
0.0
  9
$PLINEWID
 40
0.0
  9
$COORDS
 70
     1
  9
$SPLFRAME
 70
     0
  9
$SPLINETYPE
 70
     6
  9
$SPLINESEGS
 70
     8
  9
$ATTDIA
 70
     0
  9
$ATTREQ
 70
     1
  9
$HANDLING
 70
 22529
  9
$HANDSEED
  5
DE
  9
$SURFTAB1
 70
     6
  9
$SURFTAB2
 70
     6
  9
$SURFTYPE
 70
     6
  9
$SURFU
 70
     6
  9
$SURFV
 70
     6
  9
$UCSNAME
  2

  9
$UCSORG
 10
0.0
 20
0.0
 30
0.0
  9
$UCSXDIR
 10
1.0
 20
0.0
 30
0.0
  9
$UCSYDIR
 10
0.0
 20
1.0
 30
0.0
  9
$PUCSNAME
  2

  9
$PUCSORG
 10
0.0
 20
0.0
 30
0.0
  9
$PUCSXDIR
 10
1.0
 20
0.0
 30
0.0
  9
$PUCSYDIR
 10
0.0
 20
1.0
 30
0.0
  9
$USERI1
 70
     0
  9
$USERI2
 70
     0
  9
$USERI3
 70
     0
  9
$USERI4
 70
     0
  9
$USERI5
 70
     0
  9
$USERR1
 40
0.0
  9
$USERR2
 40
0.0
  9
$USERR3
 40
0.0
  9
$USERR4
 40
0.0
  9
$USERR5
 40
0.0
  9
$WORLDVIEW
 70
     1
  9
$SHADEDGE
 70
     3
  9
$SHADEDIF
 70
    70
  9
$TILEMODE
 70
     1
  9
$MAXACTVP
 70
    48
  9
$PLIMCHECK
 70
     0
  9
$PEXTMIN
 10
1.0000000000000000E+020
 20
1.0000000000000000E+020
 30
1.0000000000000000E+020
  9
$PEXTMAX
 10
-1.0000000000000000E+020
 20
-1.0000000000000000E+020
 30
-1.0000000000000000E+020
  9
$PLIMMIN
 10
0.0
 20
0.0
  9
$PLIMMAX
 10
12.0
 20
9.0
  9
$UNITMODE
 70
     0
  9
$VISRETAIN
 70
     1
  9
$PLINEGEN
 70
     0
  9
$PSLTSCALE
 70
     1
  0
ENDSEC
  0
SECTION
  2
TABLES
  0
TABLE
  2
VPORT
 70
     2
  0
VPORT
  2
*ACTIVE
 70
     0
 10
0.0
 20
0.0
 11
1.0
 21
1.0
 12
189.5606461372218
 22
127.4301499999999
 13
0.0
 23
0.0
 14
1.0
 24
1.0
 15
0.0
 25
0.0
 16
0.0
 26
0.0
 36
1.0
 17
0.0
 27
0.0
 37
0.0
 40
299.24604534005027
 41
2.1842105263157889
 42
50.0
 43
0.0
 44
0.0
 50
0.0
 51
0.0
 71
     0
 72
   100
 73
     1
 74
     1
 75
     0
 76
     0
 77
     0
 78
     0
  0
ENDTAB
  0
TABLE
  2
LTYPE
 70
     2
  0
LTYPE
  2
CONTINUOUS
 70
     0
  3
Solid line
 72
    65
 73
     0
 40
0.0
  0
LTYPE
  2
AIGENLINE001
 70
     0
  3
generate AI->DXF Converter
 72
    65
 73
     4
 40
5.8561449999999988
 49
3.5278
 49
-0.776115
 49
0.776115
 49
-0.776115
  0
ENDTAB
  0
TABLE
  2
LAYER
 70
     2
  0
LAYER
  2
0
 70
     0
 62
     7
  6
CONTINUOUS
  0
LAYER
  2
_________2
 70
     0
 62
     7
  6
CONTINUOUS
  0
ENDTAB
  0
TABLE
  2
STYLE
 70
     1
  0
STYLE
  2
STANDARD
 70
     0
 40
0.0
 41
0.0
 50
0.0
 71
     0
 42
0.0
  3
TXT
  4
EXTFONT.SHX
  0
ENDTAB
  0
TABLE
  2
VIEW
 70
     0
  0
ENDTAB
  0
TABLE
  2
UCS
 70
     0
  0
ENDTAB
  0
TABLE
  2
APPID
 70
     1
  0
APPID
  2
ACAD
 70
     0
  0
ENDTAB
  0
TABLE
  2
DIMSTYLE
 70
     1
  0
DIMSTYLE
  2
STANDARD
 70
     0
  3

  4

  5

  6

  7

 40
1.0
 41
0.18
 42
0.0625
 43
0.38
 44
0.18
 45
0.0
 46
0.0
 47
0.0
 48
0.0
140
0.18
141
0.09
142
0.0
143
25.399999999999999
144
1.0
145
0.0
146
1.0
147
0.09
 71
     0
 72
     0
 73
     1
 74
     1
 75
     0
 76
     0
 77
     0
 78
     0
170
     0
171
     2
172
     0
173
     0
174
     0
175
     0
176
     0
177
     0
178
     0
  0
ENDTAB
  0
ENDSEC
  0
SECTION
  2
BLOCKS
  0
BLOCK
  8
0
  2
$MODEL_SPACE
 70
     0
 10
0.0
 20
0.0
 30
0.0
  3
$MODEL_SPACE
  1

  0
ENDBLK
  5
1A
  8
0
  0
BLOCK
 67
     1
  8
0
  2
$PAPER_SPACE
 70
     0
 10
0.0
 20
0.0
 30
0.0
  3
$PAPER_SPACE
  1

  0
ENDBLK
  5
17
 67
     1
  8
0
  0
ENDSEC
  0
SECTION
  2
ENTITIES
  0
TEXT
  5
22
  8
0
 62
     7
 10
133.03999999999999
 20
128.8416583333333
 30
0.0
 40
2.8112200000000001
  1
25
 50
90.0
 41
0.5
 72
     1
 11
133.03999999999999
 21
130.01300000000001
 31
0.0
  0
TEXT
  5
23
  8
0
 62
     7
 10
82.300799999999995
 20
193.92385333333331
 30
0.0
 40
2.8112200000000001
  1
285
 50
90.0
 41
0.5
 72
     1
 11
82.300799999999995
 21
195.798
 31
0.0
  0
TEXT
  5
24
  8
0
 62
     7
 10
131.43312166666661
 20
120.93000000000001
 30
0.0
 40
2.8112200000000001
  1
%%c18
 41
0.5
 72
     1
 11
133.07299999999989
 21
120.93000000000001
 31
0.0
  0
TEXT
  5
25
  8
0
 62
     7
 10
98.586900000000014
 20
64.282463333333325
 30
0.0
 40
2.8112200000000001
  1
5
 50
90.0
 41
0.5
 72
     1
 11
98.586900000000014
 21
64.751000000000005
 31
0.0
  0
TEXT
  5
26
  8
0
 62
     7
 10
98.586900000000014
 20
98.977121666666676
 30
0.0
 40
2.8112200000000001
  1
315
 50
90.0
 41
0.5
 72
     1
 11
98.586900000000014
 21
100.617
 31
0.0
  0
TEXT
  5
27
  8
0
 62
     7
 10
102.93946333333329
 20
59.812100000000001
 30
0.0
 40
2.8112200000000001
  1
5
 41
0.5
 72
     1
 11
103.4079999999999
 21
59.812100000000001
 31
0.0
  0
TEXT
  5
28
  8
0
 62
     7
 10
133.16598749999989
 20
59.812100000000001
 30
0.0
 40
2.8112200000000001
  1
280
 41
0.5
 72
     1
 11
134.923
 21
59.812100000000001
 31
0.0
  0
TEXT
  5
29
  8
0
 62
     7
 10
152.5673899999999
 20
118.37299999999991
 30
0.0
 40
2.8112200000000001
  1
100
 41
0.5
 72
     1
 11
153.9729999999999
 21
118.37299999999991
 31
0.0
  0
TEXT
  5
2A
  8
0
 62
     7
 10
55.527855833333327
 20
231.96700000000001
 30
0.0
 40
2.8112200000000001
  1
170
 41
0.5
 72
     1
 11
57.050600000000003
 21
231.96700000000001
 31
0.0
  0
ARC
  5
2B
  8
0
 62
     7
 10
57.195545999999993
 20
176.5353199999999
 30
0.0
 40
7.2818849999999999
 50
270.08632899999998
 51
280.22438399999999
  0
ARC
  5
2C
  8
0
 62
     7
 10
56.360778000000003
 20
181.74558400000001
 30
0.0
 40
12.558009999999999
 50
279.752949
 51
324.971383
  0
ARC
  5
2D
  8
0
 62
     7
 10
56.667188000000003
 20
181.1802889999999
 30
0.0
 40
11.986068
 50
326.34355099999988
 51
347.89441799999997
  0
ARC
  5
2E
  8
0
 62
     7
 10
53.806775000000002
 20
181.95309499999991
 30
0.0
 40
14.94575199999999
 50
347.29731700000002
 51
354.22563600000001
  0
LINE
  5
2F
  8
0
 62
     7
 10
68.676699999999997
 20
180.44900000000001
 30
0.0
 11
70.702200000000005
 21
223.29300000000001
 31
0.0
  0
ARC
  5
30
  8
0
 62
     7
 10
57.217486999999998
 20
176.5353199999999
 30
0.0
 40
7.2818849999999999
 50
259.77563599999991
 51
269.91368999999992
  0
ARC
  5
31
  8
0
 62
     7
 10
58.052255000000002
 20
181.74558400000001
 30
0.0
 40
12.558009999999999
 50
215.02863699999989
 51
260.24707099999989
  0
ARC
  5
32
  8
0
 62
     7
 10
57.745845999999993
 20
181.1802889999999
 30
0.0
 40
11.986068
 50
192.105602
 51
213.65646899999999
  0
ARC
  5
33
  8
0
 62
     7
 10
60.606257999999997
 20
181.95309499999991
 30
0.0
 40
14.94575199999999
 50
185.77438399999991
 51
192.7027029999999
  0
LINE
  5
34
  8
0
 62
     7
 10
133.643
 20
129.309
 30
0.0
 11
134.16499999999999
 21
127.3589999999999
 31
0.0
  0
LINE
  5
35
  8
0
 62
     7
 10
134.16499999999999
 20
127.3589999999999
 30
0.0
 11
134.6879999999999
 21
129.309
 31
0.0
  0
LINE
  5
36
  8
0
 62
     7
 10
134.6879999999999
 20
129.309
 30
0.0
 11
133.643
 21
129.309
 31
0.0
  0
LINE
  5
37
  8
0
 62
     7
 10
134.67500000000001
 20
130.4079999999999
 30
0.0
 11
134.15299999999991
 21
132.35799999999989
 31
0.0
  0
LINE
  5
38
  8
0
 62
     7
 10
134.15299999999991
 20
132.35799999999989
 30
0.0
 11
133.63
 21
130.4079999999999
 31
0.0
  0
LINE
  5
39
  8
0
 62
     7
 10
133.63
 20
130.4079999999999
 30
0.0
 11
134.67500000000001
 21
130.4079999999999
 31
0.0
  0
LINE
  5
3A
  8
0
 62
     7
 10
134.15899999999991
 20
127.3589999999999
 30
0.0
 11
134.15899999999991
 21
132.35799999999989
 31
0.0
  0
LINE
  5
3B
  8
0
 62
     7
 10
133.6109999999999
 20
127.3589999999999
 30
0.0
 11
140.70099999999991
 21
127.3589999999999
 31
0.0
  0
LINE
  5
3C
  8
0
 62
     7
 10
146.352
 20
118.0949999999999
 30
0.0
 11
144.40199999999999
 21
117.57299999999989
 31
0.0
  0
LINE
  5
3D
  8
0
 62
     7
 10
144.40199999999999
 20
117.57299999999989
 30
0.0
 11
146.352
 21
117.05
 31
0.0
  0
LINE
  5
3E
  8
0
 62
     7
 10
146.352
 20
117.05
 30
0.0
 11
146.352
 21
118.0949999999999
 31
0.0
  0
LINE
  5
3F
  8
0
 62
     7
 10
162.45099999999991
 20
117.0629999999999
 30
0.0
 11
164.40199999999999
 21
117.58499999999999
 31
0.0
  0
LINE
  5
40
  8
0
 62
     7
 10
164.40199999999999
 20
117.58499999999999
 30
0.0
 11
162.45099999999991
 21
118.1079999999999
 31
0.0
  0
LINE
  5
41
  8
0
 62
     7
 10
162.45099999999991
 20
118.1079999999999
 30
0.0
 11
162.45099999999991
 21
117.0629999999999
 31
0.0
  0
LINE
  5
42
  8
0
 62
     7
 10
144.40199999999999
 20
117.57899999999989
 30
0.0
 11
164.40199999999999
 21
117.57899999999989
 31
0.0
  0
LINE
  5
43
  8
0
 62
     7
 10
144.40199999999999
 20
116.999
 30
0.0
 11
144.40199999999999
 21
123.41200000000001
 31
0.0
  0
LINE
  5
44
  8
0
 62
     7
 10
129.67500000000001
 20
119.73099999999999
 30
0.0
 11
136.77399999999989
 21
119.73099999999999
 31
0.0
  0
LINE
  5
45
  8
0
 62
     7
 10
142.11500000000001
 20
124.342
 30
0.0
 11
143.125
 21
126.09
 31
0.0
  0
LINE
  5
46
  8
0
 62
     7
 10
143.125
 20
126.09
 30
0.0
 11
141.376
 21
125.0799999999999
 31
0.0
  0
LINE
  5
47
  8
0
 62
     7
 10
141.376
 20
125.0799999999999
 30
0.0
 11
142.11500000000001
 21
124.342
 31
0.0
  0
LINE
  5
48
  8
0
 62
     7
 10
146.68399999999991
 20
130.38
 30
0.0
 11
145.67500000000001
 21
128.631
 31
0.0
  0
LINE
  5
49
  8
0
 62
     7
 10
145.67500000000001
 20
128.631
 30
0.0
 11
147.42399999999989
 21
129.64099999999991
 31
0.0
  0
LINE
  5
4A
  8
0
 62
     7
 10
147.42399999999989
 20
129.64099999999991
 30
0.0
 11
146.68399999999991
 21
130.38
 31
0.0
  0
LINE
  5
4B
  8
0
 62
     7
 10
148.50700000000001
 20
131.46299999999991
 30
0.0
 11
136.77399999999989
 21
119.73099999999999
 31
0.0
  0
LINE
  5
4C
  8
0
  6
AIGENLINE001
 62
     7
 10
144.40199999999999
 20
124.15300000000001
 30
0.0
 11
144.40199999999999
 21
130.56700000000001
 31
0.0
  0
LINE
  5
4D
  8
0
  6
AIGENLINE001
 62
     7
 10
147.5979999999999
 20
127.3589999999999
 30
0.0
 11
141.4739999999999
 21
127.3589999999999
 31
0.0
  0
ARC
  5
4E
  8
0
 62
     7
 10
144.40183099999999
 20
127.35866399999991
 30
0.0
 40
1.7999879999999999
 50
0.002751
 51
90.002722000000006
  0
ARC
  5
4F
  8
0
 62
     7
 10
144.40165999999999
 20
127.35866399999991
 30
0.0
 40
1.7999879999999999
 50
89.997258000000016
 51
179.997229
  0
ARC
  5
50
  8
0
 62
     7
 10
144.40191799999991
 20
127.35857799999999
 30
0.0
 40
1.8002459999999989
 50
179.9944879999999
 51
269.99453799999992
  0
ARC
  5
51
  8
0
 62
     7
 10
144.4015729999999
 20
127.35857900000001
 30
0.0
 40
1.8002459999999989
 50
270.00550199999992
 51
0.005472
  0
LINE
  5
52
  8
0
 62
     7
 10
105.45099999999999
 20
58.384399999999999
 30
0.0
 11
107.4019999999999
 21
58.906700000000001
 31
0.0
  0
LINE
  5
53
  8
0
 62
     7
 10
107.4019999999999
 20
58.906700000000001
 30
0.0
 11
105.45099999999999
 21
59.42969999999999
 31
0.0
  0
LINE
  5
54
  8
0
 62
     7
 10
105.45099999999999
 20
59.42969999999999
 30
0.0
 11
105.45099999999999
 21
58.384399999999999
 31
0.0
  0
LINE
  5
55
  8
0
 62
     7
 10
162.45099999999991
 20
58.384399999999999
 30
0.0
 11
164.40199999999999
 21
58.906700000000001
 31
0.0
  0
LINE
  5
56
  8
0
 62
     7
 10
164.40199999999999
 20
58.906700000000001
 30
0.0
 11
162.45099999999991
 21
59.42969999999999
 31
0.0
  0
LINE
  5
57
  8
0
 62
     7
 10
162.45099999999991
 20
59.42969999999999
 30
0.0
 11
162.45099999999991
 21
58.384399999999999
 31
0.0
  0
LINE
  5
58
  8
0
 62
     7
 10
110.352
 20
59.416600000000003
 30
0.0
 11
108.4019999999999
 21
58.894300000000001
 31
0.0
  0
LINE
  5
59
  8
0
 62
     7
 10
108.4019999999999
 20
58.894300000000001
 30
0.0
 11
110.352
 21
58.371299999999998
 31
0.0
  0
LINE
  5
5A
  8
0
 62
     7
 10
110.352
 20
58.371299999999998
 30
0.0
 11
110.352
 21
59.416600000000003
 31
0.0
  0
LINE
  5
5B
  8
0
 62
     7
 10
164.40199999999999
 20
58.900500000000001
 30
0.0
 11
101.84399999999999
 21
58.900500000000001
 31
0.0
  0
LINE
  5
5C
  8
0
 62
     7
 10
164.40199999999999
 20
67.171499999999995
 30
0.0
 11
164.40199999999999
 21
58.116399999999999
 31
0.0
  0
LINE
  5
5D
  8
0
 62
     7
 10
108.4019999999999
 20
57.763599999999997
 30
0.0
 11
108.4019999999999
 21
68.638400000000004
 31
0.0
  0
LINE
  5
5E
  8
0
 62
     7
 10
107.4019999999999
 20
57.763599999999997
 30
0.0
 11
107.4019999999999
 21
70.634600000000006
 31
0.0
  0
LINE
  5
5F
  8
0
 62
     7
 10
99.903599999999997
 20
66.408100000000005
 30
0.0
 11
99.38130000000001
 21
68.358699999999985
 31
0.0
  0
LINE
  5
60
  8
0
 62
     7
 10
99.38130000000001
 20
68.358699999999985
 30
0.0
 11
98.8583
 21
66.408100000000005
 31
0.0
  0
LINE
  5
61
  8
0
 62
     7
 10
98.8583
 20
66.408100000000005
 30
0.0
 11
99.903599999999997
 21
66.408100000000005
 31
0.0
  0
LINE
  5
62
  8
0
 62
     7
 10
99.903599999999997
 20
130.4079999999999
 30
0.0
 11
99.38130000000001
 21
132.35799999999989
 31
0.0
  0
LINE
  5
63
  8
0
 62
     7
 10
99.38130000000001
 20
132.35799999999989
 30
0.0
 11
98.8583
 21
130.4079999999999
 31
0.0
  0
LINE
  5
64
  8
0
 62
     7
 10
98.8583
 20
130.4079999999999
 30
0.0
 11
99.903599999999997
 21
130.4079999999999
 31
0.0
  0
LINE
  5
65
  8
0
 62
     7
 10
98.871399999999994
 20
71.309100000000001
 30
0.0
 11
99.393699999999995
 21
69.358500000000006
 31
0.0
  0
LINE
  5
66
  8
0
 62
     7
 10
99.393699999999995
 20
69.358500000000006
 30
0.0
 11
99.916700000000006
 21
71.309100000000001
 31
0.0
  0
LINE
  5
67
  8
0
 62
     7
 10
99.916700000000006
 20
71.309100000000001
 30
0.0
 11
98.871399999999994
 21
71.309100000000001
 31
0.0
  0
LINE
  5
68
  8
0
 62
     7
 10
99.387500000000003
 20
132.35799999999989
 30
0.0
 11
99.387500000000003
 21
63.450099999999999
 31
0.0
  0
LINE
  5
69
  8
0
 62
     7
 10
106.17399999999989
 20
132.35799999999989
 30
0.0
 11
98.717100000000002
 21
132.35799999999989
 31
0.0
  0
LINE
  5
6A
  8
0
 62
     7
 10
98.246799999999993
 20
69.358500000000006
 30
0.0
 11
108.24799999999991
 21
69.358500000000006
 31
0.0
  0
LINE
  5
6B
  8
0
 62
     7
 10
98.246799999999993
 20
68.358699999999985
 30
0.0
 11
110.8129999999999
 21
68.358699999999985
 31
0.0
  0
LINE
  5
6C
  8
0
 62
     7
 10
110.33499999999999
 20
69.323999999999998
 30
0.0
 11
164.40199999999999
 21
68.358699999999985
 31
0.0
  0
LINE
  5
6D
  8
0
 62
     7
 10
108.371
 20
71.291899999999998
 30
0.0
 11
107.4019999999999
 21
132.35799999999989
 31
0.0
  0
ARC
  5
6E
  8
0
 62
     7
 10
110.443833
 20
71.397012000000004
 30
0.0
 40
2.0758549999999989
 50
182.9030459999999
 51
266.98653899999999
  0
LINE
  5
6F
  8
0
 62
     7
 10
164.40199999999999
 20
68.358699999999985
 30
0.0
 11
164.40199999999999
 21
132.35799999999989
 31
0.0
  0
LINE
  5
70
  8
0
 62
     7
 10
107.4019999999999
 20
132.35799999999989
 30
0.0
 11
164.40199999999999
 21
132.35799999999989
 31
0.0
  0
LINE
  5
71
  8
0
  6
AIGENLINE001
 62
     7
 10
57.206499999999998
 20
225.8539999999999
 30
0.0
 11
57.206499999999998
 21
163.2949999999999
 31
0.0
  0
LINE
  5
72
  8
0
 62
     7
 10
72.167799999999986
 20
180.17400000000001
 30
0.0
 11
74.206599999999995
 21
223.29300000000001
 31
0.0
  0
LINE
  5
73
  8
0
 62
     7
 10
45.7363
 20
180.44900000000001
 30
0.0
 11
43.710799999999999
 21
223.29300000000001
 31
0.0
  0
LINE
  5
74
  8
0
 62
     7
 10
42.245399999999997
 20
180.17400000000001
 30
0.0
 11
40.206800000000001
 21
223.29300000000001
 31
0.0
  0
ARC
  5
75
  8
0
 62
     7
 10
57.206654
 20
181.25428400000001
 30
0.0
 40
15.000189999999989
 50
184.12945999999999
 51
274.130447
  0
ARC
  5
76
  8
0
 62
     7
 10
56.737206000000008
 20
181.7237439999999
 30
0.0
 40
15.50832999999999
 50
275.73560999999989
 51
354.26084500000002
  0
LINE
  5
77
  8
0
 62
     7
 10
40.206800000000001
 20
223.29300000000001
 30
0.0
 11
74.206599999999995
 21
223.29300000000001
 31
0.0
  0
ARC
  5
78
  8
0
 62
     7
 10
42.206389999999999
 20
70.358854000000008
 30
0.0
 40
2.0001489999999991
 50
179.99750299999991
 51
269.99755299999993
  0
LINE
  5
79
  8
0
 62
     7
 10
40.206200000000003
 20
132.35799999999989
 30
0.0
 11
40.206200000000003
 21
70.358900000000006
 31
0.0
  0
ARC
  5
7A
  8
0
 62
     7
 10
72.206643
 20
70.358855000000005
 30
0.0
 40
2.0001489999999991
 50
270.00248699999997
 51
0.002457
  0
LINE
  5
7B
  8
0
 62
     7
 10
42.206299999999992
 20
68.358699999999985
 30
0.0
 11
72.206699999999998
 21
68.358699999999985
 31
0.0
  0
LINE
  5
7C
  8
0
 62
     7
 10
74.206800000000001
 20
132.35799999999989
 30
0.0
 11
74.206800000000001
 21
70.358900000000006
 31
0.0
  0
LINE
  5
7D
  8
0
  6
AIGENLINE001
 62
     7
 10
57.206499999999998
 20
137.346
 30
0.0
 11
57.206499999999998
 21
64.858500000000006
 31
0.0
  0
LINE
  5
7E
  8
0
 62
     7
 10
40.206200000000003
 20
132.35799999999989
 30
0.0
 11
74.206800000000001
 21
132.35799999999989
 31
0.0
  0
LINE
  5
7F
  8
0
 62
     7
 10
41.975700000000003
 20
231.65100000000001
 30
0.0
 11
40.206400000000002
 21
231.17699999999999
 31
0.0
  0
LINE
  5
80
  8
0
 62
     7
 10
40.206400000000002
 20
231.17699999999999
 30
0.0
 11
41.975700000000003
 21
230.703
 31
0.0
  0
LINE
  5
81
  8
0
 62
     7
 10
41.975700000000003
 20
230.703
 30
0.0
 11
41.975700000000003
 21
231.65100000000001
 31
0.0
  0
LINE
  5
82
  8
0
 62
     7
 10
72.437399999999997
 20
230.715
 30
0.0
 11
74.206599999999995
 21
231.18899999999999
 31
0.0
  0
LINE
  5
83
  8
0
 62
     7
 10
74.206599999999995
 20
231.18899999999999
 30
0.0
 11
72.437399999999997
 21
231.6629999999999
 31
0.0
  0
LINE
  5
84
  8
0
 62
     7
 10
72.437399999999997
 20
231.6629999999999
 30
0.0
 11
72.437399999999997
 21
230.715
 31
0.0
  0
LINE
  5
85
  8
0
 62
     7
 10
40.206400000000002
 20
231.18299999999999
 30
0.0
 11
74.206599999999995
 21
231.18299999999999
 31
0.0
  0
LINE
  5
86
  8
0
 62
     7
 10
74.206599999999995
 20
232.113
 30
0.0
 11
74.206599999999995
 21
224.25599999999989
 31
0.0
  0
LINE
  5
87
  8
0
 62
     7
 10
40.206400000000002
 20
232.113
 30
0.0
 11
40.206400000000002
 21
224.25599999999989
 31
0.0
  0
LINE
  5
88
  8
0
 62
     7
 10
83.745799999999988
 20
221.5809999999999
 30
0.0
 11
83.271899999999988
 21
223.34999999999991
 31
0.0
  0
LINE
  5
89
  8
0
 62
     7
 10
83.271899999999988
 20
223.34999999999991
 30
0.0
 11
82.797700000000006
 21
221.5809999999999
 31
0.0
  0
LINE
  5
8A
  8
0
 62
     7
 10
82.797700000000006
 20
221.5809999999999
 30
0.0
 11
83.745799999999988
 21
221.5809999999999
 31
0.0
  0
LINE
  5
8B
  8
0
 62
     7
 10
82.809399999999997
 20
167.9679999999999
 30
0.0
 11
83.283500000000004
 21
166.19799999999989
 31
0.0
  0
LINE
  5
8C
  8
0
 62
     7
 10
83.283500000000004
 20
166.19799999999989
 30
0.0
 11
83.757499999999993
 21
167.9679999999999
 31
0.0
  0
LINE
  5
8D
  8
0
 62
     7
 10
83.757499999999993
 20
167.9679999999999
 30
0.0
 11
82.809399999999997
 21
167.9679999999999
 31
0.0
  0
LINE
  5
8E
  8
0
 62
     7
 10
83.277600000000007
 20
223.29300000000001
 30
0.0
 11
83.277600000000007
 21
166.25399999999999
 31
0.0
  0
LINE
  5
8F
  8
0
 62
     7
 10
75.141800000000003
 20
223.29300000000001
 30
0.0
 11
84.362300000000005
 21
223.29300000000001
 31
0.0
  0
LINE
  5
90
  8
0
 62
     7
 10
61.853999999999999
 20
166.25399999999999
 30
0.0
 11
84.362300000000005
 21
166.25399999999999
 31
0.0
  0
LINE
  5
91
  8
_________2
 62
     7
 10
205.30099999999999
 20
127.41200000000001
 30
0.0
 11
183.55099999999999
 21
127.41200000000001
 31
0.0
  0
LINE
  5
92
  8
_________2
 62
     7
 10
100.2999999999999
 20
-4.0910799999999998
 30
0.0
 11
100.2999999999999
 21
-21.070699999999992
 31
0.0
  0
LINE
  5
93
  8
_________2
 62
     7
 10
100.2999999999999
 20
275.93099999999993
 30
0.0
 11
100.2999999999999
 21
258.911
 31
0.0
  0
LINE
  5
94
  8
_________2
 62
     7
 10
17.049499999999998
 20
127.41200000000001
 30
0.0
 11
-4.70052
 21
127.41200000000001
 31
0.0
  0
LINE
  5
95
  8
_________2
 62
     7
 10
76.741200000000006
 20
28.740500000000001
 30
0.0
 11
74.554699999999997
 21
28.740500000000001
 31
0.0
  0
LINE
  5
96
  8
_________2
 62
     7
 10
77.233800000000002
 20
28.740500000000001
 30
0.0
 11
76.981700000000004
 21
28.740500000000001
 31
0.0
  0
LINE
  5
97
  8
_________2
 62
     7
 10
77.726299999999995
 20
28.740500000000001
 30
0.0
 11
80.651399999999995
 21
28.740500000000001
 31
0.0
  0
LINE
  5
98
  8
_________2
 62
     7
 10
77.233800000000002
 20
28.740500000000001
 30
0.0
 11
77.485699999999994
 21
28.740500000000001
 31
0.0
  0
LINE
  5
99
  8
_________2
 62
     7
 10
70.837299999999999
 20
28.740500000000001
 30
0.0
 11
68.650499999999994
 21
28.740500000000001
 31
0.0
  0
LINE
  5
9A
  8
_________2
 62
     7
 10
71.329800000000006
 20
28.740500000000001
 30
0.0
 11
71.077799999999996
 21
28.740500000000001
 31
0.0
  0
LINE
  5
9B
  8
_________2
 62
     7
 10
71.329800000000006
 20
29.232900000000001
 30
0.0
 11
71.329800000000006
 21
31.419799999999999
 31
0.0
  0
LINE
  5
9C
  8
_________2
 62
     7
 10
71.329800000000006
 20
28.740500000000001
 30
0.0
 11
71.329800000000006
 21
28.992699999999989
 31
0.0
  0
LINE
  5
9D
  8
_________2
 62
     7
 10
71.822400000000002
 20
28.740500000000001
 30
0.0
 11
74.009
 21
28.740500000000001
 31
0.0
  0
LINE
  5
9E
  8
_________2
 62
     7
 10
71.329800000000006
 20
28.740500000000001
 30
0.0
 11
71.581999999999994
 21
28.740500000000001
 31
0.0
  0
LINE
  5
9F
  8
_________2
 62
     7
 10
71.329800000000006
 20
28.248200000000001
 30
0.0
 11
71.329800000000006
 21
26.061299999999999
 31
0.0
  0
LINE
  5
A0
  8
_________2
 62
     7
 10
71.329800000000006
 20
28.740500000000001
 30
0.0
 11
71.329800000000006
 21
28.488700000000001
 31
0.0
  0
LINE
  5
A1
  8
_________2
 62
     7
 10
75.040899999999993
 20
27.521000000000001
 30
0.0
 11
80.218500000000006
 21
26.655899999999988
 31
0.0
  0
LINE
  5
A2
  8
_________2
 62
     7
 10
75.040899999999993
 20
29.960100000000001
 30
0.0
 11
80.218500000000006
 21
30.825199999999999
 31
0.0
  0
LINE
  5
A3
  8
_________2
 62
     7
 10
80.218500000000006
 20
26.655899999999988
 30
0.0
 11
80.218500000000006
 21
30.825199999999999
 31
0.0
  0
LINE
  5
A4
  8
_________2
 62
     7
 10
75.040899999999993
 20
27.521000000000001
 30
0.0
 11
75.040899999999993
 21
29.960100000000001
 31
0.0
  0
ARC
  5
A5
  8
_________2
 62
     7
 10
71.329860999999994
 20
28.740459999999992
 30
0.0
 40
1.219657999999999
 50
0.004056
 51
90.004025999999996
  0
ARC
  5
A6
  8
_________2
 62
     7
 10
71.329689000000002
 20
28.740459999999992
 30
0.0
 40
1.219657999999999
 50
89.995953999999998
 51
179.99592399999989
  0
ARC
  5
A7
  8
_________2
 62
     7
 10
71.329689000000002
 20
28.740632000000002
 30
0.0
 40
1.2196569999999991
 50
180.00405599999999
 51
270.00406600000002
  0
ARC
  5
A8
  8
_________2
 62
     7
 10
71.329860999999994
 20
28.740632999999999
 30
0.0
 40
1.219657999999999
 50
269.99597399999999
 51
359.99594400000001
  0
ARC
  5
A9
  8
_________2
 62
     7
 10
71.329774999999984
 20
28.740545999999998
 30
0.0
 40
2.0846409999999991
 50
0.00001
 51
89.999980000000008
  0
ARC
  5
AA
  8
_________2
 62
     7
 10
71.329689000000002
 20
28.740459999999992
 30
0.0
 40
2.0847269999999991
 50
89.997632999999993
 51
179.997603
  0
ARC
  5
AB
  8
_________2
 62
     7
 10
71.409621999999999
 20
28.820571999999999
 30
0.0
 40
2.1661389999999989
 50
182.11724599999999
 51
267.88751799999989
  0
ARC
  5
AC
  8
_________2
 62
     7
 10
71.249769999999998
 20
28.820550999999998
 30
0.0
 40
2.1661229999999989
 50
272.11667999999992
 51
357.88332999999989
  0
TEXT
  5
AD
  8
_________2
 62
     7
 10
32.7119
 20
18.486799999999992
 30
0.0
 40
2.5300899999999991
  1
福田
 41
0.5
  0
TEXT
  5
AE
  8
_________2
 62
     7
 10
22.456299999999992
 20
18.486799999999992
 30
0.0
 40
2.5300899999999991
  1
石原
 41
0.5
  0
TEXT
  5
AF
  8
_________2
 62
     7
 10
104.605
 20
11.6669
 30
0.0
 40
2.248969999999999
  1
図番
 41
0.5
  0
TEXT
  5
B0
  8
_________2
 62
     7
 10
104.605
 20
30.805199999999989
 30
0.0
 40
2.248969999999999
  1
名称
 41
0.5
  0
TEXT
  5
B1
  8
_________2
 62
     7
 10
90.890100000000004
 20
25.319900000000001
 30
0.0
 40
3.3734599999999988
  1
m m
 41
0.5
  0
TEXT
  5
B2
  8
_________2
 62
     7
 10
85.643199999999993
 20
30.805199999999989
 30
0.0
 40
2.248969999999999
  1
単位
 41
0.5
  0
TEXT
  5
B3
  8
_________2
 62
     7
 10
85.643199999999993
 20
20.398199999999999
 30
0.0
 40
2.248969999999999
  1
尺度
 41
0.5
  0
TEXT
  5
B4
  8
_________2
 62
     7
 10
88.186599999999984
 20
14.078099999999999
 30
0.0
 40
3.6545800000000002
  1
1 ： 5
 41
0.5
  0
TEXT
  5
B5
  8
_________2
 62
     7
 10
136.17056249999999
 20
1.6460799999999991
 30
0.0
 40
3.9357000000000002
  1
DV086515
 41
0.5
 72
     1
 11
143.55000000000001
 21
1.6460799999999991
 31
0.0
  0
TEXT
  5
B6
  8
_________2
 62
     7
 10
24.587099999999989
 20
0.707627
 30
0.0
 40
3.9357000000000002
  1
重量：8.2kg
 41
0.5
  0
TEXT
  5
B7
  8
_________2
 62
     7
 10
109.179
 20
24.226099999999999
 30
0.0
 40
3.9357000000000002
  1
ハーフペデスタル 
 41
0.5
  0
TEXT
  5
B8
  8
_________2
 62
     7
 10
67.785600000000002
 20
14.078099999999999
 30
0.0
 40
3.6545800000000002
  1
05.09.01
 41
0.5
  0
TEXT
  5
B9
  8
_________2
 62
     7
 10
66.593100000000007
 20
20.398199999999999
 30
0.0
 40
2.248969999999999
  1
日付
 41
0.5
  0
TEXT
  5
BA
  8
_________2
 62
     7
 10
29.639399999999998
 20
20.398199999999999
 30
0.0
 40
2.248969999999999
  1
検図
 41
0.5
  0
TEXT
  5
BB
  8
_________2
 62
     7
 10
18.021399999999989
 20
6.1988000000000003
 30
0.0
 40
2.248969999999999
  1
備考
 41
0.5
  0
TEXT
  5
BC
  8
_________2
 62
     7
 10
18.021399999999989
 20
20.398199999999999
 30
0.0
 40
2.248969999999999
  1
製図
 41
0.5
  0
TEXT
  5
BD
  8
_________2
 62
     7
 10
23.788665333333341
 20
26.7179
 30
0.0
 40
4.4979399999999989
  1
セラトレーディング株式会社
 41
0.5
 72
     1
 11
41.180700000000002
 21
26.7179
 31
0.0
  0
LINE
  5
BE
  8
_________2
 62
     7
 10
183.55099999999999
 20
-4.0910799999999998
 30
0.0
 11
17.049499999999998
 21
-4.0910799999999998
 31
0.0
  0
LINE
  5
BF
  8
_________2
 62
     7
 10
17.049499999999998
 20
-4.0910799999999998
 30
0.0
 11
17.049499999999998
 21
258.911
 31
0.0
  0
LINE
  5
C0
  8
_________2
 62
     7
 10
17.049499999999998
 20
258.911
 30
0.0
 11
183.55099999999999
 21
258.911
 31
0.0
  0
LINE
  5
C1
  8
_________2
 62
     7
 10
183.55099999999999
 20
258.911
 30
0.0
 11
183.55099999999999
 21
-4.0910799999999998
 31
0.0
  0
LINE
  5
C2
  8
_________2
 62
     7
 10
65.549700000000001
 20
9.4092999999999982
 30
0.0
 11
65.549700000000001
 21
33.909300000000002
 31
0.0
  0
LINE
  5
C3
  8
_________2
 62
     7
 10
84.549899999999994
 20
9.4092999999999982
 30
0.0
 11
84.549899999999994
 21
33.909300000000002
 31
0.0
  0
LINE
  5
C4
  8
_________2
 62
     7
 10
103.55
 20
-4.0910799999999998
 30
0.0
 11
103.55
 21
33.909300000000002
 31
0.0
  0
LINE
  5
C5
  8
_________2
 62
     7
 10
28.549700000000001
 20
9.4092999999999982
 30
0.0
 11
28.549700000000001
 21
23.409199999999998
 31
0.0
  0
LINE
  5
C6
  8
_________2
 62
     7
 10
17.049499999999998
 20
9.4092999999999982
 30
0.0
 11
103.55
 21
9.4092999999999982
 31
0.0
  0
LINE
  5
C7
  8
_________2
 62
     7
 10
17.049499999999998
 20
23.409199999999998
 30
0.0
 11
103.55
 21
23.409199999999998
 31
0.0
  0
LINE
  5
C8
  8
_________2
 62
     7
 10
103.55
 20
14.9091
 30
0.0
 11
183.55099999999999
 21
14.9091
 31
0.0
  0
LINE
  5
C9
  8
_________2
 62
     7
 10
17.049499999999998
 20
33.909300000000002
 30
0.0
 11
183.55099999999999
 21
33.909300000000002
 31
0.0
  0
ENDSEC
  0
EOF
