  0
SECTION
  2
HEADER
  9
$ACADVER
  1
AC1009
  9
$INSBASE
 10
0.0
 20
0.0
 30
0.0
  9
$EXTMIN
 10
0.238402
 20
0.4485540000000001
 30
0.0
  9
$EXTMAX
 10
210.24000000000001
 20
297.45100000000002
 30
0.0
  9
$LIMMIN
 10
0.0
 20
0.0
  9
$LIMMAX
 10
12.0
 20
9.0
  9
$ORTHOMODE
 70
     0
  9
$REGENMODE
 70
     1
  9
$FILLMODE
 70
     1
  9
$QTEXTMODE
 70
     0
  9
$MIRRTEXT
 70
     1
  9
$DRAGMODE
 70
     2
  9
$LTSCALE
 40
1.0
  9
$OSMODE
 70
    37
  9
$ATTMODE
 70
     1
  9
$TEXTSIZE
 40
0.0
  9
$TRACEWID
 40
0.05
  9
$TEXTSTYLE
  7
STANDARD
  9
$CLAYER
  8
0
  9
$CELTYPE
  6
CONTINUOUS
  9
$CECOLOR
 62
   256
  9
$DIMSCALE
 40
1.0
  9
$DIMASZ
 40
0.18
  9
$DIMEXO
 40
0.0625
  9
$DIMDLI
 40
0.38
  9
$DIMRND
 40
0.0
  9
$DIMDLE
 40
0.0
  9
$DIMEXE
 40
0.18
  9
$DIMTP
 40
0.0
  9
$DIMTM
 40
0.0
  9
$DIMTXT
 40
0.18
  9
$DIMCEN
 40
0.09
  9
$DIMTSZ
 40
0.0
  9
$DIMTOL
 70
     0
  9
$DIMLIM
 70
     0
  9
$DIMTIH
 70
     1
  9
$DIMTOH
 70
     1
  9
$DIMSE1
 70
     0
  9
$DIMSE2
 70
     0
  9
$DIMTAD
 70
     0
  9
$DIMZIN
 70
     0
  9
$DIMBLK
  1

  9
$DIMASO
 70
     1
  9
$DIMSHO
 70
     1
  9
$DIMPOST
  1

  9
$DIMAPOST
  1

  9
$DIMALT
 70
     0
  9
$DIMALTD
 70
     2
  9
$DIMALTF
 40
25.399999999999999
  9
$DIMLFAC
 40
1.0
  9
$DIMTOFL
 70
     0
  9
$DIMTVP
 40
0.0
  9
$DIMTIX
 70
     0
  9
$DIMSOXD
 70
     0
  9
$DIMSAH
 70
     0
  9
$DIMBLK1
  1

  9
$DIMBLK2
  1

  9
$DIMSTYLE
  2
STANDARD
  9
$DIMCLRD
 70
     0
  9
$DIMCLRE
 70
     0
  9
$DIMCLRT
 70
     0
  9
$DIMTFAC
 40
1.0
  9
$DIMGAP
 40
0.09
  9
$LUNITS
 70
     2
  9
$LUPREC
 70
     4
  9
$SKETCHINC
 40
0.1
  9
$FILLETRAD
 40
0.0
  9
$AUNITS
 70
     0
  9
$AUPREC
 70
     0
  9
$MENU
  1
.
  9
$ELEVATION
 40
0.0
  9
$PELEVATION
 40
0.0
  9
$THICKNESS
 40
0.0
  9
$LIMCHECK
 70
     0
  9
$BLIPMODE
 70
     0
  9
$CHAMFERA
 40
0.0
  9
$CHAMFERB
 40
0.0
  9
$SKPOLY
 70
     0
  9
$TDCREATE
 40
2444972.375
  9
$TDUPDATE
 40
2457367.2526612962
  9
$TDINDWG
 40
0.0000321412
  9
$TDUSRTIMER
 40
0.0000321412
  9
$USRTIMER
 70
     1
  9
$ANGBASE
 50
0.0
  9
$ANGDIR
 70
     0
  9
$PDMODE
 70
     0
  9
$PDSIZE
 40
0.0
  9
$PLINEWID
 40
0.0
  9
$COORDS
 70
     1
  9
$SPLFRAME
 70
     0
  9
$SPLINETYPE
 70
     6
  9
$SPLINESEGS
 70
     8
  9
$ATTDIA
 70
     1
  9
$ATTREQ
 70
     1
  9
$HANDLING
 70
     1
  9
$HANDSEED
  5
2B9
  9
$SURFTAB1
 70
     6
  9
$SURFTAB2
 70
     6
  9
$SURFTYPE
 70
     6
  9
$SURFU
 70
     6
  9
$SURFV
 70
     6
  9
$UCSNAME
  2

  9
$UCSORG
 10
0.0
 20
0.0
 30
0.0
  9
$UCSXDIR
 10
1.0
 20
0.0
 30
0.0
  9
$UCSYDIR
 10
0.0
 20
1.0
 30
0.0
  9
$PUCSNAME
  2

  9
$PUCSORG
 10
0.0
 20
0.0
 30
0.0
  9
$PUCSXDIR
 10
1.0
 20
0.0
 30
0.0
  9
$PUCSYDIR
 10
0.0
 20
1.0
 30
0.0
  9
$USERI1
 70
     0
  9
$USERI2
 70
     0
  9
$USERI3
 70
     0
  9
$USERI4
 70
     0
  9
$USERI5
 70
     0
  9
$USERR1
 40
0.0
  9
$USERR2
 40
0.0
  9
$USERR3
 40
0.0
  9
$USERR4
 40
0.0
  9
$USERR5
 40
0.0
  9
$WORLDVIEW
 70
     1
  9
$SHADEDGE
 70
     3
  9
$SHADEDIF
 70
    70
  9
$TILEMODE
 70
     1
  9
$MAXACTVP
 70
    48
  9
$PLIMCHECK
 70
     0
  9
$PEXTMIN
 10
1.0000000000000000E+020
 20
1.0000000000000000E+020
 30
1.0000000000000000E+020
  9
$PEXTMAX
 10
-1.0000000000000000E+020
 20
-1.0000000000000000E+020
 30
-1.0000000000000000E+020
  9
$PLIMMIN
 10
0.0
 20
0.0
  9
$PLIMMAX
 10
12.0
 20
9.0
  9
$UNITMODE
 70
     0
  9
$VISRETAIN
 70
     1
  9
$PLINEGEN
 70
     0
  9
$PSLTSCALE
 70
     1
  0
ENDSEC
  0
SECTION
  2
TABLES
  0
TABLE
  2
VPORT
 70
     1
  0
VPORT
  2
*ACTIVE
 70
     0
 10
0.0
 20
0.0
 11
1.0
 21
1.0
 12
170.64664076348581
 22
148.72550000000001
 13
0.0
 23
0.0
 14
1.0
 24
1.0
 15
0.0
 25
0.0
 16
0.0
 26
0.0
 36
1.0
 17
0.0
 27
0.0
 37
0.0
 40
283.95706667814062
 41
2.1001926782273599
 42
50.0
 43
0.0
 44
0.0
 50
0.0
 51
0.0
 71
     0
 72
   100
 73
     1
 74
     1
 75
     0
 76
     0
 77
     0
 78
     0
  0
ENDTAB
  0
TABLE
  2
LTYPE
 70
     4
  0
LTYPE
  2
CONTINUOUS
 70
     0
  3
Solid line
 72
    65
 73
     0
 40
0.0
  0
LTYPE
  2
AIGENLINE001
 70
     0
  3
generate AI->DXF Converter
 72
    65
 73
     4
 40
5.8561449999999988
 49
3.5278
 49
-0.776115
 49
0.776115
 49
-0.776115
  0
LTYPE
  2
AIGENLINE002
 70
     0
  3
generate AI->DXF Converter
 72
    65
 73
     2
 40
1.5522299999999991
 49
0.776115
 49
-0.776115
  0
LTYPE
  2
AIGENLINE003
 70
     0
  3
generate AI->DXF Converter
 72
    65
 73
     6
 40
7.4083750000000004
 49
3.5278
 49
-0.776115
 49
0.776115
 49
-0.776115
 49
0.776115
 49
-0.776115
  0
ENDTAB
  0
TABLE
  2
LAYER
 70
     2
  0
LAYER
  2
0
 70
     0
 62
     7
  6
CONTINUOUS
  0
LAYER
  2
_________2
 70
     0
 62
     7
  6
CONTINUOUS
  0
ENDTAB
  0
TABLE
  2
STYLE
 70
     1
  0
STYLE
  2
STANDARD
 70
     0
 40
0.0
 41
0.0
 50
0.0
 71
     0
 42
0.0
  3
TXT
  4
EXTFONT.SHX
  0
ENDTAB
  0
TABLE
  2
VIEW
 70
     0
  0
ENDTAB
  0
TABLE
  2
UCS
 70
     0
  0
ENDTAB
  0
TABLE
  2
APPID
 70
     3
  0
APPID
  2
ACAD
 70
     0
  0
APPID
  2
ACAD_NAV_VCDISPLAY
 70
     0
  0
APPID
  2
ACAD_MLEADERVER
 70
     0
  0
ENDTAB
  0
TABLE
  2
DIMSTYLE
 70
     1
  0
DIMSTYLE
  2
STANDARD
 70
     0
  3

  4

  5

  6

  7

 40
1.0
 41
0.18
 42
0.0625
 43
0.38
 44
0.18
 45
0.0
 46
0.0
 47
0.0
 48
0.0
140
0.18
141
0.09
142
0.0
143
25.399999999999999
144
1.0
145
0.0
146
1.0
147
0.09
 71
     0
 72
     0
 73
     1
 74
     1
 75
     0
 76
     0
 77
     0
 78
     0
170
     0
171
     2
172
     0
173
     0
174
     0
175
     0
176
     0
177
     0
178
     0
  0
ENDTAB
  0
ENDSEC
  0
SECTION
  2
BLOCKS
  0
BLOCK
  8
0
  2
$MODEL_SPACE
 70
     0
 10
0.0
 20
0.0
 30
0.0
  3
$MODEL_SPACE
  1

  0
ENDBLK
  5
1A
  8
0
  0
BLOCK
 67
     1
  8
0
  2
$PAPER_SPACE
 70
     0
 10
0.0
 20
0.0
 30
0.0
  3
$PAPER_SPACE
  1

  0
ENDBLK
  5
17
 67
     1
  8
0
  0
ENDSEC
  0
SECTION
  2
ENTITIES
  0
TEXT
  5
24
  8
0
 62
     7
 10
166.33199999999999
 20
193.78099999999989
 30
0.0
 40
3.0923400000000001
  1
（2ヶ所）
 41
0.5
  0
TEXT
  5
25
  8
0
 62
     7
 10
168.52774149999999
 20
198.89500000000001
 30
0.0
 40
3.0923400000000001
  1
%%c10穴
 41
0.5
 72
     1
 11
171.18199999999999
 21
198.89500000000001
 31
0.0
  0
TEXT
  5
26
  8
0
 62
     7
 10
161.2547335472581
 20
222.198960680634
 30
0.0
 40
3.0923400000000001
  1
R35
 50
36.198300000000003
 41
0.5
 72
     2
 11
164.58199999999999
 21
224.63399999999999
 31
0.0
  0
TEXT
  5
27
  8
0
 62
     7
 10
135.9120390621992
 20
197.50303906219921
 30
0.0
 40
3.0923400000000001
  1
R100
 50
45.0
 41
0.5
 72
     1
 11
137.55199999999999
 21
199.143
 31
0.0
  0
TEXT
  5
28
  8
0
 62
     7
 10
169.57400000000001
 20
209.37398250000001
 30
0.0
 40
3.0923400000000001
  1
150
 50
90.0
 41
0.5
 72
     1
 11
169.57400000000001
 21
211.04900000000001
 31
0.0
  0
TEXT
  5
29
  8
0
 62
     7
 10
128.179
 20
165.375
 30
0.0
 40
3.0923400000000001
  1
注）：A寸法は洗面器現品を
 41
0.5
  0
TEXT
  5
2A
  8
0
 62
     7
 10
128.179
 20
161.50999999999999
 30
0.0
 40
3.0923400000000001
  1
　　測定して穴あけしてください。
 41
0.5
  0
TEXT
  5
2B
  8
0
 62
     7
 10
134.53175999999999
 20
173.114
 30
0.0
 40
3.0923400000000001
  1
カウンター切込寸法
 41
0.5
 72
     1
 11
142.77799999999999
 21
173.114
 31
0.0
  0
TEXT
  5
2C
  8
0
 62
     7
 10
149.78999999999999
 20
133.88944000000001
 30
0.0
 40
3.0923400000000001
  1
15
 50
90.0
 41
0.5
 72
     2
 11
149.78999999999999
 21
135.95099999999999
 31
0.0
  0
TEXT
  5
2D
  8
0
 62
     7
 10
38.654699999999998
 20
102.688
 30
0.0
 40
3.0923400000000001
  1
max.50
 50
90.0
 41
0.5
  0
TEXT
  5
2E
  8
0
 62
     7
 10
78.698499999999996
 20
215.68700000000001
 30
0.0
 40
3.0923400000000001
  1
%%c35
 41
0.5
  0
TEXT
  5
2F
  8
0
 62
     7
 10
81.766379999999998
 20
200.28100000000001
 30
0.0
 40
3.0923400000000001
  1
%%c46
 41
0.5
 72
     2
 11
85.889499999999998
 21
200.28100000000001
 31
0.0
  0
TEXT
  5
30
  8
0
 62
     7
 10
92.551572500000006
 20
234.197
 30
0.0
 40
3.0923400000000001
  1
80
 41
0.5
 72
     1
 11
93.711200000000005
 21
234.197
 31
0.0
  0
TEXT
  5
31
  8
0
 62
     7
 10
103.86199999999999
 20
221.38937250000001
 30
0.0
 40
3.0923400000000001
  1
80
 50
90.0
 41
0.5
 72
     1
 11
103.86199999999999
 21
222.54900000000001
 31
0.0
  0
TEXT
  5
32
  8
0
 62
     7
 10
160.62937249999999
 20
136.94
 30
0.0
 40
3.0923400000000001
  1
80
 41
0.5
 72
     1
 11
161.78899999999999
 21
136.94
 31
0.0
  0
TEXT
  5
33
  8
0
 62
     7
 10
152.34528750000001
 20
107.349
 30
0.0
 40
3.0923400000000001
  1
230
 41
0.5
 72
     1
 11
154.27799999999999
 21
107.349
 31
0.0
  0
TEXT
  5
34
  8
0
 62
     7
 10
140.97413499999999
 20
100.235
 30
0.0
 40
3.0923400000000001
  1
400
 41
0.5
 72
     1
 11
142.77799999999999
 21
100.235
 31
0.0
  0
TEXT
  5
35
  8
0
 62
     7
 10
72.796534999999992
 20
106.214
 30
0.0
 40
3.0923400000000001
  1
400
 41
0.5
 72
     1
 11
74.600399999999993
 21
106.214
 31
0.0
  0
TEXT
  5
36
  8
0
 62
     7
 10
72.667187500000011
 20
165.25200000000001
 30
0.0
 40
3.0923400000000001
  1
460
 41
0.5
 72
     1
 11
74.599900000000005
 21
165.25200000000001
 31
0.0
  0
TEXT
  5
37
  8
0
 62
     7
 10
148.61098250000001
 20
232.12100000000001
 30
0.0
 40
3.0923400000000001
  1
150
 41
0.5
 72
     1
 11
150.286
 21
232.12100000000001
 31
0.0
  0
TEXT
  5
38
  8
0
 62
     7
 10
133.61098250000001
 20
232.12100000000001
 30
0.0
 40
3.0923400000000001
  1
150
 41
0.5
 72
     1
 11
135.286
 21
232.12100000000001
 31
0.0
  0
TEXT
  5
39
  8
0
 62
     7
 10
142.26261
 20
183.452
 30
0.0
 40
3.0923400000000001
  1
A
 41
0.5
 72
     1
 11
142.77799999999999
 21
183.452
 31
0.0
  0
TEXT
  5
3A
  8
0
 62
     7
 10
72.667887500000006
 20
171.38800000000001
 30
0.0
 40
3.0923400000000001
  1
440
 41
0.5
 72
     1
 11
74.6006
 21
171.38800000000001
 31
0.0
  0
TEXT
  5
3B
  8
0
 62
     7
 10
139.167
 20
124.18152499999999
 30
0.0
 40
3.0923400000000001
  1
75
 50
90.0
 41
0.5
 72
     1
 11
139.167
 21
125.47
 31
0.0
  0
TEXT
  5
3C
  8
0
 62
     7
 10
38.490600000000001
 20
122.86483
 30
0.0
 40
3.0923400000000001
  1
100
 50
90.0
 41
0.5
 72
     1
 11
38.490600000000001
 21
124.411
 31
0.0
  0
TEXT
  5
3D
  8
0
 62
     7
 10
36.414000000000001
 20
201.6162875
 30
0.0
 40
3.0923400000000001
  1
460
 50
90.0
 41
0.5
 72
     1
 11
36.414000000000001
 21
203.54900000000001
 31
0.0
  0
TEXT
  5
3E
  8
0
 62
     7
 10
42.446299999999987
 20
201.6162875
 30
0.0
 40
3.0923400000000001
  1
440
 50
90.0
 41
0.5
 72
     1
 11
42.446299999999987
 21
203.54900000000001
 31
0.0
  0
LINE
  5
3F
  8
0
 62
     7
 10
160.90899999999999
 20
216.952
 30
0.0
 11
151.69200000000001
 21
198.98500000000001
 31
0.0
  0
LINE
  5
40
  8
0
 62
     7
 10
127.795
 20
222.04900000000001
 30
0.0
 11
157.79499999999999
 21
222.04900000000001
 31
0.0
  0
LINE
  5
41
  8
0
 62
     7
 10
124.68000000000001
 20
216.952
 30
0.0
 11
133.89699999999999
 21
198.98500000000001
 31
0.0
  0
ARC
  5
42
  8
0
 62
     7
 10
157.77381500000001
 20
218.55404999999999
 30
0.0
 40
3.5210669999999991
 50
332.92542700000001
 51
359.91961700000002
  0
ARC
  5
43
  8
0
 62
     7
 10
157.66054199999999
 20
218.41465500000001
 30
0.0
 40
3.6368219999999991
 50
2.1187259999999992
 51
87.886904000000001
  0
ARC
  5
44
  8
0
 62
     7
 10
142.794713
 20
203.54871700000001
 30
0.0
 40
9.9999529999999996
 50
207.15796399999999
 51
297.15948300000002
  0
ARC
  5
45
  8
0
 62
     7
 10
142.732157
 20
203.61079799999999
 30
0.0
 40
10.083780000000001
 50
297.31471699999997
 51
332.68984899999998
  0
ARC
  5
46
  8
0
 62
     7
 10
127.794386
 20
218.548937
 30
0.0
 40
3.500067
 50
89.997179999999986
 51
179.99715
  0
ARC
  5
47
  8
0
 62
     7
 10
127.80792
 20
218.55224799999999
 30
0.0
 40
3.5136029999999989
 50
180.051188
 51
207.10380799999999
  0
LINE
  5
48
  8
0
 62
     7
 10
161.791
 20
201.21199999999999
 30
0.0
 11
160.64699999999999
 21
203.19399999999999
 31
0.0
  0
LINE
  5
49
  8
0
 62
     7
 10
160.64699999999999
 20
203.19399999999999
 30
0.0
 11
162.62899999999999
 21
202.05000000000001
 31
0.0
  0
LINE
  5
4A
  8
0
 62
     7
 10
162.62899999999999
 20
202.05000000000001
 30
0.0
 11
161.791
 21
201.21199999999999
 31
0.0
  0
LINE
  5
4B
  8
0
 62
     7
 10
160.64699999999999
 20
203.19399999999999
 30
0.0
 11
166.155
 21
197.68700000000001
 31
0.0
  0
LINE
  5
4C
  8
0
 62
     7
 10
166.155
 20
197.68700000000001
 30
0.0
 11
176.125
 21
197.68700000000001
 31
0.0
  0
LINE
  5
4D
  8
0
 62
     7
 10
159.167
 20
218.88200000000001
 30
0.0
 11
160.55199999999999
 21
220.70500000000001
 31
0.0
  0
LINE
  5
4E
  8
0
 62
     7
 10
160.55199999999999
 20
220.70500000000001
 30
0.0
 11
158.44200000000001
 21
219.81899999999999
 31
0.0
  0
LINE
  5
4F
  8
0
 62
     7
 10
158.44200000000001
 20
219.81899999999999
 30
0.0
 11
159.167
 21
218.88200000000001
 31
0.0
  0
LINE
  5
50
  8
0
 62
     7
 10
157.79499999999999
 20
218.54900000000001
 30
0.0
 11
164.91
 21
224.11199999999999
 31
0.0
  0
LINE
  5
51
  8
0
 62
     7
 10
137.041
 20
198.27000000000001
 30
0.0
 11
135.952
 21
196.25700000000001
 31
0.0
  0
LINE
  5
52
  8
0
 62
     7
 10
135.952
 20
196.25700000000001
 30
0.0
 11
137.90100000000001
 21
197.45599999999999
 31
0.0
  0
LINE
  5
53
  8
0
 62
     7
 10
137.90100000000001
 20
197.45599999999999
 30
0.0
 11
137.041
 21
198.27000000000001
 31
0.0
  0
LINE
  5
54
  8
0
 62
     7
 10
142.79499999999999
 20
203.54900000000001
 30
0.0
 11
135.952
 21
196.25700000000001
 31
0.0
  0
LINE
  5
55
  8
0
 62
     7
 10
169.68899999999999
 20
205.744
 30
0.0
 11
170.28099999999989
 21
203.53299999999999
 31
0.0
  0
LINE
  5
56
  8
0
 62
     7
 10
170.28099999999989
 20
203.53299999999999
 30
0.0
 11
170.874
 21
205.744
 31
0.0
  0
LINE
  5
57
  8
0
 62
     7
 10
170.874
 20
205.744
 30
0.0
 11
169.68899999999999
 21
205.744
 31
0.0
  0
LINE
  5
58
  8
0
 62
     7
 10
170.85900000000001
 20
216.304
 30
0.0
 11
170.267
 21
218.51599999999999
 31
0.0
  0
LINE
  5
59
  8
0
 62
     7
 10
170.267
 20
218.51599999999999
 30
0.0
 11
169.67400000000001
 21
216.304
 31
0.0
  0
LINE
  5
5A
  8
0
 62
     7
 10
169.67400000000001
 20
216.304
 30
0.0
 11
170.85900000000001
 21
216.304
 31
0.0
  0
LINE
  5
5B
  8
0
 62
     7
 10
170.274
 20
203.53399999999999
 30
0.0
 11
170.274
 21
218.51499999999999
 31
0.0
  0
LINE
  5
5C
  8
0
 62
     7
 10
170.96700000000001
 20
218.54900000000001
 30
0.0
 11
159.495
 21
218.54900000000001
 31
0.0
  0
LINE
  5
5D
  8
0
 62
     7
 10
170.91300000000001
 20
203.54900000000001
 30
0.0
 11
162.49799999999999
 21
203.54900000000001
 31
0.0
  0
LINE
  5
5E
  8
0
 62
     7
 10
149.846
 20
131.62200000000001
 30
0.0
 11
150.43899999999999
 21
129.411
 31
0.0
  0
LINE
  5
5F
  8
0
 62
     7
 10
150.43899999999999
 20
129.411
 30
0.0
 11
151.03100000000001
 21
131.62200000000001
 31
0.0
  0
LINE
  5
60
  8
0
 62
     7
 10
151.03100000000001
 20
131.62200000000001
 30
0.0
 11
149.846
 21
131.62200000000001
 31
0.0
  0
LINE
  5
61
  8
0
 62
     7
 10
151.017
 20
125.699
 30
0.0
 11
150.42400000000001
 21
127.911
 31
0.0
  0
LINE
  5
62
  8
0
 62
     7
 10
150.42400000000001
 20
127.911
 30
0.0
 11
149.83199999999999
 21
125.699
 31
0.0
  0
LINE
  5
63
  8
0
 62
     7
 10
149.83199999999999
 20
125.699
 30
0.0
 11
151.017
 21
125.699
 31
0.0
  0
LINE
  5
64
  8
0
 62
     7
 10
150.43199999999999
 20
124.399
 30
0.0
 11
150.43199999999999
 21
135.95099999999999
 31
0.0
  0
LINE
  5
65
  8
0
 62
     7
 10
154.77799999999999
 20
127.911
 30
0.0
 11
149.739
 21
127.911
 31
0.0
  0
LINE
  5
66
  8
0
 62
     7
 10
160.001
 20
136.82599999999999
 30
0.0
 11
157.78899999999999
 21
136.233
 31
0.0
  0
LINE
  5
67
  8
0
 62
     7
 10
157.78899999999999
 20
136.233
 30
0.0
 11
160.001
 21
135.63999999999999
 31
0.0
  0
LINE
  5
68
  8
0
 62
     7
 10
160.001
 20
135.63999999999999
 30
0.0
 11
160.001
 21
136.82599999999999
 31
0.0
  0
LINE
  5
69
  8
0
 62
     7
 10
163.577
 20
135.655
 30
0.0
 11
165.78899999999999
 21
136.24700000000001
 31
0.0
  0
LINE
  5
6A
  8
0
 62
     7
 10
165.78899999999999
 20
136.24700000000001
 30
0.0
 11
163.577
 21
136.84
 31
0.0
  0
LINE
  5
6B
  8
0
 62
     7
 10
163.577
 20
136.84
 30
0.0
 11
163.577
 21
135.655
 31
0.0
  0
LINE
  5
6C
  8
0
 62
     7
 10
157.78999999999999
 20
136.24000000000001
 30
0.0
 11
165.78700000000001
 21
136.24000000000001
 31
0.0
  0
LINE
  5
6D
  8
0
 62
     7
 10
157.78899999999999
 20
131.11099999999999
 30
0.0
 11
157.78899999999999
 21
136.93299999999999
 31
0.0
  0
LINE
  5
6E
  8
0
 62
     7
 10
92.820899999999995
 20
220.93199999999999
 30
0.0
 11
90.837900000000005
 21
219.78700000000001
 31
0.0
  0
LINE
  5
6F
  8
0
 62
     7
 10
90.837900000000005
 20
219.78700000000001
 30
0.0
 11
91.982699999999994
 21
221.77000000000001
 31
0.0
  0
LINE
  5
70
  8
0
 62
     7
 10
91.982699999999994
 20
221.77000000000001
 30
0.0
 11
92.820899999999995
 21
220.93199999999999
 31
0.0
  0
LINE
  5
71
  8
0
 62
     7
 10
86.380499999999984
 20
216.167
 30
0.0
 11
88.363100000000003
 21
217.31200000000001
 31
0.0
  0
LINE
  5
72
  8
0
 62
     7
 10
88.363100000000003
 20
217.31200000000001
 30
0.0
 11
87.218299999999999
 21
215.32900000000001
 31
0.0
  0
LINE
  5
73
  8
0
 62
     7
 10
87.218299999999999
 20
215.32900000000001
 30
0.0
 11
86.380499999999984
 21
216.167
 31
0.0
  0
LINE
  5
74
  8
0
 62
     7
 10
94.100800000000007
 20
223.05000000000001
 30
0.0
 11
85.489599999999996
 21
214.43799999999999
 31
0.0
  0
LINE
  5
75
  8
0
 62
     7
 10
85.489599999999996
 20
214.43799999999999
 30
0.0
 11
78.748099999999994
 21
214.43799999999999
 31
0.0
  0
LINE
  5
76
  8
0
 62
     7
 10
70.989400000000003
 20
206.303
 30
0.0
 11
72.972399999999993
 21
205.15799999999999
 31
0.0
  0
LINE
  5
77
  8
0
 62
     7
 10
72.972399999999993
 20
205.15799999999999
 30
0.0
 11
71.827600000000004
 21
207.14099999999999
 31
0.0
  0
LINE
  5
78
  8
0
 62
     7
 10
71.827600000000004
 20
207.14099999999999
 30
0.0
 11
70.989400000000003
 21
206.303
 31
0.0
  0
LINE
  5
79
  8
0
 62
     7
 10
78.207599999999985
 20
200.761
 30
0.0
 11
76.224900000000005
 21
201.905
 31
0.0
  0
LINE
  5
7A
  8
0
 62
     7
 10
76.224900000000005
 20
201.905
 30
0.0
 11
77.369799999999984
 21
199.923
 31
0.0
  0
LINE
  5
7B
  8
0
 62
     7
 10
77.369799999999984
 20
199.923
 30
0.0
 11
78.207599999999985
 21
200.761
 31
0.0
  0
LINE
  5
7C
  8
0
 62
     7
 10
70.098500000000001
 20
208.03200000000001
 30
0.0
 11
79.098500000000001
 21
199.03200000000001
 31
0.0
  0
LINE
  5
7D
  8
0
 62
     7
 10
79.098500000000001
 20
199.03200000000001
 30
0.0
 11
85.8399
 21
199.03200000000001
 31
0.0
  0
LINE
  5
7E
  8
0
 62
     7
 10
158.066
 20
182.167
 30
0.0
 11
160.27799999999999
 21
182.75999999999999
 31
0.0
  0
LINE
  5
7F
  8
0
 62
     7
 10
160.27799999999999
 20
182.75999999999999
 30
0.0
 11
158.066
 21
183.352
 31
0.0
  0
LINE
  5
80
  8
0
 62
     7
 10
158.066
 20
183.352
 30
0.0
 11
158.066
 21
182.167
 31
0.0
  0
LINE
  5
81
  8
0
 62
     7
 10
144.99000000000001
 20
232.00700000000001
 30
0.0
 11
142.77799999999999
 21
231.41499999999999
 31
0.0
  0
LINE
  5
82
  8
0
 62
     7
 10
142.77799999999999
 20
231.41499999999999
 30
0.0
 11
144.99000000000001
 21
230.822
 31
0.0
  0
LINE
  5
83
  8
0
 62
     7
 10
144.99000000000001
 20
230.822
 30
0.0
 11
144.99000000000001
 21
232.00700000000001
 31
0.0
  0
LINE
  5
84
  8
0
 62
     7
 10
155.55000000000001
 20
230.83600000000001
 30
0.0
 11
157.762
 21
231.429
 31
0.0
  0
LINE
  5
85
  8
0
 62
     7
 10
157.762
 20
231.429
 30
0.0
 11
155.55000000000001
 21
232.02199999999999
 31
0.0
  0
LINE
  5
86
  8
0
 62
     7
 10
155.55000000000001
 20
232.02199999999999
 30
0.0
 11
155.55000000000001
 21
230.83600000000001
 31
0.0
  0
LINE
  5
87
  8
0
 62
     7
 10
142.779
 20
231.42099999999999
 30
0.0
 11
157.75999999999999
 21
231.42099999999999
 31
0.0
  0
LINE
  5
88
  8
0
 62
     7
 10
130.006
 20
232.00700000000001
 30
0.0
 11
127.795
 21
231.41499999999999
 31
0.0
  0
LINE
  5
89
  8
0
 62
     7
 10
127.795
 20
231.41499999999999
 30
0.0
 11
130.006
 21
230.822
 31
0.0
  0
LINE
  5
8A
  8
0
 62
     7
 10
130.006
 20
230.822
 30
0.0
 11
130.006
 21
232.00700000000001
 31
0.0
  0
LINE
  5
8B
  8
0
 62
     7
 10
140.566
 20
230.83600000000001
 30
0.0
 11
142.77799999999999
 21
231.429
 31
0.0
  0
LINE
  5
8C
  8
0
 62
     7
 10
142.77799999999999
 20
231.429
 30
0.0
 11
140.566
 21
232.02199999999999
 31
0.0
  0
LINE
  5
8D
  8
0
 62
     7
 10
140.566
 20
232.02199999999999
 30
0.0
 11
140.566
 21
230.83600000000001
 31
0.0
  0
LINE
  5
8E
  8
0
 62
     7
 10
127.79600000000001
 20
231.42099999999999
 30
0.0
 11
142.77699999999999
 21
231.42099999999999
 31
0.0
  0
LINE
  5
8F
  8
0
 62
     7
 10
127.48999999999999
 20
183.33799999999999
 30
0.0
 11
125.27800000000001
 21
182.745
 31
0.0
  0
LINE
  5
90
  8
0
 62
     7
 10
125.27800000000001
 20
182.745
 30
0.0
 11
127.48999999999999
 21
182.15299999999999
 31
0.0
  0
LINE
  5
91
  8
0
 62
     7
 10
127.48999999999999
 20
182.15299999999999
 30
0.0
 11
127.48999999999999
 21
183.33799999999999
 31
0.0
  0
LINE
  5
92
  8
0
 62
     7
 10
125.279
 20
182.75200000000001
 30
0.0
 11
160.27799999999999
 21
182.75200000000001
 31
0.0
  0
LINE
  5
93
  8
0
 62
     7
 10
54.812199999999997
 20
171.273
 30
0.0
 11
52.6004
 21
170.68100000000001
 31
0.0
  0
LINE
  5
94
  8
0
 62
     7
 10
52.6004
 20
170.68100000000001
 30
0.0
 11
54.812199999999997
 21
170.08799999999999
 31
0.0
  0
LINE
  5
95
  8
0
 62
     7
 10
54.812199999999997
 20
170.08799999999999
 30
0.0
 11
54.812199999999997
 21
171.273
 31
0.0
  0
LINE
  5
96
  8
0
 62
     7
 10
94.388999999999996
 20
170.102
 30
0.0
 11
96.600700000000003
 21
170.69499999999999
 31
0.0
  0
LINE
  5
97
  8
0
 62
     7
 10
96.600700000000003
 20
170.69499999999999
 30
0.0
 11
94.388999999999996
 21
171.28800000000001
 31
0.0
  0
LINE
  5
98
  8
0
 62
     7
 10
94.388999999999996
 20
171.28800000000001
 30
0.0
 11
94.388999999999996
 21
170.102
 31
0.0
  0
LINE
  5
99
  8
0
 62
     7
 10
52.601399999999991
 20
170.68700000000001
 30
0.0
 11
96.599400000000003
 21
170.68700000000001
 31
0.0
  0
LINE
  5
9A
  8
0
 62
     7
 10
144.99000000000001
 20
107.29300000000001
 30
0.0
 11
142.77799999999999
 21
106.70099999999999
 31
0.0
  0
LINE
  5
9B
  8
0
 62
     7
 10
142.77799999999999
 20
106.70099999999999
 30
0.0
 11
144.99000000000001
 21
106.108
 31
0.0
  0
LINE
  5
9C
  8
0
 62
     7
 10
144.99000000000001
 20
106.108
 30
0.0
 11
144.99000000000001
 21
107.29300000000001
 31
0.0
  0
LINE
  5
9D
  8
0
 62
     7
 10
163.56700000000001
 20
106.123
 30
0.0
 11
165.77799999999999
 21
106.715
 31
0.0
  0
LINE
  5
9E
  8
0
 62
     7
 10
165.77799999999999
 20
106.715
 30
0.0
 11
163.56700000000001
 21
107.30800000000001
 31
0.0
  0
LINE
  5
9F
  8
0
 62
     7
 10
163.56700000000001
 20
107.30800000000001
 30
0.0
 11
163.56700000000001
 21
106.123
 31
0.0
  0
LINE
  5
A0
  8
0
 62
     7
 10
142.779
 20
106.708
 30
0.0
 11
165.77699999999999
 21
106.708
 31
0.0
  0
LINE
  5
A1
  8
0
 62
     7
 10
165.77799999999999
 20
106.001
 30
0.0
 11
165.77799999999999
 21
127.535
 31
0.0
  0
LINE
  5
A2
  8
0
 62
     7
 10
142.77799999999999
 20
106.001
 30
0.0
 11
142.77799999999999
 21
111.407
 31
0.0
  0
LINE
  5
A3
  8
0
 62
     7
 10
124.98999999999999
 20
100.18000000000001
 30
0.0
 11
122.77800000000001
 21
99.587000000000003
 31
0.0
  0
LINE
  5
A4
  8
0
 62
     7
 10
122.77800000000001
 20
99.587000000000003
 30
0.0
 11
124.98999999999999
 21
98.994399999999999
 31
0.0
  0
LINE
  5
A5
  8
0
 62
     7
 10
124.98999999999999
 20
98.994399999999999
 30
0.0
 11
124.98999999999999
 21
100.18000000000001
 31
0.0
  0
LINE
  5
A6
  8
0
 62
     7
 10
160.566
 20
99.008899999999997
 30
0.0
 11
162.77799999999999
 21
99.601399999999998
 31
0.0
  0
LINE
  5
A7
  8
0
 62
     7
 10
162.77799999999999
 20
99.601399999999998
 30
0.0
 11
160.566
 21
100.194
 31
0.0
  0
LINE
  5
A8
  8
0
 62
     7
 10
160.566
 20
100.194
 30
0.0
 11
160.566
 21
99.008899999999997
 31
0.0
  0
LINE
  5
A9
  8
0
 62
     7
 10
122.779
 20
99.593900000000005
 30
0.0
 11
162.77699999999999
 21
99.593900000000005
 31
0.0
  0
LINE
  5
AA
  8
0
 62
     7
 10
162.77799999999999
 20
98.886899999999997
 30
0.0
 11
162.77799999999999
 21
118.70999999999999
 31
0.0
  0
LINE
  5
AB
  8
0
 62
     7
 10
122.77800000000001
 20
98.886899999999997
 30
0.0
 11
122.77800000000001
 21
118.70999999999999
 31
0.0
  0
LINE
  5
AC
  8
0
 62
     7
 10
56.812100000000001
 20
106.158
 30
0.0
 11
54.60029999999999
 21
105.566
 31
0.0
  0
LINE
  5
AD
  8
0
 62
     7
 10
54.60029999999999
 20
105.566
 30
0.0
 11
56.812100000000001
 21
104.973
 31
0.0
  0
LINE
  5
AE
  8
0
 62
     7
 10
56.812100000000001
 20
104.973
 30
0.0
 11
56.812100000000001
 21
106.158
 31
0.0
  0
LINE
  5
AF
  8
0
 62
     7
 10
92.3887
 20
104.988
 30
0.0
 11
94.600499999999997
 21
105.58
 31
0.0
  0
LINE
  5
B0
  8
0
 62
     7
 10
94.600499999999997
 20
105.58
 30
0.0
 11
92.3887
 21
106.173
 31
0.0
  0
LINE
  5
B1
  8
0
 62
     7
 10
92.3887
 20
106.173
 30
0.0
 11
92.3887
 21
104.988
 31
0.0
  0
LINE
  5
B2
  8
0
 62
     7
 10
54.601300000000002
 20
105.57299999999999
 30
0.0
 11
94.599100000000007
 21
105.57299999999999
 31
0.0
  0
LINE
  5
B3
  8
0
 62
     7
 10
94.600499999999997
 20
104.866
 30
0.0
 11
94.600499999999997
 21
118.70999999999999
 31
0.0
  0
LINE
  5
B4
  8
0
 62
     7
 10
54.60029999999999
 20
104.866
 30
0.0
 11
54.60029999999999
 21
118.70999999999999
 31
0.0
  0
LINE
  5
B5
  8
0
 62
     7
 10
165.78899999999999
 20
130.13900000000001
 30
0.0
 11
165.78899999999999
 21
136.94800000000001
 31
0.0
  0
LINE
  5
B6
  8
0
 62
     7
 10
53.811
 20
165.196
 30
0.0
 11
51.599200000000003
 21
164.60400000000001
 31
0.0
  0
LINE
  5
B7
  8
0
 62
     7
 10
51.599200000000003
 20
164.60400000000001
 30
0.0
 11
53.811
 21
164.011
 31
0.0
  0
LINE
  5
B8
  8
0
 62
     7
 10
53.811
 20
164.011
 30
0.0
 11
53.811
 21
165.196
 31
0.0
  0
LINE
  5
B9
  8
0
 62
     7
 10
95.388800000000003
 20
164.02600000000001
 30
0.0
 11
97.600499999999997
 21
164.61799999999999
 31
0.0
  0
LINE
  5
BA
  8
0
 62
     7
 10
97.600499999999997
 20
164.61799999999999
 30
0.0
 11
95.388800000000003
 21
165.21100000000001
 31
0.0
  0
LINE
  5
BB
  8
0
 62
     7
 10
95.388800000000003
 20
165.21100000000001
 30
0.0
 11
95.388800000000003
 21
164.02600000000001
 31
0.0
  0
LINE
  5
BC
  8
0
 62
     7
 10
51.60029999999999
 20
164.61099999999999
 30
0.0
 11
97.599100000000007
 21
164.61099999999999
 31
0.0
  0
LINE
  5
BD
  8
0
 62
     7
 10
157.79499999999999
 20
220.249
 30
0.0
 11
157.79499999999999
 21
232.11500000000001
 31
0.0
  0
LINE
  5
BE
  8
0
 62
     7
 10
127.795
 20
220.249
 30
0.0
 11
127.795
 21
232.11500000000001
 31
0.0
  0
LINE
  5
BF
  8
0
 62
     7
 10
125.27800000000001
 20
182.04499999999999
 30
0.0
 11
125.27800000000001
 21
201.04900000000001
 31
0.0
  0
LINE
  5
C0
  8
0
 62
     7
 10
160.27799999999999
 20
182.04499999999999
 30
0.0
 11
160.27799999999999
 21
201.04900000000001
 31
0.0
  0
LINE
  5
C1
  8
0
  6
AIGENLINE001
 62
     7
 10
127.795
 20
217.54900000000001
 30
0.0
 11
127.795
 21
219.54900000000001
 31
0.0
  0
LINE
  5
C2
  8
0
  6
AIGENLINE001
 62
     7
 10
128.79499999999999
 20
218.54900000000001
 30
0.0
 11
126.794
 21
218.54900000000001
 31
0.0
  0
LINE
  5
C3
  8
0
  6
AIGENLINE001
 62
     7
 10
158.79499999999999
 20
218.54900000000001
 30
0.0
 11
156.79499999999999
 21
218.54900000000001
 31
0.0
  0
LINE
  5
C4
  8
0
  6
AIGENLINE001
 62
     7
 10
157.79499999999999
 20
217.54900000000001
 30
0.0
 11
157.79499999999999
 21
219.54900000000001
 31
0.0
  0
LINE
  5
C5
  8
0
 62
     7
 10
142.77799999999999
 20
224.749
 30
0.0
 11
142.77799999999999
 21
232.11500000000001
 31
0.0
  0
LINE
  5
C6
  8
0
 62
     7
 10
96.600700000000003
 20
169.995
 30
0.0
 11
96.600700000000003
 21
179.499
 31
0.0
  0
LINE
  5
C7
  8
0
 62
     7
 10
52.6004
 20
169.995
 30
0.0
 11
52.6004
 21
179.499
 31
0.0
  0
LINE
  5
C8
  8
0
 62
     7
 10
105.255
 20
218.54900000000001
 30
0.0
 11
93.300700000000006
 21
218.54900000000001
 31
0.0
  0
LINE
  5
C9
  8
0
 62
     7
 10
105.255
 20
226.54900000000001
 30
0.0
 11
97.950500000000005
 21
226.54900000000001
 31
0.0
  0
LINE
  5
CA
  8
0
 62
     7
 10
97.600499999999997
 20
226.899
 30
0.0
 11
97.600499999999997
 21
234.20400000000001
 31
0.0
  0
LINE
  5
CB
  8
0
 62
     7
 10
89.6006
 20
222.249
 30
0.0
 11
89.6006
 21
234.20400000000001
 31
0.0
  0
LINE
  5
CC
  8
0
 62
     7
 10
97.600499999999997
 20
163.904
 30
0.0
 11
97.600499999999997
 21
180.19900000000001
 31
0.0
  0
LINE
  5
CD
  8
0
 62
     7
 10
51.60029999999999
 20
163.904
 30
0.0
 11
51.60029999999999
 21
180.19900000000001
 31
0.0
  0
LINE
  5
CE
  8
0
 62
     7
 10
95.388800000000003
 20
232.911
 30
0.0
 11
97.600499999999997
 21
233.50399999999999
 31
0.0
  0
LINE
  5
CF
  8
0
 62
     7
 10
97.600499999999997
 20
233.50399999999999
 30
0.0
 11
95.388800000000003
 21
234.096
 31
0.0
  0
LINE
  5
D0
  8
0
 62
     7
 10
95.388800000000003
 20
234.096
 30
0.0
 11
95.388800000000003
 21
232.911
 31
0.0
  0
LINE
  5
D1
  8
0
 62
     7
 10
91.812200000000004
 20
234.08199999999999
 30
0.0
 11
89.600399999999993
 21
233.489
 31
0.0
  0
LINE
  5
D2
  8
0
 62
     7
 10
89.600399999999993
 20
233.489
 30
0.0
 11
91.812200000000004
 21
232.89599999999999
 31
0.0
  0
LINE
  5
D3
  8
0
 62
     7
 10
91.812200000000004
 20
232.89599999999999
 30
0.0
 11
91.812200000000004
 21
234.08199999999999
 31
0.0
  0
LINE
  5
D4
  8
0
 62
     7
 10
97.599500000000006
 20
233.49700000000001
 30
0.0
 11
89.601799999999983
 21
233.49700000000001
 31
0.0
  0
LINE
  5
D5
  8
0
 62
     7
 10
103.977
 20
220.761
 30
0.0
 11
104.569
 21
218.54900000000001
 31
0.0
  0
LINE
  5
D6
  8
0
 62
     7
 10
104.569
 20
218.54900000000001
 30
0.0
 11
105.16200000000001
 21
220.761
 31
0.0
  0
LINE
  5
D7
  8
0
 62
     7
 10
105.16200000000001
 20
220.761
 30
0.0
 11
103.977
 21
220.761
 31
0.0
  0
LINE
  5
D8
  8
0
 62
     7
 10
105.14700000000001
 20
224.33699999999999
 30
0.0
 11
104.55500000000001
 21
226.54900000000001
 31
0.0
  0
LINE
  5
D9
  8
0
 62
     7
 10
104.55500000000001
 20
226.54900000000001
 30
0.0
 11
103.962
 21
224.33699999999999
 31
0.0
  0
LINE
  5
DA
  8
0
 62
     7
 10
103.962
 20
224.33699999999999
 30
0.0
 11
105.14700000000001
 21
224.33699999999999
 31
0.0
  0
LINE
  5
DB
  8
0
 62
     7
 10
104.562
 20
218.55000000000001
 30
0.0
 11
104.562
 21
226.548
 31
0.0
  0
LINE
  5
DC
  8
0
 62
     7
 10
42.560600000000001
 20
183.761
 30
0.0
 11
43.153199999999991
 21
181.54900000000001
 31
0.0
  0
LINE
  5
DD
  8
0
 62
     7
 10
43.153199999999991
 20
181.54900000000001
 30
0.0
 11
43.745800000000003
 21
183.761
 31
0.0
  0
LINE
  5
DE
  8
0
 62
     7
 10
43.745800000000003
 20
183.761
 30
0.0
 11
42.560600000000001
 21
183.761
 31
0.0
  0
LINE
  5
DF
  8
0
 62
     7
 10
43.73129999999999
 20
223.33799999999999
 30
0.0
 11
43.1387
 21
225.54900000000001
 31
0.0
  0
LINE
  5
E0
  8
0
 62
     7
 10
43.1387
 20
225.54900000000001
 30
0.0
 11
42.546199999999999
 21
223.33799999999999
 31
0.0
  0
LINE
  5
E1
  8
0
 62
     7
 10
42.546199999999999
 20
223.33799999999999
 30
0.0
 11
43.73129999999999
 21
223.33799999999999
 31
0.0
  0
LINE
  5
E2
  8
0
 62
     7
 10
43.146299999999997
 20
181.55000000000001
 30
0.0
 11
43.146299999999997
 21
225.548
 31
0.0
  0
LINE
  5
E3
  8
0
 62
     7
 10
39.716900000000003
 20
114.199
 30
0.0
 11
39.124299999999998
 21
116.411
 31
0.0
  0
LINE
  5
E4
  8
0
 62
     7
 10
39.124299999999998
 20
116.411
 30
0.0
 11
38.531700000000001
 21
114.199
 31
0.0
  0
LINE
  5
E5
  8
0
 62
     7
 10
38.531700000000001
 20
114.199
 30
0.0
 11
39.716900000000003
 21
114.199
 31
0.0
  0
LINE
  5
E6
  8
0
 62
     7
 10
39.131900000000002
 20
102.688
 30
0.0
 11
39.131900000000002
 21
119.492
 31
0.0
  0
LINE
  5
E7
  8
0
 62
     7
 10
140.488
 20
124.122
 30
0.0
 11
139.89500000000001
 21
121.911
 31
0.0
  0
LINE
  5
E8
  8
0
 62
     7
 10
139.89500000000001
 20
121.911
 30
0.0
 11
139.303
 21
124.122
 31
0.0
  0
LINE
  5
E9
  8
0
 62
     7
 10
139.303
 20
124.122
 30
0.0
 11
140.488
 21
124.122
 31
0.0
  0
LINE
  5
EA
  8
0
 62
     7
 10
139.31700000000001
 20
127.199
 30
0.0
 11
139.91
 21
129.411
 31
0.0
  0
LINE
  5
EB
  8
0
 62
     7
 10
139.91
 20
129.411
 30
0.0
 11
140.50200000000001
 21
127.199
 31
0.0
  0
LINE
  5
EC
  8
0
 62
     7
 10
140.50200000000001
 20
127.199
 30
0.0
 11
139.31700000000001
 21
127.199
 31
0.0
  0
LINE
  5
ED
  8
0
 62
     7
 10
139.90199999999999
 20
121.91200000000001
 30
0.0
 11
139.90199999999999
 21
129.40899999999999
 31
0.0
  0
LINE
  5
EE
  8
0
 62
     7
 10
38.546199999999999
 20
121.621
 30
0.0
 11
39.13880000000001
 21
119.40900000000001
 31
0.0
  0
LINE
  5
EF
  8
0
 62
     7
 10
39.13880000000001
 20
119.40900000000001
 30
0.0
 11
39.731299999999997
 21
121.621
 31
0.0
  0
LINE
  5
F0
  8
0
 62
     7
 10
39.731299999999997
 20
121.621
 30
0.0
 11
38.546199999999999
 21
121.621
 31
0.0
  0
LINE
  5
F1
  8
0
 62
     7
 10
39.716900000000003
 20
127.199
 30
0.0
 11
39.124299999999998
 21
129.411
 31
0.0
  0
LINE
  5
F2
  8
0
 62
     7
 10
39.124299999999998
 20
129.411
 30
0.0
 11
38.531700000000001
 21
127.199
 31
0.0
  0
LINE
  5
F3
  8
0
 62
     7
 10
38.531700000000001
 20
127.199
 30
0.0
 11
39.716900000000003
 21
127.199
 31
0.0
  0
LINE
  5
F4
  8
0
 62
     7
 10
39.131900000000002
 20
119.411
 30
0.0
 11
39.131900000000002
 21
129.40899999999999
 31
0.0
  0
LINE
  5
F5
  8
0
 62
     7
 10
50.55019999999999
 20
129.411
 30
0.0
 11
38.431800000000003
 21
129.411
 31
0.0
  0
LINE
  5
F6
  8
0
 62
     7
 10
50.8504
 20
116.411
 30
0.0
 11
38.431800000000003
 21
116.411
 31
0.0
  0
LINE
  5
F7
  8
0
 62
     7
 10
53.900199999999991
 20
119.411
 30
0.0
 11
38.431800000000003
 21
119.411
 31
0.0
  0
LINE
  5
F8
  8
0
 62
     7
 10
36.469700000000003
 20
182.75999999999999
 30
0.0
 11
37.062199999999997
 21
180.548
 31
0.0
  0
LINE
  5
F9
  8
0
 62
     7
 10
37.062199999999997
 20
180.548
 30
0.0
 11
37.654800000000002
 21
182.75999999999999
 31
0.0
  0
LINE
  5
FA
  8
0
 62
     7
 10
37.654800000000002
 20
182.75999999999999
 30
0.0
 11
36.469700000000003
 21
182.75999999999999
 31
0.0
  0
LINE
  5
FB
  8
0
 62
     7
 10
37.640300000000003
 20
224.33699999999999
 30
0.0
 11
37.047800000000002
 21
226.54900000000001
 31
0.0
  0
LINE
  5
FC
  8
0
 62
     7
 10
37.047800000000002
 20
226.54900000000001
 30
0.0
 11
36.455199999999998
 21
224.33699999999999
 31
0.0
  0
LINE
  5
FD
  8
0
 62
     7
 10
36.455199999999998
 20
224.33699999999999
 30
0.0
 11
37.640300000000003
 21
224.33699999999999
 31
0.0
  0
LINE
  5
FE
  8
0
 62
     7
 10
37.055300000000003
 20
180.54900000000001
 30
0.0
 11
37.055300000000003
 21
226.548
 31
0.0
  0
LINE
  5
FF
  8
0
 62
     7
 10
50.55019999999999
 20
181.54900000000001
 30
0.0
 11
42.446299999999987
 21
181.54900000000001
 31
0.0
  0
LINE
  5
100
  8
0
 62
     7
 10
50.55019999999999
 20
225.54900000000001
 30
0.0
 11
42.446299999999987
 21
225.54900000000001
 31
0.0
  0
LINE
  5
101
  8
0
 62
     7
 10
51.250300000000003
 20
226.54900000000001
 30
0.0
 11
36.3553
 21
226.54900000000001
 31
0.0
  0
LINE
  5
102
  8
0
 62
     7
 10
51.250300000000003
 20
180.54900000000001
 30
0.0
 11
36.3553
 21
180.54900000000001
 31
0.0
  0
ARC
  5
103
  8
0
  6
AIGENLINE002
 62
     7
 10
147.116197
 20
121.661376
 30
0.0
 40
0.251334
 50
90.088527999999997
 51
127.402432
  0
ARC
  5
104
  8
0
  6
AIGENLINE002
 62
     7
 10
164.93031499999989
 20
129.15490399999999
 30
0.0
 40
0.255779
 50
90.728038999999995
 51
150.69627500000001
  0
ARC
  5
105
  8
0
  6
AIGENLINE002
 62
     7
 10
136.324377
 20
144.572542
 30
0.0
 40
32.240462999999998
 50
328.24967400000003
 51
331.68461000000002
  0
ARC
  5
106
  8
0
  6
AIGENLINE002
 62
     7
 10
147.98646600000001
 20
137.44313199999999
 30
0.0
 40
18.572133999999998
 50
322.368854
 51
328.02038499999998
  0
ARC
  5
107
  8
0
  6
AIGENLINE002
 62
     7
 10
153.41207199999999
 20
133.348569
 30
0.0
 40
11.775449999999999
 50
314.16189400000002
 51
322.02814100000001
  0
ARC
  5
108
  8
0
  6
AIGENLINE002
 62
     7
 10
155.652253
 20
131.12705399999999
 30
0.0
 40
8.6212889999999991
 50
287.39213999999998
 51
313.767493
  0
ARC
  5
109
  8
0
  6
AIGENLINE002
 62
     7
 10
154.545062
 20
134.31641400000001
 30
0.0
 40
11.996231
 50
282.09024699999998
 51
287.88524100000001
  0
ARC
  5
10A
  8
0
  6
AIGENLINE002
 62
     7
 10
153.38340500000001
 20
139.41304099999999
 30
0.0
 40
17.223255999999999
 50
277.39707399999998
 51
282.31776100000002
  0
ARC
  5
10B
  8
0
  6
AIGENLINE002
 62
     7
 10
151.93641299999999
 20
149.575289
 30
0.0
 40
27.487515999999999
 50
274.93431299999997
 51
277.66099200000002
  0
ARC
  5
10C
  8
0
  6
AIGENLINE002
 62
     7
 10
150.502848
 20
165.323217
 30
0.0
 40
43.300449999999998
 50
273.12906299999997
 51
275.031859
  0
ARC
  5
10D
  8
0
  6
AIGENLINE002
 62
     7
 10
148.55020300000001
 20
199.269913
 30
0.0
 40
77.303181000000009
 50
271.71548300000001
 51
273.20077099999997
  0
ARC
  5
10E
  8
0
  6
AIGENLINE002
 62
     7
 10
145.29359199999999
 20
296.94921900000003
 30
0.0
 40
175.03651300000001
 50
271.31537400000002
 51
271.82383299999998
  0
ARC
  5
10F
  8
0
  6
AIGENLINE002
 62
     7
 10
136.30380299999999
 20
688.96067400000004
 30
0.0
 40
567.15103299999998
 50
271.09234600000002
 51
271.31422600000002
  0
ARC
  5
110
  8
0
  6
AIGENLINE002
 62
     7
 10
145.33298600000001
 20
120.285201
 30
0.0
 40
0.254975
 50
128.139365
 51
179.450185
  0
LINE
  5
111
  8
0
  6
AIGENLINE002
 62
     7
 10
145.17599999999999
 20
120.486
 30
0.0
 11
146.964
 21
121.861
 31
0.0
  0
LINE
  5
112
  8
0
  6
AIGENLINE002
 62
     7
 10
142.77799999999999
 20
121.911
 30
0.0
 11
147.02799999999999
 21
121.911
 31
0.0
  0
LINE
  5
113
  8
0
  6
AIGENLINE002
 62
     7
 10
145.078
 20
119.411
 30
0.0
 11
145.078
 21
120.288
 31
0.0
  0
LINE
  5
114
  8
0
  6
AIGENLINE002
 62
     7
 10
142.81
 20
120.411
 30
0.0
 11
145.11000000000001
 21
120.411
 31
0.0
  0
ARC
  5
115
  8
0
  6
AIGENLINE002
 62
     7
 10
147.108509
 20
119.58008599999999
 30
0.0
 40
0.8311149999999999
 50
92.109700000000004
 51
177.89027100000001
  0
LINE
  5
116
  8
0
  6
AIGENLINE002
 62
     7
 10
148.178
 20
120.411
 30
0.0
 11
147.078
 21
120.411
 31
0.0
  0
ARC
  5
117
  8
0
  6
AIGENLINE002
 62
     7
 10
138.43957599999999
 20
121.66034000000001
 30
0.0
 40
0.25237
 50
52.677231000000013
 51
89.910506000000012
  0
ARC
  5
118
  8
0
  6
AIGENLINE002
 62
     7
 10
120.62580699999999
 20
129.15548899999999
 30
0.0
 40
0.255194
 50
29.226838999999998
 51
89.269850000000005
  0
ARC
  5
119
  8
0
  6
AIGENLINE002
 62
     7
 10
149.24874700000001
 20
144.58380500000001
 30
0.0
 40
32.261074000000001
 50
208.318409
 51
211.751216
  0
ARC
  5
11A
  8
0
  6
AIGENLINE002
 62
     7
 10
137.570886
 20
137.44469900000001
 30
0.0
 40
18.574234000000001
 50
211.98129
 51
217.63227699999999
  0
ARC
  5
11B
  8
0
  6
AIGENLINE002
 62
     7
 10
132.14308399999999
 20
133.34796700000001
 30
0.0
 40
11.774486
 50
217.971823
 51
225.83875
  0
ARC
  5
11C
  8
0
  6
AIGENLINE002
 62
     7
 10
129.90428499999999
 20
131.128073
 30
0.0
 40
8.6224530000000001
 50
226.23424299999999
 51
252.60584499999999
  0
ARC
  5
11D
  8
0
  6
AIGENLINE002
 62
     7
 10
131.01098500000001
 20
134.31688500000001
 30
0.0
 40
11.996725
 50
252.114791
 51
257.90949699999999
  0
ARC
  5
11E
  8
0
  6
AIGENLINE002
 62
     7
 10
132.17155299999999
 20
139.40741700000001
 30
0.0
 40
17.217563999999999
 50
257.68128300000001
 51
262.60349300000001
  0
ARC
  5
11F
  8
0
  6
AIGENLINE002
 62
     7
 10
133.619022
 20
149.57113699999999
 30
0.0
 40
27.483343999999999
 50
262.33873999999997
 51
265.065788
  0
ARC
  5
120
  8
0
  6
AIGENLINE002
 62
     7
 10
135.0532199999999
 20
165.32601600000001
 30
0.0
 40
43.303258999999997
 50
264.96817599999991
 51
266.87082000000009
  0
ARC
  5
121
  8
0
  6
AIGENLINE002
 62
     7
 10
137.00567100000001
 20
199.271096
 30
0.0
 40
77.304366000000002
 50
266.79925100000003
 51
268.28450800000002
  0
ARC
  5
122
  8
0
  6
AIGENLINE002
 62
     7
 10
140.26199
 20
296.939211
 30
0.0
 40
175.02650299999999
 50
268.176154
 51
268.68463500000001
  0
ARC
  5
123
  8
0
  6
AIGENLINE002
 62
     7
 10
149.25197600000001
 20
688.96067400000004
 30
0.0
 40
567.15103299999998
 50
268.68579399999999
 51
268.90767299999999
  0
ARC
  5
124
  8
0
  6
AIGENLINE002
 62
     7
 10
140.223671
 20
120.28519
 30
0.0
 40
0.254443
 50
0.5533130000000001
 51
52.017415
  0
LINE
  5
125
  8
0
  6
AIGENLINE002
 62
     7
 10
140.38
 20
120.486
 30
0.0
 11
138.59299999999999
 21
121.861
 31
0.0
  0
LINE
  5
126
  8
0
  6
AIGENLINE002
 62
     7
 10
142.77799999999999
 20
121.911
 30
0.0
 11
138.52799999999999
 21
121.911
 31
0.0
  0
LINE
  5
127
  8
0
  6
AIGENLINE002
 62
     7
 10
140.47800000000001
 20
119.411
 30
0.0
 11
140.47800000000001
 21
120.288
 31
0.0
  0
LINE
  5
128
  8
0
  6
AIGENLINE002
 62
     7
 10
142.74600000000001
 20
120.411
 30
0.0
 11
140.446
 21
120.411
 31
0.0
  0
ARC
  5
129
  8
0
  6
AIGENLINE002
 62
     7
 10
138.44727
 20
119.58008599999999
 30
0.0
 40
0.8311159999999999
 50
2.109726999999999
 51
87.890263000000004
  0
LINE
  5
12A
  8
0
  6
AIGENLINE002
 62
     7
 10
137.37799999999999
 20
120.411
 30
0.0
 11
138.47800000000001
 21
120.411
 31
0.0
  0
LINE
  5
12B
  8
0
  6
AIGENLINE002
 62
     7
 10
139.27799999999999
 20
119.411
 30
0.0
 11
139.27799999999999
 21
119.611
 31
0.0
  0
ARC
  5
12C
  8
0
 62
     7
 10
160.29441600000001
 20
203.54924099999999
 30
0.0
 40
0.5002310000000002
 50
270.00002000000001
 51
359.99999000000003
  0
ARC
  5
12D
  8
0
 62
     7
 10
160.31375499999999
 20
203.56822299999999
 30
0.0
 40
0.5195720000000001
 50
182.09365299999999
 51
267.86690299999998
  0
ARC
  5
12E
  8
0
 62
     7
 10
160.31373099999999
 20
203.52992599999999
 30
0.0
 40
0.5195610000000001
 50
92.130477999999997
 51
177.86949300000001
  0
ARC
  5
12F
  8
0
 62
     7
 10
160.27511999999999
 20
203.52958799999999
 30
0.0
 40
0.519898
 50
2.166456999999999
 51
87.873007000000015
  0
LINE
  5
130
  8
0
  6
AIGENLINE001
 62
     7
 10
160.27799999999999
 20
205.34899999999999
 30
0.0
 11
160.27799999999999
 21
201.749
 31
0.0
  0
ARC
  5
131
  8
0
 62
     7
 10
125.274772
 20
203.568547
 30
0.0
 40
0.5199090000000001
 50
272.16755899999998
 51
357.87192499999998
  0
ARC
  5
132
  8
0
 62
     7
 10
125.294436
 20
203.54924099999999
 30
0.0
 40
0.5002310000000002
 50
179.99996999999999
 51
270.00002000000001
  0
ARC
  5
133
  8
0
 62
     7
 10
125.313418
 20
203.52990199999999
 30
0.0
 40
0.519573
 50
92.093641000000005
 51
177.86685600000001
  0
ARC
  5
134
  8
0
 62
     7
 10
125.275121
 20
203.52992599999999
 30
0.0
 40
0.5195610000000001
 50
2.130487
 51
87.869502999999995
  0
LINE
  5
135
  8
0
  6
AIGENLINE001
 62
     7
 10
125.27800000000001
 20
205.34899999999999
 30
0.0
 11
125.27800000000001
 21
201.749
 31
0.0
  0
ARC
  5
136
  8
0
  6
AIGENLINE002
 62
     7
 10
161.08454800000001
 20
127.25297399999999
 30
0.0
 40
0.8423440000000001
 50
213.40937700000001
 51
269.56690800000001
  0
ARC
  5
137
  8
0
  6
AIGENLINE002
 62
     7
 10
161.54568
 20
127.57656799999999
 30
0.0
 40
1.405546999999999
 50
197.21196699999999
 51
214.070403
  0
ARC
  5
138
  8
0
  6
AIGENLINE002
 62
     7
 10
162.58562699999999
 20
127.943214
 30
0.0
 40
2.5077759999999989
 50
180.74383899999989
 51
198.182976
  0
LINE
  5
139
  8
0
  6
AIGENLINE002
 62
     7
 10
155.47800000000001
 20
127.911
 30
0.0
 11
160.078
 21
127.911
 31
0.0
  0
LINE
  5
13A
  8
0
 62
     7
 10
142.52799999999999
 20
113.411
 30
0.0
 11
142.77799999999999
 21
113.411
 31
0.0
  0
LINE
  5
13B
  8
0
 62
     7
 10
142.52799999999999
 20
115.91
 30
0.0
 11
142.52799999999999
 21
113.411
 31
0.0
  0
LINE
  5
13C
  8
0
 62
     7
 10
141.87799999999999
 20
116.31100000000001
 30
0.0
 11
141.87799999999999
 21
116.411
 31
0.0
  0
LINE
  5
13D
  8
0
 62
     7
 10
142.02799999999999
 20
115.91
 30
0.0
 11
142.77799999999999
 21
115.91
 31
0.0
  0
LINE
  5
13E
  8
0
 62
     7
 10
141.87799999999999
 20
116.31
 30
0.0
 11
142.77799999999999
 21
116.31
 31
0.0
  0
LINE
  5
13F
  8
0
 62
     7
 10
141.87799999999999
 20
116.411
 30
0.0
 11
142.77799999999999
 21
116.411
 31
0.0
  0
LINE
  5
140
  8
0
 62
     7
 10
142.02799999999999
 20
116.31
 30
0.0
 11
142.02799999999999
 21
115.91
 31
0.0
  0
LINE
  5
141
  8
0
 62
     7
 10
142.52799999999999
 20
119.411
 30
0.0
 11
142.52799999999999
 21
116.411
 31
0.0
  0
LINE
  5
142
  8
0
 62
     7
 10
143.02799999999999
 20
113.411
 30
0.0
 11
142.77799999999999
 21
113.411
 31
0.0
  0
LINE
  5
143
  8
0
 62
     7
 10
143.02799999999999
 20
115.91
 30
0.0
 11
143.02799999999999
 21
113.411
 31
0.0
  0
LINE
  5
144
  8
0
 62
     7
 10
143.678
 20
116.31100000000001
 30
0.0
 11
143.678
 21
116.411
 31
0.0
  0
LINE
  5
145
  8
0
 62
     7
 10
143.52799999999999
 20
115.91
 30
0.0
 11
142.77799999999999
 21
115.91
 31
0.0
  0
LINE
  5
146
  8
0
 62
     7
 10
143.678
 20
116.31
 30
0.0
 11
142.77799999999999
 21
116.31
 31
0.0
  0
LINE
  5
147
  8
0
 62
     7
 10
143.678
 20
116.411
 30
0.0
 11
142.77799999999999
 21
116.411
 31
0.0
  0
LINE
  5
148
  8
0
 62
     7
 10
143.52799999999999
 20
116.31
 30
0.0
 11
143.52799999999999
 21
115.91
 31
0.0
  0
LINE
  5
149
  8
0
 62
     7
 10
143.02799999999999
 20
119.411
 30
0.0
 11
143.02799999999999
 21
116.411
 31
0.0
  0
ARC
  5
14A
  8
0
 62
     7
 10
165.536663
 20
129.158782
 30
0.0
 40
0.241352
 50
343.16654699999998
 51
0.419022
  0
ARC
  5
14B
  8
0
 62
     7
 10
165.51823899999999
 20
129.15090599999999
 30
0.0
 40
0.259949
 50
2.125440999999999
 51
87.795575000000014
  0
LINE
  5
14C
  8
0
 62
     7
 10
162.77799999999999
 20
119.411
 30
0.0
 11
165.768
 21
129.089
 31
0.0
  0
LINE
  5
14D
  8
0
 62
     7
 10
142.77799999999999
 20
119.411
 30
0.0
 11
162.77799999999999
 21
119.411
 31
0.0
  0
LINE
  5
14E
  8
0
 62
     7
 10
142.77799999999999
 20
129.411
 30
0.0
 11
165.52799999999999
 21
129.411
 31
0.0
  0
ARC
  5
14F
  8
0
 62
     7
 10
120.02736899999999
 20
129.16112200000001
 30
0.0
 40
0.2496
 50
180.1319639999999
 51
196.82183000000001
  0
ARC
  5
150
  8
0
 62
     7
 10
120.027886
 20
129.16054700000001
 30
0.0
 40
0.250116
 50
90.0
 51
179.99996999999999
  0
LINE
  5
151
  8
0
  6
AIGENLINE001
 62
     7
 10
157.77799999999999
 20
130.411
 30
0.0
 11
157.77799999999999
 21
124.801
 31
0.0
  0
LINE
  5
152
  8
0
  6
AIGENLINE001
 62
     7
 10
142.77799999999999
 20
131.411
 30
0.0
 11
142.77799999999999
 21
112.107
 31
0.0
  0
LINE
  5
153
  8
0
 62
     7
 10
122.77800000000001
 20
119.411
 30
0.0
 11
119.788
 21
129.089
 31
0.0
  0
LINE
  5
154
  8
0
 62
     7
 10
142.77799999999999
 20
119.411
 30
0.0
 11
122.77800000000001
 21
119.411
 31
0.0
  0
LINE
  5
155
  8
0
 62
     7
 10
142.77799999999999
 20
129.411
 30
0.0
 11
120.02800000000001
 21
129.411
 31
0.0
  0
ARC
  5
156
  8
0
  6
AIGENLINE002
 62
     7
 10
153.41915900000001
 20
126.195353
 30
0.0
 40
1.66483
 50
309.49569700000001
 51
324.32728300000002
  0
ARC
  5
157
  8
0
  6
AIGENLINE002
 62
     7
 10
152.79409000000001
 20
126.675212
 30
0.0
 40
2.4525739999999998
 50
323.73606000000001
 51
336.47930600000001
  0
ARC
  5
158
  8
0
  6
AIGENLINE002
 62
     7
 10
151.45949200000001
 20
127.305179
 30
0.0
 40
3.9279540000000002
 50
335.82267300000001
 51
345.88162
  0
ARC
  5
159
  8
0
  6
AIGENLINE002
 62
     7
 10
149.35467399999999
 20
127.892889
 30
0.0
 40
6.112811999999999
 50
345.35168599999997
 51
353.53626100000002
  0
ARC
  5
15A
  8
0
  6
AIGENLINE002
 62
     7
 10
148.400643
 20
128.052379
 30
0.0
 40
7.078917999999998
 50
353.12285200000002
 51
358.85285599999997
  0
ARC
  5
15B
  8
0
  6
AIGENLINE002
 62
     7
 10
85.242827999999989
 20
126.194267
 30
0.0
 40
1.663252999999999
 50
309.48862800000001
 51
324.33435200000002
  0
ARC
  5
15C
  8
0
  6
AIGENLINE002
 62
     7
 10
84.616597999999996
 20
126.675212
 30
0.0
 40
2.4525739999999998
 50
323.73606000000001
 51
336.47930600000001
  0
ARC
  5
15D
  8
0
  6
AIGENLINE002
 62
     7
 10
83.281998999999985
 20
127.305179
 30
0.0
 40
3.9279540000000002
 50
335.82267300000001
 51
345.88162
  0
ARC
  5
15E
  8
0
  6
AIGENLINE002
 62
     7
 10
81.173180000000002
 20
127.893635
 30
0.0
 40
6.116873
 50
345.35440699999998
 51
353.53354000000007
  0
ARC
  5
15F
  8
0
  6
AIGENLINE002
 62
     7
 10
80.223150000000004
 20
128.052379
 30
0.0
 40
7.078917999999998
 50
353.12285200000002
 51
358.85285599999997
  0
ARC
  5
160
  8
0
  6
AIGENLINE002
 62
     7
 10
92.907054999999986
 20
127.25297399999999
 30
0.0
 40
0.8423440000000001
 50
213.40937700000001
 51
269.56690800000001
  0
ARC
  5
161
  8
0
  6
AIGENLINE002
 62
     7
 10
93.368187000000006
 20
127.57656799999999
 30
0.0
 40
1.405546999999999
 50
197.21196699999999
 51
214.070403
  0
ARC
  5
162
  8
0
  6
AIGENLINE002
 62
     7
 10
94.40813399999999
 20
127.943214
 30
0.0
 40
2.5077759999999989
 50
180.74383899999989
 51
198.182976
  0
LINE
  5
163
  8
0
  6
AIGENLINE002
 62
     7
 10
87.300599999999989
 20
127.911
 30
0.0
 11
91.900599999999997
 21
127.911
 31
0.0
  0
LINE
  5
164
  8
0
 62
     7
 10
91.8506
 20
113.411
 30
0.0
 11
92.100699999999989
 21
113.411
 31
0.0
  0
LINE
  5
165
  8
0
 62
     7
 10
91.8506
 20
115.91
 30
0.0
 11
91.8506
 21
113.411
 31
0.0
  0
LINE
  5
166
  8
0
 62
     7
 10
91.200500000000005
 20
116.31100000000001
 30
0.0
 11
91.200500000000005
 21
116.411
 31
0.0
  0
LINE
  5
167
  8
0
 62
     7
 10
91.350700000000003
 20
115.91
 30
0.0
 11
92.100699999999989
 21
115.91
 31
0.0
  0
LINE
  5
168
  8
0
 62
     7
 10
91.200500000000005
 20
116.31
 30
0.0
 11
92.100699999999989
 21
116.31
 31
0.0
  0
LINE
  5
169
  8
0
 62
     7
 10
91.200500000000005
 20
116.411
 30
0.0
 11
92.100699999999989
 21
116.411
 31
0.0
  0
LINE
  5
16A
  8
0
 62
     7
 10
91.350700000000003
 20
116.31
 30
0.0
 11
91.350700000000003
 21
115.91
 31
0.0
  0
LINE
  5
16B
  8
0
 62
     7
 10
91.8506
 20
119.411
 30
0.0
 11
91.8506
 21
116.411
 31
0.0
  0
LINE
  5
16C
  8
0
 62
     7
 10
92.350499999999997
 20
113.411
 30
0.0
 11
92.100699999999989
 21
113.411
 31
0.0
  0
LINE
  5
16D
  8
0
 62
     7
 10
92.350499999999997
 20
115.91
 30
0.0
 11
92.350499999999997
 21
113.411
 31
0.0
  0
LINE
  5
16E
  8
0
 62
     7
 10
93.000600000000006
 20
116.31100000000001
 30
0.0
 11
93.000600000000006
 21
116.411
 31
0.0
  0
LINE
  5
16F
  8
0
 62
     7
 10
92.850700000000003
 20
115.91
 30
0.0
 11
92.100699999999989
 21
115.91
 31
0.0
  0
LINE
  5
170
  8
0
 62
     7
 10
93.000600000000006
 20
116.31
 30
0.0
 11
92.100699999999989
 21
116.31
 31
0.0
  0
LINE
  5
171
  8
0
 62
     7
 10
93.000600000000006
 20
116.411
 30
0.0
 11
92.100699999999989
 21
116.411
 31
0.0
  0
LINE
  5
172
  8
0
 62
     7
 10
92.850700000000003
 20
116.31
 30
0.0
 11
92.850700000000003
 21
115.91
 31
0.0
  0
LINE
  5
173
  8
0
 62
     7
 10
92.350499999999997
 20
119.411
 30
0.0
 11
92.350499999999997
 21
116.411
 31
0.0
  0
LINE
  5
174
  8
0
  6
AIGENLINE001
 62
     7
 10
92.100699999999989
 20
120.011
 30
0.0
 11
92.100699999999989
 21
112.461
 31
0.0
  0
ARC
  5
175
  8
0
 62
     7
 10
97.359170999999989
 20
129.158782
 30
0.0
 40
0.241352
 50
343.16654699999998
 51
0.419022
  0
ARC
  5
176
  8
0
 62
     7
 10
97.340746999999993
 20
129.15090599999999
 30
0.0
 40
0.259949
 50
2.125440999999999
 51
87.795575000000014
  0
LINE
  5
177
  8
0
 62
     7
 10
94.600499999999997
 20
119.411
 30
0.0
 11
97.590199999999996
 21
129.089
 31
0.0
  0
LINE
  5
178
  8
0
 62
     7
 10
74.6006
 20
119.411
 30
0.0
 11
94.600499999999997
 21
119.411
 31
0.0
  0
LINE
  5
179
  8
0
 62
     7
 10
74.6006
 20
129.411
 30
0.0
 11
97.350700000000003
 21
129.411
 31
0.0
  0
LINE
  5
17A
  8
0
 62
     7
 10
57.350499999999997
 20
113.411
 30
0.0
 11
57.1004
 21
113.411
 31
0.0
  0
LINE
  5
17B
  8
0
 62
     7
 10
57.350499999999997
 20
115.91
 30
0.0
 11
57.350499999999997
 21
113.411
 31
0.0
  0
LINE
  5
17C
  8
0
 62
     7
 10
58.000300000000003
 20
116.31100000000001
 30
0.0
 11
58.000300000000003
 21
116.411
 31
0.0
  0
LINE
  5
17D
  8
0
 62
     7
 10
57.8504
 20
115.91
 30
0.0
 11
57.1004
 21
115.91
 31
0.0
  0
LINE
  5
17E
  8
0
 62
     7
 10
58.000300000000003
 20
116.31
 30
0.0
 11
57.1004
 21
116.31
 31
0.0
  0
LINE
  5
17F
  8
0
 62
     7
 10
58.000300000000003
 20
116.411
 30
0.0
 11
57.1004
 21
116.411
 31
0.0
  0
LINE
  5
180
  8
0
 62
     7
 10
57.8504
 20
116.31
 30
0.0
 11
57.8504
 21
115.91
 31
0.0
  0
LINE
  5
181
  8
0
 62
     7
 10
57.350499999999997
 20
119.411
 30
0.0
 11
57.350499999999997
 21
116.411
 31
0.0
  0
LINE
  5
182
  8
0
 62
     7
 10
56.850299999999997
 20
113.411
 30
0.0
 11
57.1004
 21
113.411
 31
0.0
  0
LINE
  5
183
  8
0
 62
     7
 10
56.850299999999997
 20
115.91
 30
0.0
 11
56.850299999999997
 21
113.411
 31
0.0
  0
LINE
  5
184
  8
0
 62
     7
 10
56.200200000000002
 20
116.31100000000001
 30
0.0
 11
56.200200000000002
 21
116.411
 31
0.0
  0
LINE
  5
185
  8
0
 62
     7
 10
56.3504
 20
115.91
 30
0.0
 11
57.1004
 21
115.91
 31
0.0
  0
LINE
  5
186
  8
0
 62
     7
 10
56.200200000000002
 20
116.31
 30
0.0
 11
57.1004
 21
116.31
 31
0.0
  0
LINE
  5
187
  8
0
 62
     7
 10
56.200200000000002
 20
116.411
 30
0.0
 11
57.1004
 21
116.411
 31
0.0
  0
LINE
  5
188
  8
0
 62
     7
 10
56.3504
 20
116.31
 30
0.0
 11
56.3504
 21
115.91
 31
0.0
  0
LINE
  5
189
  8
0
 62
     7
 10
56.850299999999997
 20
119.411
 30
0.0
 11
56.850299999999997
 21
116.411
 31
0.0
  0
LINE
  5
18A
  8
0
  6
AIGENLINE001
 62
     7
 10
57.1004
 20
120.011
 30
0.0
 11
57.1004
 21
112.461
 31
0.0
  0
ARC
  5
18B
  8
0
 62
     7
 10
51.849876000000002
 20
129.16112200000001
 30
0.0
 40
0.2496
 50
180.1319639999999
 51
196.82183000000001
  0
ARC
  5
18C
  8
0
 62
     7
 10
51.85039299999999
 20
129.16054700000001
 30
0.0
 40
0.250116
 50
90.0
 51
179.99996999999999
  0
ARC
  5
18D
  8
0
 62
     7
 10
89.533769000000007
 20
218.61612299999999
 30
0.0
 40
1.8181889999999989
 50
272.10680300000001
 51
357.89320700000002
  0
ARC
  5
18E
  8
0
 62
     7
 10
89.668230000000008
 20
218.61690200000001
 30
0.0
 40
1.818997
 50
182.13044600000001
 51
267.86958299999998
  0
ARC
  5
18F
  8
0
 62
     7
 10
89.667842000000007
 20
218.48204999999999
 30
0.0
 40
1.818595
 50
92.118660000000006
 51
177.88131000000001
  0
ARC
  5
190
  8
0
 62
     7
 10
89.532989999999984
 20
218.481662
 30
0.0
 40
1.818997
 50
2.1304270000000001
 51
87.869563000000014
  0
ARC
  5
191
  8
0
 62
     7
 10
89.600609000000006
 20
218.54928200000001
 30
0.0
 40
2.2999610000000001
 50
270.00002000000001
 51
359.99999000000003
  0
ARC
  5
192
  8
0
 62
     7
 10
89.600609000000006
 20
218.54928200000001
 30
0.0
 40
2.29996
 50
179.99996999999999
 51
270.00002000000001
  0
ARC
  5
193
  8
0
 62
     7
 10
89.600610000000003
 20
218.54928200000001
 30
0.0
 40
2.2999610000000001
 50
90.0
 51
179.99996999999999
  0
ARC
  5
194
  8
0
 62
     7
 10
89.600609000000006
 20
218.54928200000001
 30
0.0
 40
2.2999610000000001
 50
0.00001
 51
89.999980000000008
  0
ARC
  5
195
  8
0
  6
AIGENLINE002
 62
     7
 10
142.79459800000001
 20
203.54924199999999
 30
0.0
 40
2.2999610000000001
 50
270.00002000000001
 51
359.99999000000003
  0
ARC
  5
196
  8
0
  6
AIGENLINE002
 62
     7
 10
142.79442599999999
 20
203.54941299999999
 30
0.0
 40
2.3001320000000001
 50
180.00430099999991
 51
270.00431099999997
  0
ARC
  5
197
  8
0
  6
AIGENLINE002
 62
     7
 10
142.79442700000001
 20
203.549069
 30
0.0
 40
2.3001330000000002
 50
89.995709000000005
 51
179.995679
  0
ARC
  5
198
  8
0
  6
AIGENLINE002
 62
     7
 10
142.79459800000001
 20
203.54924099999999
 30
0.0
 40
2.2999610000000001
 50
0.00001
 51
89.999980000000008
  0
ARC
  5
199
  8
0
  6
AIGENLINE002
 62
     7
 10
142.79442499999999
 20
203.54907
 30
0.0
 40
4.25007
 50
270.002342
 51
0.002312
  0
ARC
  5
19A
  8
0
  6
AIGENLINE002
 62
     7
 10
142.79459800000001
 20
203.54924099999999
 30
0.0
 40
4.2502399999999989
 50
179.99996999999999
 51
270.00002000000001
  0
ARC
  5
19B
  8
0
  6
AIGENLINE002
 62
     7
 10
142.79442700000001
 20
203.54906800000001
 30
0.0
 40
4.25007
 50
89.997677999999993
 51
179.997648
  0
ARC
  5
19C
  8
0
  6
AIGENLINE002
 62
     7
 10
142.79459800000001
 20
203.54924099999999
 30
0.0
 40
4.2498969999999989
 50
0.00001
 51
89.999980000000008
  0
LINE
  5
19D
  8
0
  6
AIGENLINE001
 62
     7
 10
123.77800000000001
 20
203.54900000000001
 30
0.0
 11
161.77799999999999
 21
203.54900000000001
 31
0.0
  0
LINE
  5
19E
  8
0
  6
AIGENLINE001
 62
     7
 10
142.77799999999999
 20
224.04900000000001
 30
0.0
 11
142.77799999999999
 21
191.54900000000001
 31
0.0
  0
ARC
  5
19F
  8
0
 62
     7
 10
74.616932999999989
 20
203.54941400000001
 30
0.0
 40
2.3001330000000002
 50
269.99572899999998
 51
359.995699
  0
ARC
  5
1A0
  8
0
 62
     7
 10
74.616760999999997
 20
203.54924099999999
 30
0.0
 40
2.29996
 50
179.99996999999999
 51
270.00002000000001
  0
ARC
  5
1A1
  8
0
 62
     7
 10
74.616761999999994
 20
203.54924099999999
 30
0.0
 40
2.2999610000000001
 50
90.0
 51
179.99996999999999
  0
ARC
  5
1A2
  8
0
 62
     7
 10
74.616932999999989
 20
203.549069
 30
0.0
 40
2.3001330000000002
 50
0.004301
 51
90.004271000000017
  0
ARC
  5
1A3
  8
0
 62
     7
 10
74.616760999999997
 20
203.54924199999999
 30
0.0
 40
4.2502420000000001
 50
270.00002000000001
 51
359.99999000000003
  0
ARC
  5
1A4
  8
0
 62
     7
 10
74.616932999999989
 20
203.54906800000001
 30
0.0
 40
4.2500679999999988
 50
179.997648
 51
269.99769800000001
  0
ARC
  5
1A5
  8
0
 62
     7
 10
74.616761999999994
 20
203.54924099999999
 30
0.0
 40
4.2498969999999989
 50
90.0
 51
179.99996999999999
  0
ARC
  5
1A6
  8
0
 62
     7
 10
74.616932999999989
 20
203.54906800000001
 30
0.0
 40
4.25007
 50
0.002332
 51
90.002302
  0
ARC
  5
1A7
  8
0
 62
     7
 10
94.10062099999999
 20
184.048845
 30
0.0
 40
3.4998949999999991
 50
270.00002000000001
 51
359.99999000000003
  0
LINE
  5
1A8
  8
0
 62
     7
 10
94.100599999999986
 20
180.54900000000001
 30
0.0
 11
74.6006
 21
180.54900000000001
 31
0.0
  0
LINE
  5
1A9
  8
0
 62
     7
 10
97.600499999999997
 20
203.54900000000001
 30
0.0
 11
97.600499999999997
 21
184.04900000000001
 31
0.0
  0
ARC
  5
1AA
  8
0
 62
     7
 10
93.600735
 20
184.54907600000001
 30
0.0
 40
3.000008999999999
 50
270.00002000000001
 51
359.99999000000003
  0
LINE
  5
1AB
  8
0
 62
     7
 10
74.6006
 20
181.54900000000001
 30
0.0
 11
93.600700000000003
 21
181.54900000000001
 31
0.0
  0
LINE
  5
1AC
  8
0
 62
     7
 10
96.600700000000003
 20
184.54900000000001
 30
0.0
 11
96.600700000000003
 21
203.54900000000001
 31
0.0
  0
ARC
  5
1AD
  8
0
 62
     7
 10
94.10062099999999
 20
223.049294
 30
0.0
 40
3.4998949999999991
 50
0.00001
 51
89.999980000000008
  0
LINE
  5
1AE
  8
0
 62
     7
 10
97.600499999999997
 20
223.04900000000001
 30
0.0
 11
97.600499999999997
 21
203.54900000000001
 31
0.0
  0
LINE
  5
1AF
  8
0
 62
     7
 10
74.6006
 20
226.54900000000001
 30
0.0
 11
94.100599999999986
 21
226.54900000000001
 31
0.0
  0
ARC
  5
1B0
  8
0
 62
     7
 10
93.600735
 20
222.549407
 30
0.0
 40
3.000008999999999
 50
0.00001
 51
89.999980000000008
  0
LINE
  5
1B1
  8
0
 62
     7
 10
96.600700000000003
 20
203.54900000000001
 30
0.0
 11
96.600700000000003
 21
222.54900000000001
 31
0.0
  0
LINE
  5
1B2
  8
0
 62
     7
 10
93.600700000000003
 20
225.54900000000001
 30
0.0
 11
74.6006
 21
225.54900000000001
 31
0.0
  0
ARC
  5
1B3
  8
0
 62
     7
 10
55.100343999999993
 20
184.04901599999999
 30
0.0
 40
3.5000659999999999
 50
180.00282999999999
 51
270.00283999999999
  0
LINE
  5
1B4
  8
0
 62
     7
 10
55.10049999999999
 20
180.54900000000001
 30
0.0
 11
74.6006
 21
180.54900000000001
 31
0.0
  0
LINE
  5
1B5
  8
0
 62
     7
 10
51.60029999999999
 20
203.54900000000001
 30
0.0
 11
51.60029999999999
 21
184.04900000000001
 31
0.0
  0
ARC
  5
1B6
  8
0
 62
     7
 10
55.600403
 20
184.54907499999999
 30
0.0
 40
3.0000079999999998
 50
179.99996999999999
 51
270.00002000000001
  0
LINE
  5
1B7
  8
0
 62
     7
 10
74.6006
 20
181.54900000000001
 30
0.0
 11
55.6004
 21
181.54900000000001
 31
0.0
  0
LINE
  5
1B8
  8
0
 62
     7
 10
52.6004
 20
184.54900000000001
 30
0.0
 11
52.6004
 21
203.54900000000001
 31
0.0
  0
LINE
  5
1B9
  8
0
  6
AIGENLINE001
 62
     7
 10
86.600599999999986
 20
218.54900000000001
 30
0.0
 11
92.600600000000014
 21
218.54900000000001
 31
0.0
  0
LINE
  5
1BA
  8
0
  6
AIGENLINE001
 62
     7
 10
89.6006
 20
221.54900000000001
 30
0.0
 11
89.6006
 21
215.54900000000001
 31
0.0
  0
LINE
  5
1BB
  8
0
  6
AIGENLINE001
 62
     7
 10
89.6006
 20
130.411
 30
0.0
 11
89.6006
 21
124.801
 31
0.0
  0
LINE
  5
1BC
  8
0
  6
AIGENLINE001
 62
     7
 10
74.6006
 20
131.411
 30
0.0
 11
74.6006
 21
117.411
 31
0.0
  0
LINE
  5
1BD
  8
0
  6
AIGENLINE001
 62
     7
 10
49.6004
 20
203.54900000000001
 30
0.0
 11
99.600800000000007
 21
203.54900000000001
 31
0.0
  0
LINE
  5
1BE
  8
0
  6
AIGENLINE001
 62
     7
 10
74.6006
 20
228.54900000000001
 30
0.0
 11
74.6006
 21
178.54900000000001
 31
0.0
  0
ARC
  5
1BF
  8
0
 62
     7
 10
55.100172999999998
 20
223.049294
 30
0.0
 40
3.4998949999999991
 50
90.0
 51
179.99996999999999
  0
LINE
  5
1C0
  8
0
 62
     7
 10
51.60029999999999
 20
223.04900000000001
 30
0.0
 11
51.60029999999999
 21
203.54900000000001
 31
0.0
  0
LINE
  5
1C1
  8
0
 62
     7
 10
54.60029999999999
 20
119.411
 30
0.0
 11
51.611000000000011
 21
129.089
 31
0.0
  0
LINE
  5
1C2
  8
0
  6
AIGENLINE003
 62
     7
 10
99.394400000000005
 20
116.411
 30
0.0
 11
51.5505
 21
116.411
 31
0.0
  0
LINE
  5
1C3
  8
0
 62
     7
 10
74.6006
 20
119.411
 30
0.0
 11
54.60029999999999
 21
119.411
 31
0.0
  0
LINE
  5
1C4
  8
0
 62
     7
 10
74.6006
 20
129.411
 30
0.0
 11
51.8504
 21
129.411
 31
0.0
  0
LINE
  5
1C5
  8
0
 62
     7
 10
74.6006
 20
226.54900000000001
 30
0.0
 11
55.100200000000001
 21
226.54900000000001
 31
0.0
  0
ARC
  5
1C6
  8
0
 62
     7
 10
55.600403999999997
 20
222.549407
 30
0.0
 40
3.000008999999999
 50
90.0
 51
179.99996999999999
  0
LINE
  5
1C7
  8
0
 62
     7
 10
52.6004
 20
203.54900000000001
 30
0.0
 11
52.6004
 21
222.54900000000001
 31
0.0
  0
LINE
  5
1C8
  8
0
 62
     7
 10
55.6004
 20
225.54900000000001
 30
0.0
 11
74.6006
 21
225.54900000000001
 31
0.0
  0
TEXT
  5
1C9
  8
_________2
 62
     7
 10
28.83196533333334
 20
49.456400000000002
 30
0.0
 40
4.4979399999999989
  1
セラトレーディング株式会社
 41
0.5
 72
     1
 11
46.22399999999999
 21
49.456400000000002
 31
0.0
  0
TEXT
  5
1CA
  8
_________2
 62
     7
 10
29.525700000000001
 20
22.2272
 30
0.0
 40
3.9357000000000002
  1
重量9.4kg、オーバーフローなし
 41
0.5
  0
TEXT
  5
1CB
  8
_________2
 62
     7
 10
113.886
 20
45.745600000000003
 30
0.0
 40
3.9357000000000002
  1
スタルク1 洗面器
 41
0.5
  0
LINE
  5
1CC
  8
_________2
 62
     7
 10
105.239
 20
17.4285
 30
0.0
 11
105.239
 21
0.4485540000000001
 31
0.0
  0
LINE
  5
1CD
  8
_________2
 62
     7
 10
81.679900000000004
 20
51.324300000000001
 30
0.0
 11
79.493700000000004
 21
51.324300000000001
 31
0.0
  0
LINE
  5
1CE
  8
_________2
 62
     7
 10
82.172600000000017
 20
51.324300000000001
 30
0.0
 11
81.920400000000001
 21
51.324300000000001
 31
0.0
  0
LINE
  5
1CF
  8
_________2
 62
     7
 10
82.665199999999984
 20
51.324300000000001
 30
0.0
 11
85.590100000000007
 21
51.324300000000001
 31
0.0
  0
LINE
  5
1D0
  8
_________2
 62
     7
 10
82.172600000000017
 20
51.324300000000001
 30
0.0
 11
82.424800000000005
 21
51.324300000000001
 31
0.0
  0
LINE
  5
1D1
  8
_________2
 62
     7
 10
75.776399999999995
 20
51.324300000000001
 30
0.0
 11
73.589399999999998
 21
51.324300000000001
 31
0.0
  0
LINE
  5
1D2
  8
_________2
 62
     7
 10
76.2684
 20
51.324300000000001
 30
0.0
 11
76.016900000000007
 21
51.324300000000001
 31
0.0
  0
LINE
  5
1D3
  8
_________2
 62
     7
 10
76.2684
 20
51.817
 30
0.0
 11
76.2684
 21
54.003900000000002
 31
0.0
  0
LINE
  5
1D4
  8
_________2
 62
     7
 10
76.2684
 20
51.324300000000001
 30
0.0
 11
76.2684
 21
51.576900000000002
 31
0.0
  0
LINE
  5
1D5
  8
_________2
 62
     7
 10
76.76100000000001
 20
51.324300000000001
 30
0.0
 11
78.947999999999993
 21
51.324300000000001
 31
0.0
  0
LINE
  5
1D6
  8
_________2
 62
     7
 10
76.2684
 20
51.324300000000001
 30
0.0
 11
76.520499999999998
 21
51.324300000000001
 31
0.0
  0
LINE
  5
1D7
  8
_________2
 62
     7
 10
76.2684
 20
50.832399999999993
 30
0.0
 11
76.2684
 21
48.645699999999998
 31
0.0
  0
LINE
  5
1D8
  8
_________2
 62
     7
 10
76.2684
 20
51.324300000000001
 30
0.0
 11
76.2684
 21
51.072800000000001
 31
0.0
  0
LINE
  5
1D9
  8
_________2
 62
     7
 10
79.979399999999984
 20
50.104799999999997
 30
0.0
 11
85.157399999999996
 21
49.240000000000002
 31
0.0
  0
LINE
  5
1DA
  8
_________2
 62
     7
 10
79.979399999999984
 20
52.544199999999989
 30
0.0
 11
85.157399999999996
 21
53.409700000000001
 31
0.0
  0
LINE
  5
1DB
  8
_________2
 62
     7
 10
85.157399999999996
 20
49.240000000000002
 30
0.0
 11
85.157399999999996
 21
53.409700000000001
 31
0.0
  0
LINE
  5
1DC
  8
_________2
 62
     7
 10
79.979399999999984
 20
50.104799999999997
 30
0.0
 11
79.979399999999984
 21
52.544199999999989
 31
0.0
  0
ARC
  5
1DD
  8
_________2
 62
     7
 10
76.221766000000002
 20
51.277380999999998
 30
0.0
 40
1.267714
 50
2.1220840000000001
 51
87.894083999999992
  0
ARC
  5
1DE
  8
_________2
 62
     7
 10
76.315297000000001
 20
51.277734999999993
 30
0.0
 40
1.267374999999999
 50
92.122849999999985
 51
177.893304
  0
ARC
  5
1DF
  8
_________2
 62
     7
 10
76.315273000000005
 20
51.371245999999992
 30
0.0
 40
1.267363
 50
182.121815
 51
267.87821400000001
  0
ARC
  5
1E0
  8
_________2
 62
     7
 10
76.221461000000005
 20
51.371928999999987
 30
0.0
 40
1.2680439999999991
 50
272.11916400000001
 51
357.84848499999998
  0
ARC
  5
1E1
  8
_________2
 62
     7
 10
76.187981999999991
 20
51.244312999999998
 30
0.0
 40
2.1668310000000002
 50
2.1161439999999989
 51
87.874379000000005
  0
ARC
  5
1E2
  8
_________2
 62
     7
 10
76.348411999999996
 20
51.245334999999997
 30
0.0
 40
2.1657980000000001
 50
92.118487999999999
 51
177.909886
  0
ARC
  5
1E3
  8
_________2
 62
     7
 10
76.348354
 20
51.404327000000002
 30
0.0
 40
2.1657779999999991
 50
182.11700400000001
 51
267.88302499999998
  0
ARC
  5
1E4
  8
_________2
 62
     7
 10
76.188378999999983
 20
51.405009999999997
 30
0.0
 40
2.1664590000000001
 50
272.11546800000002
 51
357.86560400000002
  0
TEXT
  5
1E5
  8
_________2
 62
     7
 10
109.544
 20
23.199100000000001
 30
0.0
 40
3.0923400000000001
  1
図番
 41
0.5
  0
LINE
  5
1E6
  8
_________2
 62
     7
 10
108.489
 20
27.4283
 30
0.0
 11
188.49000000000001
 21
27.4283
 31
0.0
  0
TEXT
  5
1E7
  8
_________2
 62
     7
 10
109.544
 20
33.198900000000002
 30
0.0
 40
3.0923400000000001
  1
品番
 41
0.5
  0
TEXT
  5
1E8
  8
_________2
 62
     7
 10
109.544
 20
53.338000000000001
 30
0.0
 40
3.0923400000000001
  1
名称
 41
0.5
  0
TEXT
  5
1E9
  8
_________2
 62
     7
 10
94.569199999999995
 20
48.341900000000003
 30
0.0
 40
3.6545800000000002
  1
mm
 41
0.5
  0
TEXT
  5
1EA
  8
_________2
 62
     7
 10
90.582099999999997
 20
53.338000000000001
 30
0.0
 40
3.0923400000000001
  1
単位
 41
0.5
  0
TEXT
  5
1EB
  8
_________2
 62
     7
 10
90.582099999999997
 20
40.930399999999999
 30
0.0
 40
3.0923400000000001
  1
尺度
 41
0.5
  0
TEXT
  5
1EC
  8
_________2
 62
     7
 10
98.050299999999993
 20
34.7378
 30
0.0
 40
3.6545800000000002
  1
 10
 41
0.5
  0
TEXT
  5
1ED
  8
_________2
 62
     7
 10
95.330699999999993
 20
34.7378
 30
0.0
 40
3.6545800000000002
  1
 ：
 41
0.5
  0
TEXT
  5
1EE
  8
_________2
 62
     7
 10
92.441500000000005
 20
34.7378
 30
0.0
 40
3.6545800000000002
  1
1
 41
0.5
  0
TEXT
  5
1EF
  8
_________2
 62
     7
 10
137.327
 20
30.627800000000001
 30
0.0
 40
3.9357000000000002
  1
DV232246R-00
 41
0.5
  0
TEXT
  5
1F0
  8
_________2
 62
     7
 10
137.327
 20
20.626999999999999
 30
0.0
 40
3.9357000000000002
  1
DV232246R
 41
0.5
  0
TEXT
  5
1F1
  8
_________2
 62
     7
 10
41.6663
 20
35.123000000000012
 30
0.0
 40
3.6545800000000002
  1
早川
 41
0.5
  0
TEXT
  5
1F2
  8
_________2
 62
     7
 10
23.092300000000002
 20
35.123000000000012
 30
0.0
 40
3.6545800000000002
  1
石原
 41
0.5
  0
TEXT
  5
1F3
  8
_________2
 62
     7
 10
72.724699999999999
 20
34.7378
 30
0.0
 40
3.6545800000000002
  1
15.12.08
 41
0.5
  0
TEXT
  5
1F4
  8
_________2
 62
     7
 10
74.768500000000003
 20
40.930399999999999
 30
0.0
 40
3.0923400000000001
  1
付
 41
0.5
  0
TEXT
  5
1F5
  8
_________2
 62
     7
 10
71.209900000000005
 20
40.930399999999999
 30
0.0
 40
3.0923400000000001
  1
日
 41
0.5
  0
TEXT
  5
1F6
  8
_________2
 62
     7
 10
34.578299999999999
 20
40.930399999999999
 30
0.0
 40
3.0923400000000001
  1
検図
 41
0.5
  0
TEXT
  5
1F7
  8
_________2
 62
     7
 10
22.9602
 20
26.731000000000002
 30
0.0
 40
3.0923400000000001
  1
備考
 41
0.5
  0
TEXT
  5
1F8
  8
_________2
 62
     7
 10
22.9602
 20
40.930399999999999
 30
0.0
 40
3.0923400000000001
  1
製図
 41
0.5
  0
LINE
  5
1F9
  8
_________2
 62
     7
 10
188.49000000000001
 20
17.4285
 30
0.0
 11
21.988499999999998
 21
17.4285
 31
0.0
  0
LINE
  5
1FA
  8
_________2
 62
     7
 10
21.988499999999998
 20
17.4285
 30
0.0
 11
21.988499999999998
 21
280.43000000000001
 31
0.0
  0
LINE
  5
1FB
  8
_________2
 62
     7
 10
21.988499999999998
 20
280.43000000000001
 30
0.0
 11
188.49000000000001
 21
280.43000000000001
 31
0.0
  0
LINE
  5
1FC
  8
_________2
 62
     7
 10
188.49000000000001
 20
280.43000000000001
 30
0.0
 11
188.49000000000001
 21
17.4285
 31
0.0
  0
LINE
  5
1FD
  8
_________2
 62
     7
 10
70.488799999999998
 20
30.928899999999999
 30
0.0
 11
70.488799999999998
 21
57.428699999999992
 31
0.0
  0
LINE
  5
1FE
  8
_________2
 62
     7
 10
89.488600000000005
 20
30.928899999999999
 30
0.0
 11
89.488600000000005
 21
57.428699999999992
 31
0.0
  0
LINE
  5
1FF
  8
_________2
 62
     7
 10
108.489
 20
17.4285
 30
0.0
 11
108.489
 21
57.428699999999992
 31
0.0
  0
LINE
  5
200
  8
_________2
 62
     7
 10
33.488300000000002
 20
30.928899999999999
 30
0.0
 11
33.488300000000002
 21
44.928800000000003
 31
0.0
  0
LINE
  5
201
  8
_________2
 62
     7
 10
21.988499999999998
 20
30.928899999999999
 30
0.0
 11
108.489
 21
30.928899999999999
 31
0.0
  0
LINE
  5
202
  8
_________2
 62
     7
 10
21.988499999999998
 20
44.928800000000003
 30
0.0
 11
108.489
 21
44.928800000000003
 31
0.0
  0
LINE
  5
203
  8
_________2
 62
     7
 10
108.489
 20
37.428100000000001
 30
0.0
 11
188.49000000000001
 21
37.428100000000001
 31
0.0
  0
LINE
  5
204
  8
_________2
 62
     7
 10
21.988499999999998
 20
57.428699999999992
 30
0.0
 11
188.49000000000001
 21
57.428699999999992
 31
0.0
  0
LINE
  5
205
  8
_________2
 62
     7
 10
210.24000000000001
 20
148.93100000000001
 30
0.0
 11
188.489
 21
148.93100000000001
 31
0.0
  0
LINE
  5
206
  8
_________2
 62
     7
 10
105.239
 20
297.45100000000002
 30
0.0
 11
105.239
 21
280.43000000000001
 31
0.0
  0
LINE
  5
207
  8
_________2
 62
     7
 10
21.988499999999998
 20
148.93100000000001
 30
0.0
 11
0.238402
 21
148.93100000000001
 31
0.0
  0
ENDSEC
  0
EOF
