  0
SECTION
  2
HEADER
  9
$ACADVER
  1
AC1015
  9
$ACADMAINTVER
 70
     6
  9
$DWGCODEPAGE
  3
ANSI_932
  9
$INSBASE
 10
0.0
 20
0.0
 30
0.0
  9
$EXTMIN
 10
0.2341831664686538
 20
0.4447939761505495
 30
-0.0015258207003583
  9
$EXTMAX
 10
210.2447164532519
 20
297.4577781065027
 30
0.0000000349246037
  9
$LIMMIN
 10
0.0
 20
0.0
  9
$LIMMAX
 10
12.0
 20
9.0
  9
$ORTHOMODE
 70
     0
  9
$REGENMODE
 70
     1
  9
$FILLMODE
 70
     1
  9
$QTEXTMODE
 70
     0
  9
$MIRRTEXT
 70
     0
  9
$LTSCALE
 40
1.0
  9
$ATTMODE
 70
     1
  9
$TEXTSIZE
 40
0.2
  9
$TRACEWID
 40
0.05
  9
$TEXTSTYLE
  7
STANDARD
  9
$CLAYER
  8
0
  9
$CELTYPE
  6
Continuous
  9
$CECOLOR
 62
   256
  9
$CELTSCALE
 40
1.0
  9
$DISPSILH
 70
     0
  9
$DIMSCALE
 40
1.0
  9
$DIMASZ
 40
0.18
  9
$DIMEXO
 40
0.0625
  9
$DIMDLI
 40
0.38
  9
$DIMRND
 40
0.0
  9
$DIMDLE
 40
0.0
  9
$DIMEXE
 40
0.18
  9
$DIMTP
 40
0.0
  9
$DIMTM
 40
0.0
  9
$DIMTXT
 40
0.18
  9
$DIMCEN
 40
0.09
  9
$DIMTSZ
 40
0.0
  9
$DIMTOL
 70
     0
  9
$DIMLIM
 70
     0
  9
$DIMTIH
 70
     1
  9
$DIMTOH
 70
     1
  9
$DIMSE1
 70
     0
  9
$DIMSE2
 70
     0
  9
$DIMTAD
 70
     0
  9
$DIMZIN
 70
     0
  9
$DIMBLK
  1

  9
$DIMASO
 70
     1
  9
$DIMSHO
 70
     1
  9
$DIMPOST
  1

  9
$DIMAPOST
  1

  9
$DIMALT
 70
     0
  9
$DIMALTD
 70
     2
  9
$DIMALTF
 40
25.4
  9
$DIMLFAC
 40
1.0
  9
$DIMTOFL
 70
     0
  9
$DIMTVP
 40
0.0
  9
$DIMTIX
 70
     0
  9
$DIMSOXD
 70
     0
  9
$DIMSAH
 70
     0
  9
$DIMBLK1
  1

  9
$DIMBLK2
  1

  9
$DIMSTYLE
  2
Standard
  9
$DIMCLRD
 70
     0
  9
$DIMCLRE
 70
     0
  9
$DIMCLRT
 70
     0
  9
$DIMTFAC
 40
1.0
  9
$DIMGAP
 40
0.09
  9
$DIMJUST
 70
     0
  9
$DIMSD1
 70
     0
  9
$DIMSD2
 70
     0
  9
$DIMTOLJ
 70
     1
  9
$DIMTZIN
 70
     0
  9
$DIMALTZ
 70
     0
  9
$DIMALTTZ
 70
     0
  9
$DIMUPT
 70
     0
  9
$DIMDEC
 70
     4
  9
$DIMTDEC
 70
     4
  9
$DIMALTU
 70
     2
  9
$DIMALTTD
 70
     2
  9
$DIMTXSTY
  7
STANDARD
  9
$DIMAUNIT
 70
     0
  9
$DIMADEC
 70
     0
  9
$DIMALTRND
 40
0.0
  9
$DIMAZIN
 70
     0
  9
$DIMDSEP
 70
    46
  9
$DIMATFIT
 70
     3
  9
$DIMFRAC
 70
     0
  9
$DIMLDRBLK
  1

  9
$DIMLUNIT
 70
     2
  9
$DIMLWD
 70
    -2
  9
$DIMLWE
 70
    -2
  9
$DIMTMOVE
 70
     0
  9
$LUNITS
 70
     2
  9
$LUPREC
 70
     4
  9
$SKETCHINC
 40
0.1
  9
$FILLETRAD
 40
0.0
  9
$AUNITS
 70
     0
  9
$AUPREC
 70
     0
  9
$MENU
  1
.
  9
$ELEVATION
 40
0.0
  9
$PELEVATION
 40
0.0
  9
$THICKNESS
 40
0.0
  9
$LIMCHECK
 70
     0
  9
$CHAMFERA
 40
0.0
  9
$CHAMFERB
 40
0.0
  9
$CHAMFERC
 40
0.0
  9
$CHAMFERD
 40
0.0
  9
$SKPOLY
 70
     0
  9
$TDCREATE
 40
2459881.654050926
  9
$TDUCREATE
 40
2459881.279050926
  9
$TDUPDATE
 40
2459922.734247801
  9
$TDUUPDATE
 40
2459922.359247801
  9
$TDINDWG
 40
0.000162037
  9
$TDUSRTIMER
 40
0.000162037
  9
$USRTIMER
 70
     1
  9
$ANGBASE
 50
0.0
  9
$ANGDIR
 70
     0
  9
$PDMODE
 70
     0
  9
$PDSIZE
 40
0.0
  9
$PLINEWID
 40
0.0
  9
$SPLFRAME
 70
     0
  9
$SPLINETYPE
 70
     6
  9
$SPLINESEGS
 70
     8
  9
$HANDSEED
  5
40C
  9
$SURFTAB1
 70
     6
  9
$SURFTAB2
 70
     6
  9
$SURFTYPE
 70
     6
  9
$SURFU
 70
     6
  9
$SURFV
 70
     6
  9
$UCSBASE
  2

  9
$UCSNAME
  2

  9
$UCSORG
 10
0.0
 20
0.0
 30
0.0
  9
$UCSXDIR
 10
1.0
 20
0.0
 30
0.0
  9
$UCSYDIR
 10
0.0
 20
1.0
 30
0.0
  9
$UCSORTHOREF
  2

  9
$UCSORTHOVIEW
 70
     0
  9
$UCSORGTOP
 10
0.0
 20
0.0
 30
0.0
  9
$UCSORGBOTTOM
 10
0.0
 20
0.0
 30
0.0
  9
$UCSORGLEFT
 10
0.0
 20
0.0
 30
0.0
  9
$UCSORGRIGHT
 10
0.0
 20
0.0
 30
0.0
  9
$UCSORGFRONT
 10
0.0
 20
0.0
 30
0.0
  9
$UCSORGBACK
 10
0.0
 20
0.0
 30
0.0
  9
$PUCSBASE
  2

  9
$PUCSNAME
  2

  9
$PUCSORG
 10
0.0
 20
0.0
 30
0.0
  9
$PUCSXDIR
 10
1.0
 20
0.0
 30
0.0
  9
$PUCSYDIR
 10
0.0
 20
1.0
 30
0.0
  9
$PUCSORTHOREF
  2

  9
$PUCSORTHOVIEW
 70
     0
  9
$PUCSORGTOP
 10
0.0
 20
0.0
 30
0.0
  9
$PUCSORGBOTTOM
 10
0.0
 20
0.0
 30
0.0
  9
$PUCSORGLEFT
 10
0.0
 20
0.0
 30
0.0
  9
$PUCSORGRIGHT
 10
0.0
 20
0.0
 30
0.0
  9
$PUCSORGFRONT
 10
0.0
 20
0.0
 30
0.0
  9
$PUCSORGBACK
 10
0.0
 20
0.0
 30
0.0
  9
$USERI1
 70
     0
  9
$USERI2
 70
     0
  9
$USERI3
 70
     0
  9
$USERI4
 70
     0
  9
$USERI5
 70
     0
  9
$USERR1
 40
0.0
  9
$USERR2
 40
0.0
  9
$USERR3
 40
0.0
  9
$USERR4
 40
0.0
  9
$USERR5
 40
0.0
  9
$WORLDVIEW
 70
     1
  9
$SHADEDGE
 70
     3
  9
$SHADEDIF
 70
    70
  9
$TILEMODE
 70
     1
  9
$MAXACTVP
 70
    64
  9
$PINSBASE
 10
0.0
 20
0.0
 30
0.0
  9
$PLIMCHECK
 70
     0
  9
$PEXTMIN
 10
1.000000000000000E+20
 20
1.000000000000000E+20
 30
1.000000000000000E+20
  9
$PEXTMAX
 10
-1.000000000000000E+20
 20
-1.000000000000000E+20
 30
-1.000000000000000E+20
  9
$PLIMMIN
 10
0.0
 20
0.0
  9
$PLIMMAX
 10
12.0
 20
9.0
  9
$UNITMODE
 70
     0
  9
$VISRETAIN
 70
     1
  9
$PLINEGEN
 70
     0
  9
$PSLTSCALE
 70
     1
  9
$TREEDEPTH
 70
  3020
  9
$CMLSTYLE
  2
Standard
  9
$CMLJUST
 70
     0
  9
$CMLSCALE
 40
1.0
  9
$PROXYGRAPHICS
 70
     1
  9
$MEASUREMENT
 70
     0
  9
$CELWEIGHT
370
    -1
  9
$ENDCAPS
280
     0
  9
$JOINSTYLE
280
     0
  9
$LWDISPLAY
290
     0
  9
$INSUNITS
 70
     0
  9
$HYPERLINKBASE
  1

  9
$STYLESHEET
  1

  9
$XEDIT
290
     1
  9
$CEPSNTYPE
380
     0
  9
$PSTYLEMODE
290
     1
  9
$FINGERPRINTGUID
  2
{C14F9FA1-92D9-9D41-89E1-0521F788CE88}
  9
$VERSIONGUID
  2
{D6896C60-FD22-1D4F-9B6B-8511444C86A9}
  9
$EXTNAMES
290
     1
  9
$PSVPSCALE
 40
0.0
  9
$OLESTARTUP
290
     0
  0
ENDSEC
  0
SECTION
  2
CLASSES
  0
CLASS
  1
ACDBDICTIONARYWDFLT
  2
AcDbDictionaryWithDefault
  3
ObjectDBX Classes
 90
        0
280
     0
281
     0
  0
CLASS
  1
MATERIAL
  2
AcDbMaterial
  3
ObjectDBX Classes
 90
     1153
280
     0
281
     0
  0
CLASS
  1
VISUALSTYLE
  2
AcDbVisualStyle
  3
ObjectDBX Classes
 90
     4095
280
     0
281
     0
  0
CLASS
  1
SCALE
  2
AcDbScale
  3
ObjectDBX Classes
 90
     1153
280
     0
281
     0
  0
CLASS
  1
TABLESTYLE
  2
AcDbTableStyle
  3
ObjectDBX Classes
 90
     4095
280
     0
281
     0
  0
CLASS
  1
MLEADERSTYLE
  2
AcDbMLeaderStyle
  3
ACDB_MLEADERSTYLE_CLASS
 90
     4095
280
     0
281
     0
  0
CLASS
  1
ACDBSECTIONVIEWSTYLE
  2
AcDbSectionViewStyle
  3
ObjectDBX Classes
 90
     1025
280
     0
281
     0
  0
CLASS
  1
ACDBDETAILVIEWSTYLE
  2
AcDbDetailViewStyle
  3
ObjectDBX Classes
 90
     1025
280
     0
281
     0
  0
CLASS
  1
CELLSTYLEMAP
  2
AcDbCellStyleMap
  3
ObjectDBX Classes
 90
     1152
280
     0
281
     0
  0
CLASS
  1
DICTIONARYVAR
  2
AcDbDictionaryVar
  3
ObjectDBX Classes
 90
        0
280
     0
281
     0
  0
CLASS
  1
ACDBPLACEHOLDER
  2
AcDbPlaceHolder
  3
ObjectDBX Classes
 90
        0
280
     0
281
     0
  0
CLASS
  1
LAYOUT
  2
AcDbLayout
  3
ObjectDBX Classes
 90
        0
280
     0
281
     0
  0
ENDSEC
  0
SECTION
  2
TABLES
  0
TABLE
  2
VPORT
  5
8
102
{ACAD_XDICTIONARY
360
3CF
102
}
330
0
100
AcDbSymbolTable
 70
     1
  0
VPORT
  5
7B
330
8
100
AcDbSymbolTableRecord
100
AcDbViewportTableRecord
  2
*Active
 70
     0
 10
0.0
 20
0.0
 11
1.0
 21
1.0
 12
105.2394498098602
 22
148.9512860413267
 13
0.0
 23
0.0
 14
1.0
 24
1.0
 15
0.0
 25
0.0
 16
0.0
 26
0.0
 36
1.0
 17
0.0
 27
0.0
 37
0.0
 40
299.1046248636645
 41
1.754406580493537
 42
50.0
 43
0.0
 44
0.0
 50
0.0
 51
0.0
 71
     0
 72
   100
 73
     1
 74
     0
 75
     1
 76
     0
 77
     0
 78
     0
281
     0
 65
     1
110
0.0
120
0.0
130
0.0
111
1.0
121
0.0
131
0.0
112
0.0
122
1.0
132
0.0
 79
     0
146
0.0
1001
ACAD_NAV_VCDISPLAY
1070
     3
  0
ENDTAB
  0
TABLE
  2
LTYPE
  5
5
330
0
100
AcDbSymbolTable
 70
     4
  0
LTYPE
  5
5A
330
5
100
AcDbSymbolTableRecord
100
AcDbLinetypeTableRecord
  2
ByBlock
 70
     0
  3

 72
    65
 73
     0
 40
0.0
  0
LTYPE
  5
5B
330
5
100
AcDbSymbolTableRecord
100
AcDbLinetypeTableRecord
  2
ByLayer
 70
     0
  3

 72
    65
 73
     0
 40
0.0
  0
LTYPE
  5
5C
330
5
100
AcDbSymbolTableRecord
100
AcDbLinetypeTableRecord
  2
Continuous
 70
     0
  3
Solid line
 72
    65
 73
     0
 40
0.0
  0
LTYPE
  5
73
330
5
100
AcDbSymbolTableRecord
100
AcDbLinetypeTableRecord
  2
AIGENLINE001
 70
     0
  3
generate AI->DXF Converter
 72
    65
 73
     4
 40
5.8561
 49
3.5278
 74
     0
 49
-0.7761
 74
     0
 49
0.7761
 74
     0
 49
-0.7761
 74
     0
  0
LTYPE
  5
74
330
5
100
AcDbSymbolTableRecord
100
AcDbLinetypeTableRecord
  2
AIGENLINE002
 70
     0
  3
generate AI->DXF Converter
 72
    65
 73
     6
 40
7.4083
 49
3.5278
 74
     0
 49
-0.7761
 74
     0
 49
0.7761
 74
     0
 49
-0.7761
 74
     0
 49
0.7761
 74
     0
 49
-0.7761
 74
     0
  0
LTYPE
  5
75
330
5
100
AcDbSymbolTableRecord
100
AcDbLinetypeTableRecord
  2
AIGENLINE003
 70
     0
  3
generate AI->DXF Converter
 72
    65
 73
     2
 40
1.5522
 49
0.7761
 74
     0
 49
-0.7761
 74
     0
  0
ENDTAB
  0
TABLE
  2
LAYER
  5
2
330
0
100
AcDbSymbolTable
 70
     5
  0
LAYER
  5
54
102
{ACAD_XDICTIONARY
360
371
102
}
330
2
100
AcDbSymbolTableRecord
100
AcDbLayerTableRecord
  2
0
 70
     0
 62
     7
  6
Continuous
370
    -3
390
F
  0
LAYER
  5
76
102
{ACAD_XDICTIONARY
360
373
102
}
330
2
100
AcDbSymbolTableRecord
100
AcDbLayerTableRecord
  2
LAYER_1
 70
     0
 62
     7
  6
Continuous
370
    -3
390
F
  0
LAYER
  5
77
102
{ACAD_XDICTIONARY
360
375
102
}
330
2
100
AcDbSymbolTableRecord
100
AcDbLayerTableRecord
  2
LAYER_2
 70
     0
 62
     7
  6
Continuous
370
    -3
390
F
  0
LAYER
  5
78
102
{ACAD_XDICTIONARY
360
377
102
}
330
2
100
AcDbSymbolTableRecord
100
AcDbLayerTableRecord
  2
LAYER_3
 70
     0
 62
     7
  6
Continuous
370
    -3
390
F
  0
LAYER
  5
370
102
{ACAD_XDICTIONARY
360
379
102
}
330
2
100
AcDbSymbolTableRecord
100
AcDbLayerTableRecord
  2
11
 70
     0
 62
     8
  6
Continuous
370
    -3
390
F
  0
ENDTAB
  0
TABLE
  2
STYLE
  5
3
330
0
100
AcDbSymbolTable
 70
     2
  0
STYLE
  5
55
330
3
100
AcDbSymbolTableRecord
100
AcDbTextStyleTableRecord
  2
STANDARD
 70
     0
 40
0.0
 41
1.0
 50
0.0
 71
     0
 42
0.0
  3
TXT
  4
BIGFONT
  0
STYLE
  5
59
330
3
100
AcDbSymbolTableRecord
100
AcDbTextStyleTableRecord
  2
Annotative
 70
     0
 40
0.0
 41
1.0
 50
0.0
 71
     0
 42
0.2
  3
txt
  4

1001
AcadAnnotative
1000
AnnotativeData
1002
{
1070
     1
1070
     1
1002
}
  0
ENDTAB
  0
TABLE
  2
VIEW
  5
6
330
0
100
AcDbSymbolTable
 70
     0
  0
ENDTAB
  0
TABLE
  2
UCS
  5
7
330
0
100
AcDbSymbolTable
 70
     0
  0
ENDTAB
  0
TABLE
  2
APPID
  5
9
330
0
100
AcDbSymbolTable
 70
     4
  0
APPID
  5
56
330
9
100
AcDbSymbolTableRecord
100
AcDbRegAppTableRecord
  2
ACAD
 70
     0
  0
APPID
  5
5D
330
9
100
AcDbSymbolTableRecord
100
AcDbRegAppTableRecord
  2
AcadAnnotative
 70
     0
  0
APPID
  5
37B
330
9
100
AcDbSymbolTableRecord
100
AcDbRegAppTableRecord
  2
ACAD_NAV_VCDISPLAY
 70
     0
  0
APPID
  5
3B6
330
9
100
AcDbSymbolTableRecord
100
AcDbRegAppTableRecord
  2
ACAD_MLEADERVER
 70
     0
  0
ENDTAB
  0
TABLE
  2
DIMSTYLE
  5
A
330
0
100
AcDbSymbolTable
 70
     2
100
AcDbDimStyleTable
  0
DIMSTYLE
105
57
330
A
100
AcDbSymbolTableRecord
100
AcDbDimStyleTableRecord
  2
Standard
 70
     0
178
     0
340
55
  0
DIMSTYLE
105
58
330
A
100
AcDbSymbolTableRecord
100
AcDbDimStyleTableRecord
  2
Annotative
 70
     0
178
     0
340
55
1001
AcadAnnotative
1000
AnnotativeData
1002
{
1070
     1
1070
     1
1002
}
  0
ENDTAB
  0
TABLE
  2
BLOCK_RECORD
  5
1
330
0
100
AcDbSymbolTable
 70
    71
  0
BLOCK_RECORD
  5
6F
330
1
100
AcDbSymbolTableRecord
100
AcDbBlockTableRecord
  2
*Model_Space
340
72
  0
BLOCK_RECORD
  5
6B
330
1
100
AcDbSymbolTableRecord
100
AcDbBlockTableRecord
  2
*Paper_Space
340
6E
  0
BLOCK_RECORD
  5
7C
330
1
100
AcDbSymbolTableRecord
100
AcDbBlockTableRecord
  2
AIGNBL02020006
340
0
102
{BLKREFS
331
11C
102
}
  0
BLOCK_RECORD
  5
86
330
1
100
AcDbSymbolTableRecord
100
AcDbBlockTableRecord
  2
AIGNBL02020008
340
0
102
{BLKREFS
331
120
102
}
  0
BLOCK_RECORD
  5
90
330
1
100
AcDbSymbolTableRecord
100
AcDbBlockTableRecord
  2
AIGNBL0202000A
340
0
102
{BLKREFS
331
124
102
}
  0
BLOCK_RECORD
  5
98
330
1
100
AcDbSymbolTableRecord
100
AcDbBlockTableRecord
  2
AIGNBL0202000E
340
0
102
{BLKREFS
331
130
102
}
  0
BLOCK_RECORD
  5
A2
330
1
100
AcDbSymbolTableRecord
100
AcDbBlockTableRecord
  2
AIGNBL02020010
340
0
102
{BLKREFS
331
134
102
}
  0
BLOCK_RECORD
  5
AC
330
1
100
AcDbSymbolTableRecord
100
AcDbBlockTableRecord
  2
AIGNBL0202001D
340
0
102
{BLKREFS
331
184
102
}
  0
BLOCK_RECORD
  5
B6
330
1
100
AcDbSymbolTableRecord
100
AcDbBlockTableRecord
  2
AIGNBL0202001F
340
0
102
{BLKREFS
331
188
102
}
  0
BLOCK_RECORD
  5
C0
330
1
100
AcDbSymbolTableRecord
100
AcDbBlockTableRecord
  2
AIGNBL02020021
340
0
102
{BLKREFS
331
18C
102
}
  0
BLOCK_RECORD
  5
CA
330
1
100
AcDbSymbolTableRecord
100
AcDbBlockTableRecord
  2
AIGNBL02020023
340
0
102
{BLKREFS
331
190
102
}
  0
BLOCK_RECORD
  5
D9
330
1
100
AcDbSymbolTableRecord
100
AcDbBlockTableRecord
  2
AIGNBL02020025
340
0
102
{BLKREFS
331
194
102
}
  0
BLOCK_RECORD
  5
E3
330
1
100
AcDbSymbolTableRecord
100
AcDbBlockTableRecord
  2
AIGNBL02020027
340
0
102
{BLKREFS
331
198
102
}
  0
BLOCK_RECORD
  5
EA
330
1
100
AcDbSymbolTableRecord
100
AcDbBlockTableRecord
  2
AIGNBL01010002
340
0
102
{BLKREFS
331
222
102
}
  0
BLOCK_RECORD
  5
EE
330
1
100
AcDbSymbolTableRecord
100
AcDbBlockTableRecord
  2
AIGNBL01010003
340
0
102
{BLKREFS
331
223
102
}
  0
BLOCK_RECORD
  5
F2
330
1
100
AcDbSymbolTableRecord
100
AcDbBlockTableRecord
  2
AIGNBL01010004
340
0
102
{BLKREFS
331
224
102
}
  0
BLOCK_RECORD
  5
F6
330
1
100
AcDbSymbolTableRecord
100
AcDbBlockTableRecord
  2
AIGNBL01010005
340
0
102
{BLKREFS
331
225
102
}
  0
BLOCK_RECORD
  5
FA
330
1
100
AcDbSymbolTableRecord
100
AcDbBlockTableRecord
  2
AIGNBL01010006
340
0
102
{BLKREFS
331
226
102
}
  0
BLOCK_RECORD
  5
FE
330
1
100
AcDbSymbolTableRecord
100
AcDbBlockTableRecord
  2
AIGNBL01010007
340
0
102
{BLKREFS
331
233
102
}
  0
BLOCK_RECORD
  5
102
330
1
100
AcDbSymbolTableRecord
100
AcDbBlockTableRecord
  2
AIGNBL01010008
340
0
102
{BLKREFS
331
234
102
}
  0
BLOCK_RECORD
  5
106
330
1
100
AcDbSymbolTableRecord
100
AcDbBlockTableRecord
  2
AIGNBL01010009
340
0
102
{BLKREFS
331
237
102
}
  0
BLOCK_RECORD
  5
10A
330
1
100
AcDbSymbolTableRecord
100
AcDbBlockTableRecord
  2
AIGNBL0101000A
340
0
102
{BLKREFS
331
238
102
}
  0
BLOCK_RECORD
  5
10E
330
1
100
AcDbSymbolTableRecord
100
AcDbBlockTableRecord
  2
AIGNBL02010002
340
0
102
{BLKREFS
331
25E
102
}
  0
BLOCK_RECORD
  5
112
330
1
100
AcDbSymbolTableRecord
100
AcDbBlockTableRecord
  2
AIGNBL02010003
340
0
102
{BLKREFS
331
25F
102
}
  0
BLOCK_RECORD
  5
116
330
1
100
AcDbSymbolTableRecord
100
AcDbBlockTableRecord
  2
AIGNBL02010004
340
0
102
{BLKREFS
331
260
102
}
  0
BLOCK_RECORD
  5
11A
330
1
100
AcDbSymbolTableRecord
100
AcDbBlockTableRecord
  2
AIGNBL02010005
340
0
102
{BLKREFS
331
261
102
}
  0
BLOCK_RECORD
  5
11E
330
1
100
AcDbSymbolTableRecord
100
AcDbBlockTableRecord
  2
AIGNBL02010007
340
0
102
{BLKREFS
331
262
102
}
  0
BLOCK_RECORD
  5
122
330
1
100
AcDbSymbolTableRecord
100
AcDbBlockTableRecord
  2
AIGNBL02010009
340
0
102
{BLKREFS
331
263
102
}
  0
BLOCK_RECORD
  5
126
330
1
100
AcDbSymbolTableRecord
100
AcDbBlockTableRecord
  2
AIGNBL0201000B
340
0
102
{BLKREFS
331
264
102
}
  0
BLOCK_RECORD
  5
12A
330
1
100
AcDbSymbolTableRecord
100
AcDbBlockTableRecord
  2
AIGNBL0201000C
340
0
102
{BLKREFS
331
265
102
}
  0
BLOCK_RECORD
  5
12E
330
1
100
AcDbSymbolTableRecord
100
AcDbBlockTableRecord
  2
AIGNBL0201000D
340
0
102
{BLKREFS
331
266
102
}
  0
BLOCK_RECORD
  5
132
330
1
100
AcDbSymbolTableRecord
100
AcDbBlockTableRecord
  2
AIGNBL0201000F
340
0
102
{BLKREFS
331
277
102
}
  0
BLOCK_RECORD
  5
136
330
1
100
AcDbSymbolTableRecord
100
AcDbBlockTableRecord
  2
AIGNBL02010011
340
0
102
{BLKREFS
331
278
102
}
  0
BLOCK_RECORD
  5
13D
330
1
100
AcDbSymbolTableRecord
100
AcDbBlockTableRecord
  2
AIGNBL02010012
340
0
102
{BLKREFS
331
279
102
}
  0
BLOCK_RECORD
  5
144
330
1
100
AcDbSymbolTableRecord
100
AcDbBlockTableRecord
  2
AIGNBL02010013
340
0
102
{BLKREFS
331
27A
102
}
  0
BLOCK_RECORD
  5
14F
330
1
100
AcDbSymbolTableRecord
100
AcDbBlockTableRecord
  2
AIGNBL02010014
340
0
102
{BLKREFS
331
27B
102
}
  0
BLOCK_RECORD
  5
15A
330
1
100
AcDbSymbolTableRecord
100
AcDbBlockTableRecord
  2
AIGNBL02010015
340
0
102
{BLKREFS
331
291
102
}
  0
BLOCK_RECORD
  5
15E
330
1
100
AcDbSymbolTableRecord
100
AcDbBlockTableRecord
  2
AIGNBL02010016
340
0
102
{BLKREFS
331
2A4
102
}
  0
BLOCK_RECORD
  5
168
330
1
100
AcDbSymbolTableRecord
100
AcDbBlockTableRecord
  2
AIGNBL02010017
340
0
102
{BLKREFS
331
2A5
102
}
  0
BLOCK_RECORD
  5
172
330
1
100
AcDbSymbolTableRecord
100
AcDbBlockTableRecord
  2
AIGNBL02010018
340
0
102
{BLKREFS
331
2A8
102
}
  0
BLOCK_RECORD
  5
176
330
1
100
AcDbSymbolTableRecord
100
AcDbBlockTableRecord
  2
AIGNBL02010019
340
0
102
{BLKREFS
331
2A9
102
}
  0
BLOCK_RECORD
  5
17A
330
1
100
AcDbSymbolTableRecord
100
AcDbBlockTableRecord
  2
AIGNBL0201001A
340
0
102
{BLKREFS
331
2B1
102
}
  0
BLOCK_RECORD
  5
17E
330
1
100
AcDbSymbolTableRecord
100
AcDbBlockTableRecord
  2
AIGNBL0201001B
340
0
102
{BLKREFS
331
2B2
102
}
  0
BLOCK_RECORD
  5
182
330
1
100
AcDbSymbolTableRecord
100
AcDbBlockTableRecord
  2
AIGNBL0201001C
340
0
102
{BLKREFS
331
320
102
}
  0
BLOCK_RECORD
  5
186
330
1
100
AcDbSymbolTableRecord
100
AcDbBlockTableRecord
  2
AIGNBL0201001E
340
0
102
{BLKREFS
331
324
102
}
  0
BLOCK_RECORD
  5
18A
330
1
100
AcDbSymbolTableRecord
100
AcDbBlockTableRecord
  2
AIGNBL02010020
340
0
102
{BLKREFS
331
325
102
}
  0
BLOCK_RECORD
  5
18E
330
1
100
AcDbSymbolTableRecord
100
AcDbBlockTableRecord
  2
AIGNBL02010022
340
0
102
{BLKREFS
331
32C
102
}
  0
BLOCK_RECORD
  5
192
330
1
100
AcDbSymbolTableRecord
100
AcDbBlockTableRecord
  2
AIGNBL02010024
340
0
102
{BLKREFS
331
32F
102
}
  0
BLOCK_RECORD
  5
196
330
1
100
AcDbSymbolTableRecord
100
AcDbBlockTableRecord
  2
AIGNBL02010026
340
0
102
{BLKREFS
331
330
102
}
  0
BLOCK_RECORD
  5
19A
330
1
100
AcDbSymbolTableRecord
100
AcDbBlockTableRecord
  2
AIGNBL02010028
340
0
102
{BLKREFS
331
331
102
}
  0
BLOCK_RECORD
  5
1A0
330
1
100
AcDbSymbolTableRecord
100
AcDbBlockTableRecord
  2
AIGNBL02010029
340
0
102
{BLKREFS
331
332
102
}
  0
BLOCK_RECORD
  5
1A6
330
1
100
AcDbSymbolTableRecord
100
AcDbBlockTableRecord
  2
AIGNBL0201002A
340
0
102
{BLKREFS
331
333
102
}
  0
BLOCK_RECORD
  5
1AC
330
1
100
AcDbSymbolTableRecord
100
AcDbBlockTableRecord
  2
AIGNBL0201002B
340
0
102
{BLKREFS
331
334
102
}
  0
BLOCK_RECORD
  5
1B2
330
1
100
AcDbSymbolTableRecord
100
AcDbBlockTableRecord
  2
AIGNBL0201002C
340
0
102
{BLKREFS
331
336
102
}
  0
BLOCK_RECORD
  5
1B9
330
1
100
AcDbSymbolTableRecord
100
AcDbBlockTableRecord
  2
AIGNBL0201002D
340
0
102
{BLKREFS
331
337
102
}
  0
BLOCK_RECORD
  5
1C0
330
1
100
AcDbSymbolTableRecord
100
AcDbBlockTableRecord
  2
AIGNBL0201002E
340
0
102
{BLKREFS
331
339
102
}
  0
BLOCK_RECORD
  5
1C4
330
1
100
AcDbSymbolTableRecord
100
AcDbBlockTableRecord
  2
AIGNBL0201002F
340
0
102
{BLKREFS
331
342
102
}
  0
BLOCK_RECORD
  5
1C8
330
1
100
AcDbSymbolTableRecord
100
AcDbBlockTableRecord
  2
AIGNBL02010030
340
0
102
{BLKREFS
331
344
102
}
  0
BLOCK_RECORD
  5
1CC
330
1
100
AcDbSymbolTableRecord
100
AcDbBlockTableRecord
  2
AIGNBL03010002
340
0
102
{BLKREFS
331
357
102
}
  0
BLOCK_RECORD
  5
1D0
330
1
100
AcDbSymbolTableRecord
100
AcDbBlockTableRecord
  2
AIGNBL03010003
340
0
102
{BLKREFS
331
358
102
}
  0
BLOCK_RECORD
  5
1D4
330
1
100
AcDbSymbolTableRecord
100
AcDbBlockTableRecord
  2
AIGNBL03010004
340
0
102
{BLKREFS
331
359
102
}
  0
BLOCK_RECORD
  5
1D8
330
1
100
AcDbSymbolTableRecord
100
AcDbBlockTableRecord
  2
AIGNBL03010005
340
0
102
{BLKREFS
331
35A
102
}
  0
BLOCK_RECORD
  5
1DD
330
1
100
AcDbSymbolTableRecord
100
AcDbBlockTableRecord
  2
AIGNBL03010006
340
0
102
{BLKREFS
331
35B
102
}
  0
BLOCK_RECORD
  5
1E1
330
1
100
AcDbSymbolTableRecord
100
AcDbBlockTableRecord
  2
AIGNBL03010007
340
0
102
{BLKREFS
331
35C
102
}
  0
BLOCK_RECORD
  5
1E5
330
1
100
AcDbSymbolTableRecord
100
AcDbBlockTableRecord
  2
AIGNBL03010008
340
0
102
{BLKREFS
331
35D
102
}
  0
BLOCK_RECORD
  5
1E9
330
1
100
AcDbSymbolTableRecord
100
AcDbBlockTableRecord
  2
AIGNBL03010009
340
0
102
{BLKREFS
331
35E
102
}
  0
BLOCK_RECORD
  5
1EF
330
1
100
AcDbSymbolTableRecord
100
AcDbBlockTableRecord
  2
AIGNBL0301000A
340
0
102
{BLKREFS
331
35F
102
}
  0
BLOCK_RECORD
  5
1F3
330
1
100
AcDbSymbolTableRecord
100
AcDbBlockTableRecord
  2
AIGNBL0301000B
340
0
102
{BLKREFS
331
360
102
}
  0
BLOCK_RECORD
  5
1F7
330
1
100
AcDbSymbolTableRecord
100
AcDbBlockTableRecord
  2
AIGNBL0301000C
340
0
102
{BLKREFS
331
361
102
}
  0
BLOCK_RECORD
  5
1FB
330
1
100
AcDbSymbolTableRecord
100
AcDbBlockTableRecord
  2
AIGNBL0301000D
340
0
102
{BLKREFS
331
362
102
}
  0
BLOCK_RECORD
  5
1FF
330
1
100
AcDbSymbolTableRecord
100
AcDbBlockTableRecord
  2
AIGNBL0301000E
340
0
102
{BLKREFS
331
363
102
}
  0
BLOCK_RECORD
  5
203
330
1
100
AcDbSymbolTableRecord
100
AcDbBlockTableRecord
  2
AIGNBL0301000F
340
0
102
{BLKREFS
331
365
102
}
  0
BLOCK_RECORD
  5
207
330
1
100
AcDbSymbolTableRecord
100
AcDbBlockTableRecord
  2
AIGNBL03010010
340
0
102
{BLKREFS
331
366
102
}
  0
ENDTAB
  0
ENDSEC
  0
SECTION
  2
BLOCKS
  0
BLOCK
  5
70
330
6F
100
AcDbEntity
  8
0
100
AcDbBlockBegin
  2
*Model_Space
 70
     0
 10
0.0
 20
0.0
 30
0.0
  3
*Model_Space
  1

  0
ENDBLK
  5
71
330
6F
100
AcDbEntity
  8
0
100
AcDbBlockEnd
  0
BLOCK
  5
6C
330
6B
100
AcDbEntity
 67
     1
  8
0
100
AcDbBlockBegin
  2
*Paper_Space
 70
     0
 10
0.0
 20
0.0
 30
0.0
  3
*Paper_Space
  1

  0
ENDBLK
  5
6D
330
6B
100
AcDbEntity
 67
     1
  8
0
100
AcDbBlockEnd
  0
BLOCK
  5
7D
330
7C
100
AcDbEntity
  8
LAYER_2
100
AcDbBlockBegin
  2
AIGNBL02020006
 70
     0
 10
0.0
 20
0.0
 30
0.0
  3
AIGNBL02020006
  1

  0
LINE
  5
7E
330
7C
100
AcDbEntity
  8
LAYER_2
100
AcDbLine
 10
36.9725
 20
119.4098
 30
0.0
 11
36.9725
 21
129.4084
 31
0.0
  0
LINE
  5
7F
330
7C
100
AcDbEntity
  8
LAYER_2
100
AcDbLine
 10
37.5575
 20
127.1981
 30
0.0
 11
36.9649
 21
129.4099
 31
0.0
  0
LINE
  5
80
330
7C
100
AcDbEntity
  8
LAYER_2
100
AcDbLine
 10
36.9649
 20
129.4099
 30
0.0
 11
36.3724
 21
127.1981
 31
0.0
  0
LINE
  5
81
330
7C
100
AcDbEntity
  8
LAYER_2
100
AcDbLine
 10
36.3724
 20
127.1981
 30
0.0
 11
37.5575
 21
127.1981
 31
0.0
  0
LINE
  5
82
330
7C
100
AcDbEntity
  8
LAYER_2
100
AcDbLine
 10
36.3868
 20
121.6205
 30
0.0
 11
36.9794
 21
119.4087
 31
0.0
  0
LINE
  5
83
330
7C
100
AcDbEntity
  8
LAYER_2
100
AcDbLine
 10
36.9794
 20
119.4087
 30
0.0
 11
37.572
 21
121.6205
 31
0.0
  0
LINE
  5
84
330
7C
100
AcDbEntity
  8
LAYER_2
100
AcDbLine
 10
37.572
 20
121.6205
 30
0.0
 11
36.3868
 21
121.6205
 31
0.0
  0
ENDBLK
  5
85
330
7C
100
AcDbEntity
  8
0
100
AcDbBlockEnd
  0
BLOCK
  5
87
330
86
100
AcDbEntity
  8
LAYER_2
100
AcDbBlockBegin
  2
AIGNBL02020008
 70
     0
 10
0.0
 20
0.0
 30
0.0
  3
AIGNBL02020008
  1

  0
LINE
  5
88
330
86
100
AcDbEntity
  8
LAYER_2
100
AcDbLine
 10
138.2401
 20
121.9109
 30
0.0
 11
138.2401
 21
129.4084
 31
0.0
  0
LINE
  5
89
330
86
100
AcDbEntity
  8
LAYER_2
100
AcDbLine
 10
137.6552
 20
127.1981
 30
0.0
 11
138.2477
 21
129.4099
 31
0.0
  0
LINE
  5
8A
330
86
100
AcDbEntity
  8
LAYER_2
100
AcDbLine
 10
138.2477
 20
129.4099
 30
0.0
 11
138.8403
 21
127.1981
 31
0.0
  0
LINE
  5
8B
330
86
100
AcDbEntity
  8
LAYER_2
100
AcDbLine
 10
138.8403
 20
127.1981
 30
0.0
 11
137.6552
 21
127.1981
 31
0.0
  0
LINE
  5
8C
330
86
100
AcDbEntity
  8
LAYER_2
100
AcDbLine
 10
138.8258
 20
124.1216
 30
0.0
 11
138.2332
 21
121.9099
 31
0.0
  0
LINE
  5
8D
330
86
100
AcDbEntity
  8
LAYER_2
100
AcDbLine
 10
138.2332
 20
121.9099
 30
0.0
 11
137.6407
 21
124.1216
 31
0.0
  0
LINE
  5
8E
330
86
100
AcDbEntity
  8
LAYER_2
100
AcDbLine
 10
137.6407
 20
124.1216
 30
0.0
 11
138.8258
 21
124.1216
 31
0.0
  0
ENDBLK
  5
8F
330
86
100
AcDbEntity
  8
0
100
AcDbBlockEnd
  0
BLOCK
  5
91
330
90
100
AcDbEntity
  8
LAYER_2
100
AcDbBlockBegin
  2
AIGNBL0202000A
 70
     0
 10
0.0
 20
0.0
 30
0.0
  3
AIGNBL0202000A
  1

  0
LINE
  5
92
330
90
100
AcDbEntity
  8
LAYER_2
100
AcDbLine
 10
36.9725
 20
115.4097
 30
0.0
 11
36.9725
 21
119.4087
 31
0.0
  0
LINE
  5
93
330
90
100
AcDbEntity
  8
LAYER_2
100
AcDbLine
 10
36.9725
 20
103.9812
 30
0.0
 11
36.9725
 21
115.4097
 31
0.0
  0
LINE
  5
94
330
90
100
AcDbEntity
  8
LAYER_2
100
AcDbLine
 10
37.5575
 20
113.1979
 30
0.0
 11
36.9649
 21
115.4097
 31
0.0
  0
LINE
  5
95
330
90
100
AcDbEntity
  8
LAYER_2
100
AcDbLine
 10
36.9649
 20
115.4097
 30
0.0
 11
36.3724
 21
113.1979
 31
0.0
  0
LINE
  5
96
330
90
100
AcDbEntity
  8
LAYER_2
100
AcDbLine
 10
36.3724
 20
113.1979
 30
0.0
 11
37.5575
 21
113.1979
 31
0.0
  0
ENDBLK
  5
97
330
90
100
AcDbEntity
  8
0
100
AcDbBlockEnd
  0
BLOCK
  5
99
330
98
100
AcDbEntity
  8
LAYER_2
100
AcDbBlockBegin
  2
AIGNBL0202000E
 70
     0
 10
0.0
 20
0.0
 30
0.0
  3
AIGNBL0202000E
  1

  0
LINE
  5
9A
330
98
100
AcDbEntity
  8
LAYER_2
100
AcDbLine
 10
48.7916
 20
104.5666
 30
0.0
 11
89.7893
 21
104.5666
 31
0.0
  0
LINE
  5
9B
330
98
100
AcDbEntity
  8
LAYER_2
100
AcDbLine
 10
87.5789
 20
103.9816
 30
0.0
 11
89.7907
 21
104.5742
 31
0.0
  0
LINE
  5
9C
330
98
100
AcDbEntity
  8
LAYER_2
100
AcDbLine
 10
89.7907
 20
104.5742
 30
0.0
 11
87.5789
 21
105.1667
 31
0.0
  0
LINE
  5
9D
330
98
100
AcDbEntity
  8
LAYER_2
100
AcDbLine
 10
87.5789
 20
105.1667
 30
0.0
 11
87.5789
 21
103.9816
 31
0.0
  0
LINE
  5
9E
330
98
100
AcDbEntity
  8
LAYER_2
100
AcDbLine
 10
51.0023
 20
105.1522
 30
0.0
 11
48.7906
 21
104.5597
 31
0.0
  0
LINE
  5
9F
330
98
100
AcDbEntity
  8
LAYER_2
100
AcDbLine
 10
48.7906
 20
104.5597
 30
0.0
 11
51.0023
 21
103.9671
 31
0.0
  0
LINE
  5
A0
330
98
100
AcDbEntity
  8
LAYER_2
100
AcDbLine
 10
51.0023
 20
103.9671
 30
0.0
 11
51.0023
 21
105.1522
 31
0.0
  0
ENDBLK
  5
A1
330
98
100
AcDbEntity
  8
0
100
AcDbBlockEnd
  0
BLOCK
  5
A3
330
A2
100
AcDbEntity
  8
LAYER_2
100
AcDbBlockBegin
  2
AIGNBL02020010
 70
     0
 10
0.0
 20
0.0
 30
0.0
  3
AIGNBL02020010
  1

  0
LINE
  5
A4
330
A2
100
AcDbEntity
  8
LAYER_2
100
AcDbLine
 10
163.7762
 20
197.549
 30
0.0
 11
163.7762
 21
203.5466
 31
0.0
  0
LINE
  5
A5
330
A2
100
AcDbEntity
  8
LAYER_2
100
AcDbLine
 10
164.3612
 20
201.3362
 30
0.0
 11
163.7686
 21
203.5479
 31
0.0
  0
LINE
  5
A6
330
A2
100
AcDbEntity
  8
LAYER_2
100
AcDbLine
 10
163.7686
 20
203.5479
 30
0.0
 11
163.1761
 21
201.3362
 31
0.0
  0
LINE
  5
A7
330
A2
100
AcDbEntity
  8
LAYER_2
100
AcDbLine
 10
163.1761
 20
201.3362
 30
0.0
 11
164.3612
 21
201.3362
 31
0.0
  0
LINE
  5
A8
330
A2
100
AcDbEntity
  8
LAYER_2
100
AcDbLine
 10
163.1905
 20
199.7597
 30
0.0
 11
163.7831
 21
197.548
 31
0.0
  0
LINE
  5
A9
330
A2
100
AcDbEntity
  8
LAYER_2
100
AcDbLine
 10
163.7831
 20
197.548
 30
0.0
 11
164.3757
 21
199.7597
 31
0.0
  0
LINE
  5
AA
330
A2
100
AcDbEntity
  8
LAYER_2
100
AcDbLine
 10
164.3757
 20
199.7597
 30
0.0
 11
163.1905
 21
199.7597
 31
0.0
  0
ENDBLK
  5
AB
330
A2
100
AcDbEntity
  8
0
100
AcDbBlockEnd
  0
BLOCK
  5
AD
330
AC
100
AcDbEntity
  8
LAYER_2
100
AcDbBlockBegin
  2
AIGNBL0202001D
 70
     0
 10
0.0
 20
0.0
 30
0.0
  3
AIGNBL0202001D
  1

  0
LINE
  5
AE
330
AC
100
AcDbEntity
  8
LAYER_2
100
AcDbLine
 10
117.2681
 20
197.549
 30
0.0
 11
117.2681
 21
203.5466
 31
0.0
  0
LINE
  5
AF
330
AC
100
AcDbEntity
  8
LAYER_2
100
AcDbLine
 10
117.8531
 20
201.3362
 30
0.0
 11
117.2605
 21
203.5479
 31
0.0
  0
LINE
  5
B0
330
AC
100
AcDbEntity
  8
LAYER_2
100
AcDbLine
 10
117.2605
 20
203.5479
 30
0.0
 11
116.668
 21
201.3362
 31
0.0
  0
LINE
  5
B1
330
AC
100
AcDbEntity
  8
LAYER_2
100
AcDbLine
 10
116.668
 20
201.3362
 30
0.0
 11
117.8531
 21
201.3362
 31
0.0
  0
LINE
  5
B2
330
AC
100
AcDbEntity
  8
LAYER_2
100
AcDbLine
 10
116.6824
 20
199.7597
 30
0.0
 11
117.275
 21
197.548
 31
0.0
  0
LINE
  5
B3
330
AC
100
AcDbEntity
  8
LAYER_2
100
AcDbLine
 10
117.275
 20
197.548
 30
0.0
 11
117.8676
 21
199.7597
 31
0.0
  0
LINE
  5
B4
330
AC
100
AcDbEntity
  8
LAYER_2
100
AcDbLine
 10
117.8676
 20
199.7597
 30
0.0
 11
116.6824
 21
199.7597
 31
0.0
  0
ENDBLK
  5
B5
330
AC
100
AcDbEntity
  8
0
100
AcDbBlockEnd
  0
BLOCK
  5
B7
330
B6
100
AcDbEntity
  8
LAYER_2
100
AcDbBlockBegin
  2
AIGNBL0202001F
 70
     0
 10
0.0
 20
0.0
 30
0.0
  3
AIGNBL0202001F
  1

  0
LINE
  5
B8
330
B6
100
AcDbEntity
  8
LAYER_2
100
AcDbLine
 10
156.9759
 20
189.8011
 30
0.0
 11
139.9785
 21
189.8011
 31
0.0
  0
LINE
  5
B9
330
B6
100
AcDbEntity
  8
LAYER_2
100
AcDbLine
 10
142.1889
 20
190.386
 30
0.0
 11
139.9772
 21
189.7935
 31
0.0
  0
LINE
  5
BA
330
B6
100
AcDbEntity
  8
LAYER_2
100
AcDbLine
 10
139.9772
 20
189.7935
 30
0.0
 11
142.1889
 21
189.2009
 31
0.0
  0
LINE
  5
BB
330
B6
100
AcDbEntity
  8
LAYER_2
100
AcDbLine
 10
142.1889
 20
189.2009
 30
0.0
 11
142.1889
 21
190.386
 31
0.0
  0
LINE
  5
BC
330
B6
100
AcDbEntity
  8
LAYER_2
100
AcDbLine
 10
154.7652
 20
189.2154
 30
0.0
 11
156.977
 21
189.8079
 31
0.0
  0
LINE
  5
BD
330
B6
100
AcDbEntity
  8
LAYER_2
100
AcDbLine
 10
156.977
 20
189.8079
 30
0.0
 11
154.7652
 21
190.4005
 31
0.0
  0
LINE
  5
BE
330
B6
100
AcDbEntity
  8
LAYER_2
100
AcDbLine
 10
154.7652
 20
190.4005
 30
0.0
 11
154.7652
 21
189.2154
 31
0.0
  0
ENDBLK
  5
BF
330
B6
100
AcDbEntity
  8
0
100
AcDbBlockEnd
  0
BLOCK
  5
C1
330
C0
100
AcDbEntity
  8
LAYER_2
100
AcDbBlockBegin
  2
AIGNBL02020021
 70
     0
 10
0.0
 20
0.0
 30
0.0
  3
AIGNBL02020021
  1

  0
LINE
  5
C2
330
C0
100
AcDbEntity
  8
LAYER_2
100
AcDbLine
 10
139.9758
 20
189.8011
 30
0.0
 11
122.9784
 21
189.8011
 31
0.0
  0
LINE
  5
C3
330
C0
100
AcDbEntity
  8
LAYER_2
100
AcDbLine
 10
125.1887
 20
190.386
 30
0.0
 11
122.977
 21
189.7935
 31
0.0
  0
LINE
  5
C4
330
C0
100
AcDbEntity
  8
LAYER_2
100
AcDbLine
 10
122.977
 20
189.7935
 30
0.0
 11
125.1887
 21
189.2009
 31
0.0
  0
LINE
  5
C5
330
C0
100
AcDbEntity
  8
LAYER_2
100
AcDbLine
 10
125.1887
 20
189.2009
 30
0.0
 11
125.1887
 21
190.386
 31
0.0
  0
LINE
  5
C6
330
C0
100
AcDbEntity
  8
LAYER_2
100
AcDbLine
 10
137.765
 20
189.2154
 30
0.0
 11
139.9768
 21
189.8079
 31
0.0
  0
LINE
  5
C7
330
C0
100
AcDbEntity
  8
LAYER_2
100
AcDbLine
 10
139.9768
 20
189.8079
 30
0.0
 11
137.765
 21
190.4005
 31
0.0
  0
LINE
  5
C8
330
C0
100
AcDbEntity
  8
LAYER_2
100
AcDbLine
 10
137.765
 20
190.4005
 30
0.0
 11
137.765
 21
189.2154
 31
0.0
  0
ENDBLK
  5
C9
330
C0
100
AcDbEntity
  8
0
100
AcDbBlockEnd
  0
BLOCK
  5
CB
330
CA
100
AcDbEntity
  8
LAYER_2
100
AcDbBlockBegin
  2
AIGNBL02020023
 70
     0
 10
0.0
 20
0.0
 30
0.0
  3
AIGNBL02020023
  1

  0
LINE
  5
CC
330
CA
100
AcDbEntity
  8
LAYER_2
100
AcDbLine
 10
157.8283
 20
207.6161
 30
0.0
 11
146.8697
 21
196.6574
 31
0.0
  0
TEXT
  5
CD
330
CA
100
AcDbEntity
  8
LAYER_2
100
AcDbText
 10
126.6958546988171
 20
203.9918707980746
 30
0.0
 40
3.0923
  1
155
 50
314.9432774
 41
0.5
 72
     1
 11
127.9701
 21
202.7151
 31
0.0
100
AcDbText
  0
LINE
  5
CE
330
CA
100
AcDbEntity
  8
LAYER_2
100
AcDbLine
 10
148.0191
 20
198.634
 30
0.0
 11
146.8742
 21
196.651
 31
0.0
  0
LINE
  5
CF
330
CA
100
AcDbEntity
  8
LAYER_2
100
AcDbLine
 10
146.8742
 20
196.651
 30
0.0
 11
148.8572
 21
197.796
 31
0.0
  0
LINE
  5
D0
330
CA
100
AcDbEntity
  8
LAYER_2
100
AcDbLine
 10
148.8572
 20
197.796
 30
0.0
 11
148.0191
 21
198.634
 31
0.0
  0
LINE
  5
D1
330
CA
100
AcDbEntity
  8
LAYER_2
100
AcDbLine
 10
139.9772
 20
203.5479
 30
0.0
 11
137.6035
 21
193.686
 31
0.0
  0
LINE
  5
D2
330
CA
100
AcDbEntity
  8
LAYER_2
100
AcDbLine
 10
138.7486
 20
200.977
 30
0.0
 11
138.8075
 21
198.688
 31
0.0
  0
LINE
  5
D3
330
CA
100
AcDbEntity
  8
LAYER_2
100
AcDbLine
 10
138.8075
 20
198.688
 30
0.0
 11
139.901
 21
200.6997
 31
0.0
  0
LINE
  5
D4
330
CA
100
AcDbEntity
  8
LAYER_2
100
AcDbLine
 10
139.901
 20
200.6997
 30
0.0
 11
138.7486
 21
200.977
 31
0.0
  0
LINE
  5
D5
330
CA
100
AcDbEntity
  8
LAYER_2
100
AcDbLine
 10
156.6793
 20
205.6386
 30
0.0
 11
157.8241
 21
207.6216
 31
0.0
  0
LINE
  5
D6
330
CA
100
AcDbEntity
  8
LAYER_2
100
AcDbLine
 10
157.8241
 20
207.6216
 30
0.0
 11
155.8415
 21
206.4766
 31
0.0
  0
LINE
  5
D7
330
CA
100
AcDbEntity
  8
LAYER_2
100
AcDbLine
 10
155.8415
 20
206.4766
 30
0.0
 11
156.6793
 21
205.6386
 31
0.0
  0
ENDBLK
  5
D8
330
CA
100
AcDbEntity
  8
0
100
AcDbBlockEnd
  0
BLOCK
  5
DA
330
D9
100
AcDbEntity
  8
LAYER_2
100
AcDbBlockBegin
  2
AIGNBL02020025
 70
     0
 10
0.0
 20
0.0
 30
0.0
  3
AIGNBL02020025
  1

  0
LINE
  5
DB
330
D9
100
AcDbEntity
  8
LAYER_2
100
AcDbLine
 10
122.1261
 20
207.6161
 30
0.0
 11
133.0846
 21
196.6574
 31
0.0
  0
LINE
  5
DC
330
D9
100
AcDbEntity
  8
LAYER_2
100
AcDbLine
 10
131.9353
 20
198.634
 30
0.0
 11
133.0801
 21
196.651
 31
0.0
  0
LINE
  5
DD
330
D9
100
AcDbEntity
  8
LAYER_2
100
AcDbLine
 10
133.0801
 20
196.651
 30
0.0
 11
131.0971
 21
197.796
 31
0.0
  0
LINE
  5
DE
330
D9
100
AcDbEntity
  8
LAYER_2
100
AcDbLine
 10
131.0971
 20
197.796
 30
0.0
 11
131.9353
 21
198.634
 31
0.0
  0
LINE
  5
DF
330
D9
100
AcDbEntity
  8
LAYER_2
100
AcDbLine
 10
123.275
 20
205.6386
 30
0.0
 11
122.1302
 21
207.6216
 31
0.0
  0
LINE
  5
E0
330
D9
100
AcDbEntity
  8
LAYER_2
100
AcDbLine
 10
122.1302
 20
207.6216
 30
0.0
 11
124.1128
 21
206.4766
 31
0.0
  0
LINE
  5
E1
330
D9
100
AcDbEntity
  8
LAYER_2
100
AcDbLine
 10
124.1128
 20
206.4766
 30
0.0
 11
123.275
 21
205.6386
 31
0.0
  0
ENDBLK
  5
E2
330
D9
100
AcDbEntity
  8
0
100
AcDbBlockEnd
  0
BLOCK
  5
E4
330
E3
100
AcDbEntity
  8
LAYER_2
100
AcDbBlockBegin
  2
AIGNBL02020027
 70
     0
 10
0.0
 20
0.0
 30
0.0
  3
AIGNBL02020027
  1

  0
LINE
  5
E5
330
E3
100
AcDbEntity
  8
LAYER_2
100
AcDbLine
 10
134.4185
 20
222.2379
 30
0.0
 11
139.9772
 21
203.5479
 31
0.0
  0
LINE
  5
E6
330
E3
100
AcDbEntity
  8
LAYER_2
100
AcDbLine
 10
134.4871
 20
219.9516
 30
0.0
 11
134.4243
 21
222.2407
 31
0.0
  0
LINE
  5
E7
330
E3
100
AcDbEntity
  8
LAYER_2
100
AcDbLine
 10
134.4243
 20
222.2407
 30
0.0
 11
135.6229
 21
220.2897
 31
0.0
  0
LINE
  5
E8
330
E3
100
AcDbEntity
  8
LAYER_2
100
AcDbLine
 10
135.6229
 20
220.2897
 30
0.0
 11
134.4871
 21
219.9516
 31
0.0
  0
ENDBLK
  5
E9
330
E3
100
AcDbEntity
  8
0
100
AcDbBlockEnd
  0
BLOCK
  5
EB
330
EA
100
AcDbEntity
  8
LAYER_1
100
AcDbBlockBegin
  2
AIGNBL01010002
 70
     0
 10
0.0
 20
0.0
 30
0.0
  3
AIGNBL01010002
  1

  0
TEXT
  5
EC
330
EA
100
AcDbEntity
  8
LAYER_1
100
AcDbText
 10
36.33109999973014
 20
122.86385
 30
0.0
 40
3.0923
  1
100
 50
89.99999999
 41
0.5
 72
     1
 11
36.3311
 21
124.41
 31
0.0
100
AcDbText
  0
ENDBLK
  5
ED
330
EA
100
AcDbEntity
  8
0
100
AcDbBlockEnd
  0
BLOCK
  5
EF
330
EE
100
AcDbEntity
  8
LAYER_1
100
AcDbBlockBegin
  2
AIGNBL01010003
 70
     0
 10
0.0
 20
0.0
 30
0.0
  3
AIGNBL01010003
  1

  0
TEXT
  5
F0
330
EE
100
AcDbEntity
  8
LAYER_1
100
AcDbText
 10
137.5047999997751
 20
124.1812416666667
 30
0.0
 40
3.0923
  1
75
 50
89.99999999
 41
0.5
 72
     1
 11
137.5048
 21
125.4697
 31
0.0
100
AcDbText
  0
ENDBLK
  5
F1
330
EE
100
AcDbEntity
  8
0
100
AcDbBlockEnd
  0
BLOCK
  5
F3
330
F2
100
AcDbEntity
  8
LAYER_1
100
AcDbBlockBegin
  2
AIGNBL01010004
 70
     0
 10
0.0
 20
0.0
 30
0.0
  3
AIGNBL01010004
  1

  0
TEXT
  5
F4
330
F2
100
AcDbEntity
  8
LAYER_1
100
AcDbText
 10
65.81943749999999
 20
172.5145
 30
0.0
 40
3.0923
  1
%%c470
 41
0.5
 72
     1
 11
68.5252
 21
172.5145
 31
0.0
100
AcDbText
  0
ENDBLK
  5
F5
330
F2
100
AcDbEntity
  8
0
100
AcDbBlockEnd
  0
BLOCK
  5
F7
330
F6
100
AcDbEntity
  8
LAYER_1
100
AcDbBlockBegin
  2
AIGNBL01010005
 70
     0
 10
0.0
 20
0.0
 30
0.0
  3
AIGNBL01010005
  1

  0
TEXT
  5
F8
330
F6
100
AcDbEntity
  8
LAYER_1
100
AcDbText
 10
65.81943749999999
 20
165.5146
 30
0.0
 40
3.0923
  1
%%c480
 41
0.5
 72
     1
 11
68.5252
 21
165.5146
 31
0.0
100
AcDbText
  0
ENDBLK
  5
F9
330
F6
100
AcDbEntity
  8
0
100
AcDbBlockEnd
  0
BLOCK
  5
FB
330
FA
100
AcDbEntity
  8
LAYER_1
100
AcDbBlockBegin
  2
AIGNBL01010006
 70
     0
 10
0.0
 20
0.0
 30
0.0
  3
AIGNBL01010006
  1

  0
TEXT
  5
FC
330
FA
100
AcDbEntity
  8
LAYER_1
100
AcDbText
 10
66.07692916666667
 20
105.2077
 30
0.0
 40
3.0923
  1
%%c410
 41
0.5
 72
     1
 11
68.525
 21
105.2077
 31
0.0
100
AcDbText
  0
ENDBLK
  5
FD
330
FA
100
AcDbEntity
  8
0
100
AcDbBlockEnd
  0
BLOCK
  5
FF
330
FE
100
AcDbEntity
  8
LAYER_1
100
AcDbBlockBegin
  2
AIGNBL01010007
 70
     0
 10
0.0
 20
0.0
 30
0.0
  3
AIGNBL01010007
  1

  0
TEXT
  5
100
330
FE
100
AcDbEntity
  8
LAYER_1
100
AcDbText
 10
92.60709999977513
 20
222.0433416666667
 30
0.0
 40
3.0923
  1
85
 50
89.99999999
 41
0.5
 72
     1
 11
92.6071
 21
223.3318
 31
0.0
100
AcDbText
  0
ENDBLK
  5
101
330
FE
100
AcDbEntity
  8
0
100
AcDbBlockEnd
  0
BLOCK
  5
103
330
102
100
AcDbEntity
  8
LAYER_1
100
AcDbBlockBegin
  2
AIGNBL01010008
 70
     0
 10
0.0
 20
0.0
 30
0.0
  3
AIGNBL01010008
  1

  0
TEXT
  5
104
330
102
100
AcDbEntity
  8
LAYER_1
100
AcDbText
 10
158.4726416666667
 20
137.5964
 30
0.0
 40
3.0923
  1
85
 41
0.5
 72
     1
 11
159.7611
 21
137.5964
 31
0.0
100
AcDbText
  0
ENDBLK
  5
105
330
102
100
AcDbEntity
  8
0
100
AcDbBlockEnd
  0
BLOCK
  5
107
330
106
100
AcDbEntity
  8
LAYER_1
100
AcDbBlockBegin
  2
AIGNBL01010009
 70
     0
 10
0.0
 20
0.0
 30
0.0
  3
AIGNBL01010009
  1

  0
TEXT
  5
108
330
106
100
AcDbEntity
  8
LAYER_1
100
AcDbText
 10
166.3943933333333
 20
207.1286
 30
0.0
 40
3.0923
  1
排水口芯
 41
0.5
 72
     1
 11
169.899
 21
207.1286
 31
0.0
100
AcDbText
  0
ENDBLK
  5
109
330
106
100
AcDbEntity
  8
0
100
AcDbBlockEnd
  0
BLOCK
  5
10B
330
10A
100
AcDbEntity
  8
LAYER_1
100
AcDbBlockBegin
  2
AIGNBL0101000A
 70
     0
 10
0.0
 20
0.0
 30
0.0
  3
AIGNBL0101000A
  1

  0
TEXT
  5
10C
330
10A
100
AcDbEntity
  8
LAYER_1
100
AcDbText
 10
147.4311
 20
131.8507
 30
0.0
 40
3.0923
  1
15
 50
89.99999999
 41
0.5
100
AcDbText
  0
ENDBLK
  5
10D
330
10A
100
AcDbEntity
  8
0
100
AcDbBlockEnd
  0
BLOCK
  5
10F
330
10E
100
AcDbEntity
  8
LAYER_2
100
AcDbBlockBegin
  2
AIGNBL02010002
 70
     0
 10
0.0
 20
0.0
 30
0.0
  3
AIGNBL02010002
  1

  0
LINE
  5
110
330
10E
100
AcDbEntity
  8
LAYER_2
100
AcDbLine
 10
48.085
 20
119.4098
 30
0.0
 11
36.2725
 21
119.4098
 31
0.0
  0
ENDBLK
  5
111
330
10E
100
AcDbEntity
  8
0
100
AcDbBlockEnd
  0
BLOCK
  5
113
330
112
100
AcDbEntity
  8
LAYER_2
100
AcDbBlockBegin
  2
AIGNBL02010003
 70
     0
 10
0.0
 20
0.0
 30
0.0
  3
AIGNBL02010003
  1

  0
LINE
  5
114
330
112
100
AcDbEntity
  8
LAYER_2
100
AcDbLine
 10
45.5353
 20
115.4097
 30
0.0
 11
36.2725
 21
115.4097
 31
0.0
  0
ENDBLK
  5
115
330
112
100
AcDbEntity
  8
0
100
AcDbBlockEnd
  0
BLOCK
  5
117
330
116
100
AcDbEntity
  8
LAYER_2
100
AcDbBlockBegin
  2
AIGNBL02010004
 70
     0
 10
0.0
 20
0.0
 30
0.0
  3
AIGNBL02010004
  1

  0
LINE
  5
118
330
116
100
AcDbEntity
  8
LAYER_2
100
AcDbLine
 10
44.6237
 20
129.4099
 30
0.0
 11
36.2725
 21
129.4099
 31
0.0
  0
ENDBLK
  5
119
330
116
100
AcDbEntity
  8
0
100
AcDbBlockEnd
  0
BLOCK
  5
11B
330
11A
100
AcDbEntity
  8
LAYER_2
100
AcDbBlockBegin
  2
AIGNBL02010005
 70
     0
 10
0.0
 20
0.0
 30
0.0
  3
AIGNBL02010005
  1

  0
INSERT
  5
11C
330
11A
100
AcDbEntity
  8
LAYER_2
100
AcDbBlockReference
  2
AIGNBL02020006
 10
0.0
 20
0.0
 30
0.0
  0
ENDBLK
  5
11D
330
11A
100
AcDbEntity
  8
0
100
AcDbBlockEnd
  0
BLOCK
  5
11F
330
11E
100
AcDbEntity
  8
LAYER_2
100
AcDbBlockBegin
  2
AIGNBL02010007
 70
     0
 10
0.0
 20
0.0
 30
0.0
  3
AIGNBL02010007
  1

  0
INSERT
  5
120
330
11E
100
AcDbEntity
  8
LAYER_2
100
AcDbBlockReference
  2
AIGNBL02020008
 10
0.0
 20
0.0
 30
0.0
  0
ENDBLK
  5
121
330
11E
100
AcDbEntity
  8
0
100
AcDbBlockEnd
  0
BLOCK
  5
123
330
122
100
AcDbEntity
  8
LAYER_2
100
AcDbBlockBegin
  2
AIGNBL02010009
 70
     0
 10
0.0
 20
0.0
 30
0.0
  3
AIGNBL02010009
  1

  0
INSERT
  5
124
330
122
100
AcDbEntity
  8
LAYER_2
100
AcDbBlockReference
  2
AIGNBL0202000A
 10
0.0
 20
0.0
 30
0.0
  0
ENDBLK
  5
125
330
122
100
AcDbEntity
  8
0
100
AcDbBlockEnd
  0
BLOCK
  5
127
330
126
100
AcDbEntity
  8
LAYER_2
100
AcDbBlockBegin
  2
AIGNBL0201000B
 70
     0
 10
0.0
 20
0.0
 30
0.0
  3
AIGNBL0201000B
  1

  0
LINE
  5
128
330
126
100
AcDbEntity
  8
LAYER_2
100
AcDbLine
 10
48.7906
 20
103.8596
 30
0.0
 11
48.7906
 21
118.7046
 31
0.0
  0
ENDBLK
  5
129
330
126
100
AcDbEntity
  8
0
100
AcDbBlockEnd
  0
BLOCK
  5
12B
330
12A
100
AcDbEntity
  8
LAYER_2
100
AcDbBlockBegin
  2
AIGNBL0201000C
 70
     0
 10
0.0
 20
0.0
 30
0.0
  3
AIGNBL0201000C
  1

  0
LINE
  5
12C
330
12A
100
AcDbEntity
  8
LAYER_2
100
AcDbLine
 10
89.7907
 20
103.8596
 30
0.0
 11
89.7907
 21
118.7046
 31
0.0
  0
ENDBLK
  5
12D
330
12A
100
AcDbEntity
  8
0
100
AcDbBlockEnd
  0
BLOCK
  5
12F
330
12E
100
AcDbEntity
  8
LAYER_2
100
AcDbBlockBegin
  2
AIGNBL0201000D
 70
     0
 10
0.0
 20
0.0
 30
0.0
  3
AIGNBL0201000D
  1

  0
INSERT
  5
130
330
12E
100
AcDbEntity
  8
LAYER_2
100
AcDbBlockReference
  2
AIGNBL0202000E
 10
0.0
 20
0.0
 30
0.0
  0
ENDBLK
  5
131
330
12E
100
AcDbEntity
  8
0
100
AcDbBlockEnd
  0
BLOCK
  5
133
330
132
100
AcDbEntity
  8
LAYER_2
100
AcDbBlockBegin
  2
AIGNBL0201000F
 70
     0
 10
0.0
 20
0.0
 30
0.0
  3
AIGNBL0201000F
  1

  0
INSERT
  5
134
330
132
100
AcDbEntity
  8
LAYER_2
100
AcDbBlockReference
  2
AIGNBL02020010
 10
0.0
 20
0.0
 30
0.0
  0
ENDBLK
  5
135
330
132
100
AcDbEntity
  8
0
100
AcDbBlockEnd
  0
BLOCK
  5
137
330
136
100
AcDbEntity
  8
LAYER_2
100
AcDbBlockBegin
  2
AIGNBL02010011
 70
     0
 10
0.0
 20
0.0
 30
0.0
  3
AIGNBL02010011
  1

  0
LINE
  5
138
330
136
100
AcDbEntity
  8
LAYER_2
100
AcDbLine
 10
150.937
 20
214.5082
 30
0.0
 11
159.3014
 21
217.2229
 31
0.0
  0
LINE
  5
139
330
136
100
AcDbEntity
  8
LAYER_2
100
AcDbLine
 10
152.816
 20
214.5066
 30
0.0
 11
154.7404
 21
215.7453
 31
0.0
  0
LINE
  5
13A
330
136
100
AcDbEntity
  8
LAYER_2
100
AcDbLine
 10
154.7404
 20
215.7453
 30
0.0
 11
152.4546
 21
215.6347
 31
0.0
  0
LINE
  5
13B
330
136
100
AcDbEntity
  8
LAYER_2
100
AcDbLine
 10
152.4546
 20
215.6347
 30
0.0
 11
152.816
 21
214.5066
 31
0.0
  0
ENDBLK
  5
13C
330
136
100
AcDbEntity
  8
0
100
AcDbBlockEnd
  0
BLOCK
  5
13E
330
13D
100
AcDbEntity
  8
LAYER_2
100
AcDbBlockBegin
  2
AIGNBL02010012
 70
     0
 10
0.0
 20
0.0
 30
0.0
  3
AIGNBL02010012
  1

  0
LINE
  5
13F
330
13D
100
AcDbEntity
  8
LAYER_2
100
AcDbLine
 10
129.0169
 20
214.5082
 30
0.0
 11
120.4455
 21
216.3275
 31
0.0
  0
LINE
  5
140
330
13D
100
AcDbEntity
  8
LAYER_2
100
AcDbLine
 10
127.3905
 20
215.449
 30
0.0
 11
125.1043
 21
215.3384
 31
0.0
  0
LINE
  5
141
330
13D
100
AcDbEntity
  8
LAYER_2
100
AcDbLine
 10
125.1043
 20
215.3384
 30
0.0
 11
127.1393
 21
214.2915
 31
0.0
  0
LINE
  5
142
330
13D
100
AcDbEntity
  8
LAYER_2
100
AcDbLine
 10
127.1393
 20
214.2915
 30
0.0
 11
127.3905
 21
215.449
 31
0.0
  0
ENDBLK
  5
143
330
13D
100
AcDbEntity
  8
0
100
AcDbBlockEnd
  0
BLOCK
  5
145
330
144
100
AcDbEntity
  8
LAYER_2
100
AcDbBlockBegin
  2
AIGNBL02010013
 70
     0
 10
0.0
 20
0.0
 30
0.0
  3
AIGNBL02010013
  1

  0
LINE
  5
146
330
144
100
AcDbEntity
  8
LAYER_2
100
AcDbLine
 10
93.2804
 20
129.0984
 30
0.0
 11
93.2911
 21
129.1601
 31
0.0
  0
ARC
  5
147
330
144
100
AcDbEntity
  8
LAYER_2
100
AcDbCircle
 10
93.0317
 20
129.1505
 30
0.0
 40
0.2595
100
AcDbArc
 50
2.116494181
 51
87.97517903
  0
LINE
  5
148
330
144
100
AcDbEntity
  8
LAYER_2
100
AcDbLine
 10
93.0409
 20
129.4099
 30
0.0
 11
45.5403
 21
129.4099
 31
0.0
  0
ARC
  5
149
330
144
100
AcDbEntity
  8
LAYER_2
100
AcDbCircle
 10
45.5403
 20
129.1601
 30
0.0
 40
0.2498
100
AcDbArc
 50
90.00362765
 51
179.9963723
  0
LINE
  5
14A
330
144
100
AcDbEntity
  8
LAYER_2
100
AcDbLine
 10
45.2905
 20
129.1601
 30
0.0
 11
45.3071
 21
129.0805
 31
0.0
  0
LINE
  5
14B
330
144
100
AcDbEntity
  8
LAYER_2
100
AcDbLine
 10
45.3071
 20
129.0805
 30
0.0
 11
48.7906
 21
119.4101
 31
0.0
  0
LINE
  5
14C
330
144
100
AcDbEntity
  8
LAYER_2
100
AcDbLine
 10
48.7906
 20
119.4101
 30
0.0
 11
89.7907
 21
119.4101
 31
0.0
  0
LINE
  5
14D
330
144
100
AcDbEntity
  8
LAYER_2
100
AcDbLine
 10
89.7907
 20
119.4101
 30
0.0
 11
93.2804
 21
129.0984
 31
0.0
  0
ENDBLK
  5
14E
330
144
100
AcDbEntity
  8
0
100
AcDbBlockEnd
  0
BLOCK
  5
150
330
14F
100
AcDbEntity
  8
LAYER_2
100
AcDbBlockBegin
  2
AIGNBL02010014
 70
     0
 10
0.0
 20
0.0
 30
0.0
  3
AIGNBL02010014
  1

  0
LINE
  5
151
330
14F
100
AcDbEntity
  8
LAYER_2
100
AcDbLine
 10
163.9667
 20
129.0984
 30
0.0
 11
163.9771
 21
129.1601
 31
0.0
  0
ARC
  5
152
330
14F
100
AcDbEntity
  8
LAYER_2
100
AcDbCircle
 10
163.7179
 20
129.1507
 30
0.0
 40
0.2594
100
AcDbArc
 50
2.08431739
 51
88.00735583
  0
LINE
  5
153
330
14F
100
AcDbEntity
  8
LAYER_2
100
AcDbLine
 10
163.7269
 20
129.4099
 30
0.0
 11
116.2267
 21
129.4099
 31
0.0
  0
ARC
  5
154
330
14F
100
AcDbEntity
  8
LAYER_2
100
AcDbCircle
 10
116.2362
 20
129.1503
 30
0.0
 40
0.2598
100
AcDbArc
 50
92.1029397
 51
177.8282916
  0
LINE
  5
155
330
14F
100
AcDbEntity
  8
LAYER_2
100
AcDbLine
 10
115.9766
 20
129.1601
 30
0.0
 11
115.9931
 21
129.0805
 31
0.0
  0
LINE
  5
156
330
14F
100
AcDbEntity
  8
LAYER_2
100
AcDbLine
 10
115.9931
 20
129.0805
 30
0.0
 11
119.4768
 21
119.4101
 31
0.0
  0
LINE
  5
157
330
14F
100
AcDbEntity
  8
LAYER_2
100
AcDbLine
 10
119.4768
 20
119.4101
 30
0.0
 11
160.4768
 21
119.4101
 31
0.0
  0
LINE
  5
158
330
14F
100
AcDbEntity
  8
LAYER_2
100
AcDbLine
 10
160.4768
 20
119.4101
 30
0.0
 11
163.9667
 21
129.0984
 31
0.0
  0
ENDBLK
  5
159
330
14F
100
AcDbEntity
  8
0
100
AcDbBlockEnd
  0
BLOCK
  5
15B
330
15A
100
AcDbEntity
  8
LAYER_2
100
AcDbBlockBegin
  2
AIGNBL02010015
 70
     0
 10
0.0
 20
0.0
 30
0.0
  3
AIGNBL02010015
  1

  0
LINE
  5
15C
330
15A
100
AcDbEntity
  8
LAYER_2
  6
AIGENLINE001
100
AcDbLine
 10
155.477
 20
122.7078
 30
0.0
 11
155.477
 21
130.2339
 31
0.0
  0
ENDBLK
  5
15D
330
15A
100
AcDbEntity
  8
0
100
AcDbBlockEnd
  0
BLOCK
  5
15F
330
15E
100
AcDbEntity
  8
LAYER_2
100
AcDbBlockBegin
  2
AIGNBL02010016
 70
     0
 10
0.0
 20
0.0
 30
0.0
  3
AIGNBL02010016
  1

  0
LINE
  5
160
330
15E
100
AcDbEntity
  8
LAYER_2
100
AcDbLine
 10
45.8073
 20
171.809
 30
0.0
 11
92.8072
 21
171.809
 31
0.0
  0
LINE
  5
161
330
15E
100
AcDbEntity
  8
LAYER_2
100
AcDbLine
 10
48.019
 20
172.4015
 30
0.0
 11
45.8073
 21
171.809
 31
0.0
  0
LINE
  5
162
330
15E
100
AcDbEntity
  8
LAYER_2
100
AcDbLine
 10
45.8073
 20
171.809
 30
0.0
 11
48.019
 21
171.2164
 31
0.0
  0
LINE
  5
163
330
15E
100
AcDbEntity
  8
LAYER_2
100
AcDbLine
 10
48.019
 20
171.2164
 30
0.0
 11
48.019
 21
172.4015
 31
0.0
  0
LINE
  5
164
330
15E
100
AcDbEntity
  8
LAYER_2
100
AcDbLine
 10
90.5954
 20
172.4015
 30
0.0
 11
92.8072
 21
171.809
 31
0.0
  0
LINE
  5
165
330
15E
100
AcDbEntity
  8
LAYER_2
100
AcDbLine
 10
92.8072
 20
171.809
 30
0.0
 11
90.5954
 21
171.2164
 31
0.0
  0
LINE
  5
166
330
15E
100
AcDbEntity
  8
LAYER_2
100
AcDbLine
 10
90.5954
 20
171.2164
 30
0.0
 11
90.5954
 21
172.4015
 31
0.0
  0
ENDBLK
  5
167
330
15E
100
AcDbEntity
  8
0
100
AcDbBlockEnd
  0
BLOCK
  5
169
330
168
100
AcDbEntity
  8
LAYER_2
100
AcDbBlockBegin
  2
AIGNBL02010017
 70
     0
 10
0.0
 20
0.0
 30
0.0
  3
AIGNBL02010017
  1

  0
LINE
  5
16A
330
168
100
AcDbEntity
  8
LAYER_2
100
AcDbLine
 10
45.3072
 20
164.8091
 30
0.0
 11
93.3072
 21
164.8091
 31
0.0
  0
LINE
  5
16B
330
168
100
AcDbEntity
  8
LAYER_2
100
AcDbLine
 10
47.519
 20
165.4016
 30
0.0
 11
45.3072
 21
164.8091
 31
0.0
  0
LINE
  5
16C
330
168
100
AcDbEntity
  8
LAYER_2
100
AcDbLine
 10
45.3072
 20
164.8091
 30
0.0
 11
47.519
 21
164.2165
 31
0.0
  0
LINE
  5
16D
330
168
100
AcDbEntity
  8
LAYER_2
100
AcDbLine
 10
47.519
 20
164.2165
 30
0.0
 11
47.519
 21
165.4016
 31
0.0
  0
LINE
  5
16E
330
168
100
AcDbEntity
  8
LAYER_2
100
AcDbLine
 10
91.0955
 20
165.4016
 30
0.0
 11
93.3072
 21
164.8091
 31
0.0
  0
LINE
  5
16F
330
168
100
AcDbEntity
  8
LAYER_2
100
AcDbLine
 10
93.3072
 20
164.8091
 30
0.0
 11
91.0955
 21
164.2165
 31
0.0
  0
LINE
  5
170
330
168
100
AcDbEntity
  8
LAYER_2
100
AcDbLine
 10
91.0955
 20
164.2165
 30
0.0
 11
91.0955
 21
165.4016
 31
0.0
  0
ENDBLK
  5
171
330
168
100
AcDbEntity
  8
0
100
AcDbBlockEnd
  0
BLOCK
  5
173
330
172
100
AcDbEntity
  8
LAYER_2
100
AcDbBlockBegin
  2
AIGNBL02010018
 70
     0
 10
0.0
 20
0.0
 30
0.0
  3
AIGNBL02010018
  1

  0
LINE
  5
174
330
172
100
AcDbEntity
  8
LAYER_2
100
AcDbLine
 10
94.0052
 20
227.5479
 30
0.0
 11
72.92
 21
227.5479
 31
0.0
  0
ENDBLK
  5
175
330
172
100
AcDbEntity
  8
0
100
AcDbBlockEnd
  0
BLOCK
  5
177
330
176
100
AcDbEntity
  8
LAYER_2
100
AcDbBlockBegin
  2
AIGNBL02010019
 70
     0
 10
0.0
 20
0.0
 30
0.0
  3
AIGNBL02010019
  1

  0
LINE
  5
178
330
176
100
AcDbEntity
  8
LAYER_2
100
AcDbLine
 10
94.0052
 20
219.0478
 30
0.0
 11
73.6475
 21
219.0478
 31
0.0
  0
ENDBLK
  5
179
330
176
100
AcDbEntity
  8
0
100
AcDbBlockEnd
  0
BLOCK
  5
17B
330
17A
100
AcDbEntity
  8
LAYER_2
100
AcDbBlockBegin
  2
AIGNBL0201001A
 70
     0
 10
0.0
 20
0.0
 30
0.0
  3
AIGNBL0201001A
  1

  0
LINE
  5
17C
330
17A
100
AcDbEntity
  8
LAYER_2
100
AcDbLine
 10
163.9774
 20
130.2904
 30
0.0
 11
163.9774
 21
137.604
 31
0.0
  0
ENDBLK
  5
17D
330
17A
100
AcDbEntity
  8
0
100
AcDbBlockEnd
  0
BLOCK
  5
17F
330
17E
100
AcDbEntity
  8
LAYER_2
100
AcDbBlockBegin
  2
AIGNBL0201001B
 70
     0
 10
0.0
 20
0.0
 30
0.0
  3
AIGNBL0201001B
  1

  0
LINE
  5
180
330
17E
100
AcDbEntity
  8
LAYER_2
100
AcDbLine
 10
155.477
 20
130.934
 30
0.0
 11
155.477
 21
137.5895
 31
0.0
  0
ENDBLK
  5
181
330
17E
100
AcDbEntity
  8
0
100
AcDbBlockEnd
  0
BLOCK
  5
183
330
182
100
AcDbEntity
  8
LAYER_2
100
AcDbBlockBegin
  2
AIGNBL0201001C
 70
     0
 10
0.0
 20
0.0
 30
0.0
  3
AIGNBL0201001C
  1

  0
INSERT
  5
184
330
182
100
AcDbEntity
  8
LAYER_2
100
AcDbBlockReference
  2
AIGNBL0202001D
 10
0.0
 20
0.0
 30
0.0
  0
ENDBLK
  5
185
330
182
100
AcDbEntity
  8
0
100
AcDbBlockEnd
  0
BLOCK
  5
187
330
186
100
AcDbEntity
  8
LAYER_2
100
AcDbBlockBegin
  2
AIGNBL0201001E
 70
     0
 10
0.0
 20
0.0
 30
0.0
  3
AIGNBL0201001E
  1

  0
INSERT
  5
188
330
186
100
AcDbEntity
  8
LAYER_2
100
AcDbBlockReference
  2
AIGNBL0202001F
 10
0.0
 20
0.0
 30
0.0
  0
ENDBLK
  5
189
330
186
100
AcDbEntity
  8
0
100
AcDbBlockEnd
  0
BLOCK
  5
18B
330
18A
100
AcDbEntity
  8
LAYER_2
100
AcDbBlockBegin
  2
AIGNBL02010020
 70
     0
 10
0.0
 20
0.0
 30
0.0
  3
AIGNBL02010020
  1

  0
INSERT
  5
18C
330
18A
100
AcDbEntity
  8
LAYER_2
100
AcDbBlockReference
  2
AIGNBL02020021
 10
0.0
 20
0.0
 30
0.0
  0
ENDBLK
  5
18D
330
18A
100
AcDbEntity
  8
0
100
AcDbBlockEnd
  0
BLOCK
  5
18F
330
18E
100
AcDbEntity
  8
LAYER_2
100
AcDbBlockBegin
  2
AIGNBL02010022
 70
     0
 10
0.0
 20
0.0
 30
0.0
  3
AIGNBL02010022
  1

  0
INSERT
  5
190
330
18E
100
AcDbEntity
  8
LAYER_2
100
AcDbBlockReference
  2
AIGNBL02020023
 10
0.0
 20
0.0
 30
0.0
  0
ENDBLK
  5
191
330
18E
100
AcDbEntity
  8
0
100
AcDbBlockEnd
  0
BLOCK
  5
193
330
192
100
AcDbEntity
  8
LAYER_2
100
AcDbBlockBegin
  2
AIGNBL02010024
 70
     0
 10
0.0
 20
0.0
 30
0.0
  3
AIGNBL02010024
  1

  0
INSERT
  5
194
330
192
100
AcDbEntity
  8
LAYER_2
100
AcDbBlockReference
  2
AIGNBL02020025
 10
0.0
 20
0.0
 30
0.0
  0
ENDBLK
  5
195
330
192
100
AcDbEntity
  8
0
100
AcDbBlockEnd
  0
BLOCK
  5
197
330
196
100
AcDbEntity
  8
LAYER_2
100
AcDbBlockBegin
  2
AIGNBL02010026
 70
     0
 10
0.0
 20
0.0
 30
0.0
  3
AIGNBL02010026
  1

  0
INSERT
  5
198
330
196
100
AcDbEntity
  8
LAYER_2
100
AcDbBlockReference
  2
AIGNBL02020027
 10
0.0
 20
0.0
 30
0.0
  0
ENDBLK
  5
199
330
196
100
AcDbEntity
  8
0
100
AcDbBlockEnd
  0
BLOCK
  5
19B
330
19A
100
AcDbEntity
  8
LAYER_2
100
AcDbBlockBegin
  2
AIGNBL02010028
 70
     0
 10
0.0
 20
0.0
 30
0.0
  3
AIGNBL02010028
  1

  0
LINE
  5
19C
330
19A
100
AcDbEntity
  8
LAYER_2
100
AcDbLine
 10
142.2568
 20
210.6743
 30
0.0
 11
139.9772
 21
210.4702
 31
0.0
  0
LINE
  5
19D
330
19A
100
AcDbEntity
  8
LAYER_2
100
AcDbLine
 10
139.9772
 20
210.4702
 30
0.0
 11
142.0532
 21
209.5076
 31
0.0
  0
LINE
  5
19E
330
19A
100
AcDbEntity
  8
LAYER_2
100
AcDbLine
 10
142.0532
 20
209.5076
 30
0.0
 11
142.2568
 21
210.6743
 31
0.0
  0
ENDBLK
  5
19F
330
19A
100
AcDbEntity
  8
0
100
AcDbBlockEnd
  0
BLOCK
  5
1A1
330
1A0
100
AcDbEntity
  8
LAYER_2
100
AcDbBlockBegin
  2
AIGNBL02010029
 70
     0
 10
0.0
 20
0.0
 30
0.0
  3
AIGNBL02010029
  1

  0
LINE
  5
1A2
330
1A0
100
AcDbEntity
  8
LAYER_2
100
AcDbLine
 10
136.5214
 20
210.2225
 30
0.0
 11
135.0824
 21
208.4427
 31
0.0
  0
LINE
  5
1A3
330
1A0
100
AcDbEntity
  8
LAYER_2
100
AcDbLine
 10
135.0824
 20
208.4427
 30
0.0
 11
137.218
 21
209.2647
 31
0.0
  0
LINE
  5
1A4
330
1A0
100
AcDbEntity
  8
LAYER_2
100
AcDbLine
 10
137.218
 20
209.2647
 30
0.0
 11
136.5214
 21
210.2225
 31
0.0
  0
ENDBLK
  5
1A5
330
1A0
100
AcDbEntity
  8
0
100
AcDbBlockEnd
  0
BLOCK
  5
1A7
330
1A6
100
AcDbEntity
  8
LAYER_2
100
AcDbBlockBegin
  2
AIGNBL0201002A
 70
     0
 10
0.0
 20
0.0
 30
0.0
  3
AIGNBL0201002A
  1

  0
LINE
  5
1A8
330
1A6
100
AcDbEntity
  8
LAYER_2
100
AcDbLine
 10
143.4329
 20
210.2225
 30
0.0
 11
144.872
 21
208.4427
 31
0.0
  0
LINE
  5
1A9
330
1A6
100
AcDbEntity
  8
LAYER_2
100
AcDbLine
 10
144.872
 20
208.4427
 30
0.0
 11
142.7363
 21
209.2647
 31
0.0
  0
LINE
  5
1AA
330
1A6
100
AcDbEntity
  8
LAYER_2
100
AcDbLine
 10
142.7363
 20
209.2647
 30
0.0
 11
143.4329
 21
210.2225
 31
0.0
  0
ENDBLK
  5
1AB
330
1A6
100
AcDbEntity
  8
0
100
AcDbBlockEnd
  0
BLOCK
  5
1AD
330
1AC
100
AcDbEntity
  8
LAYER_2
100
AcDbBlockBegin
  2
AIGNBL0201002B
 70
     0
 10
0.0
 20
0.0
 30
0.0
  3
AIGNBL0201002B
  1

  0
LINE
  5
1AE
330
1AC
100
AcDbEntity
  8
LAYER_2
100
AcDbLine
 10
137.6975
 20
210.6743
 30
0.0
 11
139.9772
 21
210.4702
 31
0.0
  0
LINE
  5
1AF
330
1AC
100
AcDbEntity
  8
LAYER_2
100
AcDbLine
 10
139.9772
 20
210.4702
 30
0.0
 11
137.9011
 21
209.5076
 31
0.0
  0
LINE
  5
1B0
330
1AC
100
AcDbEntity
  8
LAYER_2
100
AcDbLine
 10
137.9011
 20
209.5076
 30
0.0
 11
137.6975
 21
210.6743
 31
0.0
  0
ENDBLK
  5
1B1
330
1AC
100
AcDbEntity
  8
0
100
AcDbBlockEnd
  0
BLOCK
  5
1B3
330
1B2
100
AcDbEntity
  8
LAYER_2
100
AcDbBlockBegin
  2
AIGNBL0201002C
 70
     0
 10
0.0
 20
0.0
 30
0.0
  3
AIGNBL0201002C
  1

  0
LINE
  5
1B4
330
1B2
100
AcDbEntity
  8
LAYER_2
100
AcDbLine
 10
148.1369
 20
124.1337
 30
0.0
 11
148.1369
 21
127.9085
 31
0.0
  0
LINE
  5
1B5
330
1B2
100
AcDbEntity
  8
LAYER_2
100
AcDbLine
 10
148.7225
 20
125.6981
 30
0.0
 11
148.13
 21
127.9098
 31
0.0
  0
LINE
  5
1B6
330
1B2
100
AcDbEntity
  8
LAYER_2
100
AcDbLine
 10
148.13
 20
127.9098
 30
0.0
 11
147.5371
 21
125.6981
 31
0.0
  0
LINE
  5
1B7
330
1B2
100
AcDbEntity
  8
LAYER_2
100
AcDbLine
 10
147.5371
 20
125.6981
 30
0.0
 11
148.7225
 21
125.6981
 31
0.0
  0
ENDBLK
  5
1B8
330
1B2
100
AcDbEntity
  8
0
100
AcDbBlockEnd
  0
BLOCK
  5
1BA
330
1B9
100
AcDbEntity
  8
LAYER_2
100
AcDbBlockBegin
  2
AIGNBL0201002D
 70
     0
 10
0.0
 20
0.0
 30
0.0
  3
AIGNBL0201002D
  1

  0
LINE
  5
1BB
330
1B9
100
AcDbEntity
  8
LAYER_2
100
AcDbLine
 10
148.1369
 20
129.4112
 30
0.0
 11
148.1369
 21
134.9375
 31
0.0
  0
LINE
  5
1BC
330
1B9
100
AcDbEntity
  8
LAYER_2
100
AcDbLine
 10
147.5519
 20
131.6216
 30
0.0
 11
148.1444
 21
129.4099
 31
0.0
  0
LINE
  5
1BD
330
1B9
100
AcDbEntity
  8
LAYER_2
100
AcDbLine
 10
148.1444
 20
129.4099
 30
0.0
 11
148.737
 21
131.6216
 31
0.0
  0
LINE
  5
1BE
330
1B9
100
AcDbEntity
  8
LAYER_2
100
AcDbLine
 10
148.737
 20
131.6216
 30
0.0
 11
147.5519
 21
131.6216
 31
0.0
  0
ENDBLK
  5
1BF
330
1B9
100
AcDbEntity
  8
0
100
AcDbBlockEnd
  0
BLOCK
  5
1C1
330
1C0
100
AcDbEntity
  8
LAYER_2
100
AcDbBlockBegin
  2
AIGNBL0201002E
 70
     0
 10
0.0
 20
0.0
 30
0.0
  3
AIGNBL0201002E
  1

  0
LINE
  5
1C2
330
1C0
100
AcDbEntity
  8
LAYER_2
  6
AIGENLINE001
100
AcDbLine
 10
139.9772
 20
117.6052
 30
0.0
 11
139.9772
 21
131.6436
 31
0.0
  0
ENDBLK
  5
1C3
330
1C0
100
AcDbEntity
  8
0
100
AcDbBlockEnd
  0
BLOCK
  5
1C5
330
1C4
100
AcDbEntity
  8
LAYER_2
100
AcDbBlockBegin
  2
AIGNBL0201002F
 70
     0
 10
0.0
 20
0.0
 30
0.0
  3
AIGNBL0201002F
  1

  0
LINE
  5
1C6
330
1C4
100
AcDbEntity
  8
LAYER_2
  6
AIGENLINE001
100
AcDbLine
 10
69.2908
 20
113.417
 30
0.0
 11
69.2908
 21
131.6436
 31
0.0
  0
ENDBLK
  5
1C7
330
1C4
100
AcDbEntity
  8
0
100
AcDbBlockEnd
  0
BLOCK
  5
1C9
330
1C8
100
AcDbEntity
  8
LAYER_2
100
AcDbBlockBegin
  2
AIGNBL02010030
 70
     0
 10
0.0
 20
0.0
 30
0.0
  3
AIGNBL02010030
  1

  0
LINE
  5
1CA
330
1C8
100
AcDbEntity
  8
LAYER_2
  6
AIGENLINE002
100
AcDbLine
 10
90.4445
 20
119.4101
 30
0.0
 11
98.8885
 21
119.4101
 31
0.0
  0
ENDBLK
  5
1CB
330
1C8
100
AcDbEntity
  8
0
100
AcDbBlockEnd
  0
BLOCK
  5
1CD
330
1CC
100
AcDbEntity
  8
LAYER_3
100
AcDbBlockBegin
  2
AIGNBL03010002
 70
     0
 10
0.0
 20
0.0
 30
0.0
  3
AIGNBL03010002
  1

  0
TEXT
  5
1CE
330
1CC
100
AcDbEntity
  8
LAYER_3
100
AcDbText
 10
22.96
 20
40.9301
 30
0.0
 40
3.0923
  1
製図
 41
0.5
100
AcDbText
  0
ENDBLK
  5
1CF
330
1CC
100
AcDbEntity
  8
0
100
AcDbBlockEnd
  0
BLOCK
  5
1D1
330
1D0
100
AcDbEntity
  8
LAYER_3
100
AcDbBlockBegin
  2
AIGNBL03010003
 70
     0
 10
0.0
 20
0.0
 30
0.0
  3
AIGNBL03010003
  1

  0
TEXT
  5
1D2
330
1D0
100
AcDbEntity
  8
LAYER_3
100
AcDbText
 10
22.96
 20
26.7308
 30
0.0
 40
3.0923
  1
備考
 41
0.5
100
AcDbText
  0
ENDBLK
  5
1D3
330
1D0
100
AcDbEntity
  8
0
100
AcDbBlockEnd
  0
BLOCK
  5
1D5
330
1D4
100
AcDbEntity
  8
LAYER_3
100
AcDbBlockBegin
  2
AIGNBL03010004
 70
     0
 10
0.0
 20
0.0
 30
0.0
  3
AIGNBL03010004
  1

  0
TEXT
  5
1D6
330
1D4
100
AcDbEntity
  8
LAYER_3
100
AcDbText
 10
34.5781
 20
40.9301
 30
0.0
 40
3.0923
  1
検図
 41
0.5
100
AcDbText
  0
ENDBLK
  5
1D7
330
1D4
100
AcDbEntity
  8
0
100
AcDbBlockEnd
  0
BLOCK
  5
1D9
330
1D8
100
AcDbEntity
  8
LAYER_3
100
AcDbBlockBegin
  2
AIGNBL03010005
 70
     0
 10
0.0
 20
0.0
 30
0.0
  3
AIGNBL03010005
  1

  0
TEXT
  5
1DA
330
1D8
100
AcDbEntity
  8
LAYER_3
100
AcDbText
 10
71.2094
 20
40.9301
 30
0.0
 40
3.0923
  1
日
 41
0.5
100
AcDbText
  0
TEXT
  5
1DB
330
1D8
100
AcDbEntity
  8
LAYER_3
100
AcDbText
 10
74.768
 20
40.9301
 30
0.0
 40
3.0923
  1
付
 41
0.5
100
AcDbText
  0
ENDBLK
  5
1DC
330
1D8
100
AcDbEntity
  8
0
100
AcDbBlockEnd
  0
BLOCK
  5
1DE
330
1DD
100
AcDbEntity
  8
LAYER_3
100
AcDbBlockBegin
  2
AIGNBL03010006
 70
     0
 10
0.0
 20
0.0
 30
0.0
  3
AIGNBL03010006
  1

  0
TEXT
  5
1DF
330
1DD
100
AcDbEntity
  8
LAYER_3
100
AcDbText
 10
72.7242
 20
34.7376
 30
0.0
 40
3.6546
  1
22.10.28
 41
0.5
100
AcDbText
  0
ENDBLK
  5
1E0
330
1DD
100
AcDbEntity
  8
0
100
AcDbBlockEnd
  0
BLOCK
  5
1E2
330
1E1
100
AcDbEntity
  8
LAYER_3
100
AcDbBlockBegin
  2
AIGNBL03010007
 70
     0
 10
0.0
 20
0.0
 30
0.0
  3
AIGNBL03010007
  1

  0
TEXT
  5
1E3
330
1E1
100
AcDbEntity
  8
LAYER_3
100
AcDbText
 10
23.0921
 20
35.1227
 30
0.0
 40
3.6546
  1
菅原
 41
0.5
100
AcDbText
  0
ENDBLK
  5
1E4
330
1E1
100
AcDbEntity
  8
0
100
AcDbBlockEnd
  0
BLOCK
  5
1E6
330
1E5
100
AcDbEntity
  8
LAYER_3
100
AcDbBlockBegin
  2
AIGNBL03010008
 70
     0
 10
0.0
 20
0.0
 30
0.0
  3
AIGNBL03010008
  1

  0
TEXT
  5
1E7
330
1E5
100
AcDbEntity
  8
LAYER_3
100
AcDbText
 10
41.666
 20
35.1227
 30
0.0
 40
3.6546
  1
井田
 41
0.5
100
AcDbText
  0
ENDBLK
  5
1E8
330
1E5
100
AcDbEntity
  8
0
100
AcDbBlockEnd
  0
BLOCK
  5
1EA
330
1E9
100
AcDbEntity
  8
LAYER_3
100
AcDbBlockBegin
  2
AIGNBL03010009
 70
     0
 10
0.0
 20
0.0
 30
0.0
  3
AIGNBL03010009
  1

  0
TEXT
  5
1EB
330
1E9
100
AcDbEntity
  8
LAYER_3
100
AcDbText
 10
92.4409
 20
34.7376
 30
0.0
 40
3.6546
  1
1
 41
0.5
100
AcDbText
  0
TEXT
  5
1EC
330
1E9
100
AcDbEntity
  8
LAYER_3
100
AcDbText
 10
95.3301
 20
34.7376
 30
0.0
 40
3.6546
  1
 ：
 41
0.5
100
AcDbText
  0
TEXT
  5
1ED
330
1E9
100
AcDbEntity
  8
LAYER_3
100
AcDbText
 10
98.0497
 20
34.7376
 30
0.0
 40
3.6546
  1
 10
 41
0.5
100
AcDbText
  0
ENDBLK
  5
1EE
330
1E9
100
AcDbEntity
  8
0
100
AcDbBlockEnd
  0
BLOCK
  5
1F0
330
1EF
100
AcDbEntity
  8
LAYER_3
100
AcDbBlockBegin
  2
AIGNBL0301000A
 70
     0
 10
0.0
 20
0.0
 30
0.0
  3
AIGNBL0301000A
  1

  0
TEXT
  5
1F1
330
1EF
100
AcDbEntity
  8
LAYER_3
100
AcDbText
 10
90.5816
 20
40.9301
 30
0.0
 40
3.0923
  1
尺度
 41
0.5
100
AcDbText
  0
ENDBLK
  5
1F2
330
1EF
100
AcDbEntity
  8
0
100
AcDbBlockEnd
  0
BLOCK
  5
1F4
330
1F3
100
AcDbEntity
  8
LAYER_3
100
AcDbBlockBegin
  2
AIGNBL0301000B
 70
     0
 10
0.0
 20
0.0
 30
0.0
  3
AIGNBL0301000B
  1

  0
TEXT
  5
1F5
330
1F3
100
AcDbEntity
  8
LAYER_3
100
AcDbText
 10
90.5816
 20
53.3377
 30
0.0
 40
3.0923
  1
単位
 41
0.5
100
AcDbText
  0
ENDBLK
  5
1F6
330
1F3
100
AcDbEntity
  8
0
100
AcDbBlockEnd
  0
BLOCK
  5
1F8
330
1F7
100
AcDbEntity
  8
LAYER_3
100
AcDbBlockBegin
  2
AIGNBL0301000C
 70
     0
 10
0.0
 20
0.0
 30
0.0
  3
AIGNBL0301000C
  1

  0
TEXT
  5
1F9
330
1F7
100
AcDbEntity
  8
LAYER_3
100
AcDbText
 10
94.5686
 20
48.3416
 30
0.0
 40
3.6546
  1
mm
 41
0.5
100
AcDbText
  0
ENDBLK
  5
1FA
330
1F7
100
AcDbEntity
  8
0
100
AcDbBlockEnd
  0
BLOCK
  5
1FC
330
1FB
100
AcDbEntity
  8
LAYER_3
100
AcDbBlockBegin
  2
AIGNBL0301000D
 70
     0
 10
0.0
 20
0.0
 30
0.0
  3
AIGNBL0301000D
  1

  0
TEXT
  5
1FD
330
1FB
100
AcDbEntity
  8
LAYER_3
100
AcDbText
 10
109.5434
 20
53.3377
 30
0.0
 40
3.0923
  1
名称
 41
0.5
100
AcDbText
  0
ENDBLK
  5
1FE
330
1FB
100
AcDbEntity
  8
0
100
AcDbBlockEnd
  0
BLOCK
  5
200
330
1FF
100
AcDbEntity
  8
LAYER_3
100
AcDbBlockBegin
  2
AIGNBL0301000E
 70
     0
 10
0.0
 20
0.0
 30
0.0
  3
AIGNBL0301000E
  1

  0
TEXT
  5
201
330
1FF
100
AcDbEntity
  8
LAYER_3
100
AcDbText
 10
109.5434
 20
33.1987
 30
0.0
 40
3.0923
  1
品番
 41
0.5
100
AcDbText
  0
ENDBLK
  5
202
330
1FF
100
AcDbEntity
  8
0
100
AcDbBlockEnd
  0
BLOCK
  5
204
330
203
100
AcDbEntity
  8
LAYER_3
100
AcDbBlockBegin
  2
AIGNBL0301000F
 70
     0
 10
0.0
 20
0.0
 30
0.0
  3
AIGNBL0301000F
  1

  0
TEXT
  5
205
330
203
100
AcDbEntity
  8
LAYER_3
100
AcDbText
 10
109.5434
 20
23.1989
 30
0.0
 40
3.0923
  1
図番
 41
0.5
100
AcDbText
  0
ENDBLK
  5
206
330
203
100
AcDbEntity
  8
0
100
AcDbBlockEnd
  0
BLOCK
  5
208
330
207
100
AcDbEntity
  8
LAYER_3
100
AcDbBlockBegin
  2
AIGNBL03010010
 70
     0
 10
0.0
 20
0.0
 30
0.0
  3
AIGNBL03010010
  1

  0
ARC
  5
209
330
207
100
AcDbEntity
  8
LAYER_3
100
AcDbCircle
 10
76.2677
 20
51.3242
 30
0.0
 40
2.0851
100
AcDbArc
 50
359.9946783
 51
89.99433025
  0
ARC
  5
20A
330
207
100
AcDbEntity
  8
LAYER_3
100
AcDbCircle
 10
76.2684
 20
51.3245
 30
0.0
 40
2.0848
100
AcDbArc
 50
90.01316011
 51
180.0143225
  0
ARC
  5
20B
330
207
100
AcDbEntity
  8
LAYER_3
100
AcDbCircle
 10
76.2679
 20
51.324
 30
0.0
 40
2.0843
100
AcDbArc
 50
179.9998259
 51
270.0001741
  0
ARC
  5
20C
330
207
100
AcDbEntity
  8
LAYER_3
100
AcDbCircle
 10
76.2682
 20
51.3243
 30
0.0
 40
2.0846
100
AcDbArc
 50
269.9923357
 51
359.9911731
  0
ARC
  5
20D
330
207
100
AcDbEntity
  8
LAYER_3
100
AcDbCircle
 10
76.268
 20
51.3238
 30
0.0
 40
1.2201
100
AcDbArc
 50
0.007341872721
 51
90.00674666
  0
ARC
  5
20E
330
207
100
AcDbEntity
  8
LAYER_3
100
AcDbCircle
 10
76.268
 20
51.3242
 30
0.0
 40
1.2197
100
AcDbArc
 50
90.00605259
 51
180.0080394
  0
ARC
  5
20F
330
207
100
AcDbEntity
  8
LAYER_3
100
AcDbCircle
 10
76.2679
 20
51.324
 30
0.0
 40
1.2196
100
AcDbArc
 50
179.9997024
 51
270.0002974999999
  0
ARC
  5
210
330
207
100
AcDbEntity
  8
LAYER_3
100
AcDbCircle
 10
76.2682
 20
51.3243
 30
0.0
 40
1.2199
100
AcDbArc
 50
269.9869031000001
 51
359.9849164
  0
LINE
  5
211
330
207
100
AcDbEntity
  8
LAYER_3
100
AcDbLine
 10
79.9789
 20
50.1044
 30
0.0
 11
79.9789
 21
52.5439
 31
0.0
  0
LINE
  5
212
330
207
100
AcDbEntity
  8
LAYER_3
100
AcDbLine
 10
85.1569
 20
49.2397
 30
0.0
 11
85.1569
 21
53.4093
 31
0.0
  0
LINE
  5
213
330
207
100
AcDbEntity
  8
LAYER_3
100
AcDbLine
 10
79.9789
 20
52.5439
 30
0.0
 11
85.1569
 21
53.4093
 31
0.0
  0
LINE
  5
214
330
207
100
AcDbEntity
  8
LAYER_3
100
AcDbLine
 10
79.9789
 20
50.1044
 30
0.0
 11
85.1569
 21
49.2397
 31
0.0
  0
LINE
  5
215
330
207
100
AcDbEntity
  8
LAYER_3
100
AcDbLine
 10
76.2679
 20
51.324
 30
0.0
 11
76.2679
 21
51.0725
 31
0.0
  0
LINE
  5
216
330
207
100
AcDbEntity
  8
LAYER_3
100
AcDbLine
 10
76.2679
 20
50.832
 30
0.0
 11
76.2679
 21
48.6454
 31
0.0
  0
LINE
  5
217
330
207
100
AcDbEntity
  8
LAYER_3
100
AcDbLine
 10
76.2679
 20
51.324
 30
0.0
 11
76.52
 21
51.324
 31
0.0
  0
LINE
  5
218
330
207
100
AcDbEntity
  8
LAYER_3
100
AcDbLine
 10
76.7605
 20
51.324
 30
0.0
 11
78.9475
 21
51.324
 31
0.0
  0
LINE
  5
219
330
207
100
AcDbEntity
  8
LAYER_3
100
AcDbLine
 10
76.2679
 20
51.324
 30
0.0
 11
76.2679
 21
51.5765
 31
0.0
  0
LINE
  5
21A
330
207
100
AcDbEntity
  8
LAYER_3
100
AcDbLine
 10
76.2679
 20
51.8166
 30
0.0
 11
76.2679
 21
54.0036
 31
0.0
  0
LINE
  5
21B
330
207
100
AcDbEntity
  8
LAYER_3
100
AcDbLine
 10
76.2679
 20
51.324
 30
0.0
 11
76.0164
 21
51.324
 31
0.0
  0
LINE
  5
21C
330
207
100
AcDbEntity
  8
LAYER_3
100
AcDbLine
 10
75.7759
 20
51.324
 30
0.0
 11
73.5889
 21
51.324
 31
0.0
  0
LINE
  5
21D
330
207
100
AcDbEntity
  8
LAYER_3
100
AcDbLine
 10
82.1721
 20
51.324
 30
0.0
 11
82.4243
 21
51.324
 31
0.0
  0
LINE
  5
21E
330
207
100
AcDbEntity
  8
LAYER_3
100
AcDbLine
 10
82.6647
 20
51.324
 30
0.0
 11
85.5896
 21
51.324
 31
0.0
  0
LINE
  5
21F
330
207
100
AcDbEntity
  8
LAYER_3
100
AcDbLine
 10
82.1721
 20
51.324
 30
0.0
 11
81.9199
 21
51.324
 31
0.0
  0
LINE
  5
220
330
207
100
AcDbEntity
  8
LAYER_3
100
AcDbLine
 10
81.6794
 20
51.324
 30
0.0
 11
79.4932
 21
51.324
 31
0.0
  0
ENDBLK
  5
221
330
207
100
AcDbEntity
  8
0
100
AcDbBlockEnd
  0
ENDSEC
  0
SECTION
  2
ENTITIES
  0
INSERT
  5
222
330
6F
100
AcDbEntity
  8
LAYER_1
100
AcDbBlockReference
  2
AIGNBL01010002
 10
0.0
 20
0.0
 30
0.0
  0
INSERT
  5
223
330
6F
100
AcDbEntity
  8
LAYER_1
100
AcDbBlockReference
  2
AIGNBL01010003
 10
0.0
 20
0.0
 30
0.0
  0
INSERT
  5
224
330
6F
100
AcDbEntity
  8
LAYER_1
100
AcDbBlockReference
  2
AIGNBL01010004
 10
0.0
 20
0.0
 30
0.0
  0
INSERT
  5
225
330
6F
100
AcDbEntity
  8
LAYER_1
100
AcDbBlockReference
  2
AIGNBL01010005
 10
0.0
 20
0.0
 30
0.0
  0
INSERT
  5
226
330
6F
100
AcDbEntity
  8
LAYER_1
100
AcDbBlockReference
  2
AIGNBL01010006
 10
0.0
 20
0.0
 30
0.0
  0
TEXT
  5
227
330
6F
100
AcDbEntity
  8
LAYER_1
100
AcDbText
 10
75.53703333333334
 20
198.7202
 30
0.0
 40
3.0923
  1
%%c46
 41
0.5
 72
     2
 11
79.6601
 21
198.7202
 31
0.0
100
AcDbText
  0
TEXT
  5
228
330
6F
100
AcDbEntity
  8
LAYER_1
100
AcDbText
 10
59.0942
 20
215.6423
 30
0.0
 40
3.0923
  1
%%c35
 41
0.5
100
AcDbText
  0
TEXT
  5
229
330
6F
100
AcDbEntity
  8
LAYER_1
100
AcDbText
 10
36.49529999869571
 20
105.2394416666667
 30
0.0
 40
3.0923
  1
max.40
 50
89.99999999
 41
0.5
 72
     2
 11
36.4953
 21
112.7125
 31
0.0
100
AcDbText
  0
TEXT
  5
22A
330
6F
100
AcDbEntity
  8
LAYER_1
100
AcDbText
 10
133.033005
 20
180.3561
 30
0.0
 40
3.0923
  1
カウンター切込寸法
 41
0.5
 72
     1
 11
141.2276
 21
180.3561
 31
0.0
100
AcDbText
  0
TEXT
  5
22B
330
6F
100
AcDbEntity
  8
LAYER_1
100
AcDbText
 10
125.378
 20
167.9601
 30
0.0
 40
3.0923
  1
　　　測定して穴あけしてください。
 41
0.5
100
AcDbText
  0
TEXT
  5
22C
330
6F
100
AcDbEntity
  8
LAYER_1
100
AcDbText
 10
125.378
 20
172.6169
 30
0.0
 40
3.0923
  1
注）：①～④寸法は洗面器現品を
 41
0.5
100
AcDbText
  0
TEXT
  5
22D
330
6F
100
AcDbEntity
  8
LAYER_1
100
AcDbText
 10
155.4605121294493
 20
216.7477695075326
 30
0.0
 40
3.0923
  1
R40
 50
16.20038969
 41
0.5
 72
     2
 11
159.1724
 21
217.8262
 31
0.0
100
AcDbText
  0
TEXT
  5
22E
330
6F
100
AcDbEntity
  8
LAYER_1
100
AcDbText
 10
136.9793591485582
 20
194.2287626840401
 30
0.0
 40
3.0923
  1
R50
 50
74.68659050000001
 41
0.5
 72
     2
 11
138.0002
 21
197.9569
 31
0.0
100
AcDbText
  0
TEXT
  5
22F
330
6F
100
AcDbEntity
  8
LAYER_1
100
AcDbText
 10
141.7571
 20
211.3573
 30
0.0
 40
3.0923
  1
45%%d
 50
331.1974881
 41
0.5
100
AcDbText
  0
TEXT
  5
230
330
6F
100
AcDbEntity
  8
LAYER_1
100
AcDbText
 10
135.0067
 20
209.54
 30
0.0
 40
3.0923
  1
45%%d
 50
31.19761511
 41
0.5
100
AcDbText
  0
TEXT
  5
231
330
6F
100
AcDbEntity
  8
LAYER_1
100
AcDbText
 10
135.6021
 20
219.7397
 30
0.0
 40
3.0923
  1
R195
 50
286.2003897
 41
0.5
100
AcDbText
  0
TEXT
  5
232
330
6F
100
AcDbEntity
  8
LAYER_1
100
AcDbText
 10
120.659
 20
217.0558
 30
0.0
 40
3.0923
  1
R40
 50
348.1821637
 41
0.5
100
AcDbText
  0
INSERT
  5
233
330
6F
100
AcDbEntity
  8
LAYER_1
100
AcDbBlockReference
  2
AIGNBL01010007
 10
0.0
 20
0.0
 30
0.0
  0
INSERT
  5
234
330
6F
100
AcDbEntity
  8
LAYER_1
100
AcDbBlockReference
  2
AIGNBL01010008
 10
0.0
 20
0.0
 30
0.0
  0
TEXT
  5
235
330
6F
100
AcDbEntity
  8
LAYER_1
100
AcDbText
 10
166.0736516666667
 20
192.4298
 30
0.0
 40
3.0923
  1
%%c10穴
 41
0.5
 72
     2
 11
171.3821
 21
192.4298
 31
0.0
100
AcDbText
  0
TEXT
  5
236
330
6F
100
AcDbEntity
  8
LAYER_1
100
AcDbText
 10
165.00425
 20
187.9024
 30
0.0
 40
3.0923
  1
（2ケ所）
 41
0.5
 72
     2
 11
172.735
 21
187.9024
 31
0.0
100
AcDbText
  0
INSERT
  5
237
330
6F
100
AcDbEntity
  8
LAYER_1
100
AcDbBlockReference
  2
AIGNBL01010009
 10
0.0
 20
0.0
 30
0.0
  0
INSERT
  5
238
330
6F
100
AcDbEntity
  8
LAYER_1
100
AcDbBlockReference
  2
AIGNBL0101000A
 10
0.0
 20
0.0
 30
0.0
  0
LINE
  5
239
330
6F
100
AcDbEntity
  8
LAYER_2
  6
AIGENLINE001
100
AcDbLine
 10
69.2908
 20
228.548
 30
0.0
 11
69.2908
 21
178.5479
 31
0.0
  0
LINE
  5
23A
330
6F
100
AcDbEntity
  8
LAYER_2
  6
AIGENLINE001
100
AcDbLine
 10
44.2908
 20
203.5479
 30
0.0
 11
94.2908
 21
203.5479
 31
0.0
  0
LINE
  5
23B
330
6F
100
AcDbEntity
  8
LAYER_2
  6
AIGENLINE001
100
AcDbLine
 10
69.2908
 20
222.3992
 30
0.0
 11
69.2908
 21
215.52
 31
0.0
  0
LINE
  5
23C
330
6F
100
AcDbEntity
  8
LAYER_2
  6
AIGENLINE001
100
AcDbLine
 10
65.5336
 20
219.0478
 30
0.0
 11
72.9419
 21
219.0478
 31
0.0
  0
CIRCLE
  5
23D
330
6F
100
AcDbEntity
  8
LAYER_2
100
AcDbCircle
 10
69.307
 20
203.5479
 30
0.0
 40
2.3001
  0
CIRCLE
  5
23E
330
6F
100
AcDbEntity
  8
LAYER_2
100
AcDbCircle
 10
69.2908
 20
219.0478
 30
0.0
 40
1.7501
  0
LINE
  5
23F
330
6F
100
AcDbEntity
  8
LAYER_2
100
AcDbLine
 10
52.0407
 20
119.4101
 30
0.0
 11
52.0407
 21
115.41
 31
0.0
  0
LINE
  5
240
330
6F
100
AcDbEntity
  8
LAYER_2
100
AcDbLine
 10
51.5408
 20
115.3098
 30
0.0
 11
51.5408
 21
114.9098
 31
0.0
  0
LINE
  5
241
330
6F
100
AcDbEntity
  8
LAYER_2
100
AcDbLine
 10
51.3906
 20
115.41
 30
0.0
 11
52.2908
 21
115.41
 31
0.0
  0
LINE
  5
242
330
6F
100
AcDbEntity
  8
LAYER_2
100
AcDbLine
 10
51.3906
 20
115.3098
 30
0.0
 11
52.2908
 21
115.3098
 31
0.0
  0
LINE
  5
243
330
6F
100
AcDbEntity
  8
LAYER_2
100
AcDbLine
 10
51.5408
 20
114.9098
 30
0.0
 11
52.2908
 21
114.9098
 31
0.0
  0
LINE
  5
244
330
6F
100
AcDbEntity
  8
LAYER_2
100
AcDbLine
 10
51.3906
 20
115.3101
 30
0.0
 11
51.3906
 21
115.41
 31
0.0
  0
LINE
  5
245
330
6F
100
AcDbEntity
  8
LAYER_2
100
AcDbLine
 10
52.0407
 20
114.9098
 30
0.0
 11
52.0407
 21
113.91
 31
0.0
  0
LINE
  5
246
330
6F
100
AcDbEntity
  8
LAYER_2
100
AcDbLine
 10
52.0407
 20
113.91
 30
0.0
 11
52.2908
 21
113.91
 31
0.0
  0
LINE
  5
247
330
6F
100
AcDbEntity
  8
LAYER_2
100
AcDbLine
 10
52.5409
 20
119.4101
 30
0.0
 11
52.5409
 21
115.41
 31
0.0
  0
LINE
  5
248
330
6F
100
AcDbEntity
  8
LAYER_2
100
AcDbLine
 10
53.0408
 20
115.3098
 30
0.0
 11
53.0408
 21
114.9098
 31
0.0
  0
LINE
  5
249
330
6F
100
AcDbEntity
  8
LAYER_2
100
AcDbLine
 10
53.1907
 20
115.41
 30
0.0
 11
52.2908
 21
115.41
 31
0.0
  0
LINE
  5
24A
330
6F
100
AcDbEntity
  8
LAYER_2
100
AcDbLine
 10
53.1907
 20
115.3098
 30
0.0
 11
52.2908
 21
115.3098
 31
0.0
  0
LINE
  5
24B
330
6F
100
AcDbEntity
  8
LAYER_2
100
AcDbLine
 10
53.0408
 20
114.9098
 30
0.0
 11
52.2908
 21
114.9098
 31
0.0
  0
LINE
  5
24C
330
6F
100
AcDbEntity
  8
LAYER_2
100
AcDbLine
 10
53.1907
 20
115.3101
 30
0.0
 11
53.1907
 21
115.41
 31
0.0
  0
LINE
  5
24D
330
6F
100
AcDbEntity
  8
LAYER_2
100
AcDbLine
 10
52.5409
 20
114.9098
 30
0.0
 11
52.5409
 21
113.91
 31
0.0
  0
LINE
  5
24E
330
6F
100
AcDbEntity
  8
LAYER_2
100
AcDbLine
 10
52.5409
 20
113.91
 30
0.0
 11
52.2908
 21
113.91
 31
0.0
  0
LINE
  5
24F
330
6F
100
AcDbEntity
  8
LAYER_2
100
AcDbLine
 10
86.5405
 20
119.4101
 30
0.0
 11
86.5405
 21
115.41
 31
0.0
  0
LINE
  5
250
330
6F
100
AcDbEntity
  8
LAYER_2
100
AcDbLine
 10
87.0408
 20
115.3098
 30
0.0
 11
87.0408
 21
114.9098
 31
0.0
  0
LINE
  5
251
330
6F
100
AcDbEntity
  8
LAYER_2
100
AcDbLine
 10
87.1906
 20
115.41
 30
0.0
 11
86.2908
 21
115.41
 31
0.0
  0
LINE
  5
252
330
6F
100
AcDbEntity
  8
LAYER_2
100
AcDbLine
 10
87.1906
 20
115.3098
 30
0.0
 11
86.2908
 21
115.3098
 31
0.0
  0
LINE
  5
253
330
6F
100
AcDbEntity
  8
LAYER_2
100
AcDbLine
 10
87.0408
 20
114.9098
 30
0.0
 11
86.2908
 21
114.9098
 31
0.0
  0
LINE
  5
254
330
6F
100
AcDbEntity
  8
LAYER_2
100
AcDbLine
 10
86.5405
 20
114.9098
 30
0.0
 11
86.5405
 21
113.91
 31
0.0
  0
LINE
  5
255
330
6F
100
AcDbEntity
  8
LAYER_2
100
AcDbLine
 10
86.5405
 20
113.91
 30
0.0
 11
86.2908
 21
113.91
 31
0.0
  0
LINE
  5
256
330
6F
100
AcDbEntity
  8
LAYER_2
100
AcDbLine
 10
86.0407
 20
119.4101
 30
0.0
 11
86.0407
 21
115.41
 31
0.0
  0
LINE
  5
257
330
6F
100
AcDbEntity
  8
LAYER_2
100
AcDbLine
 10
85.5408
 20
115.3098
 30
0.0
 11
85.5408
 21
114.9098
 31
0.0
  0
LINE
  5
258
330
6F
100
AcDbEntity
  8
LAYER_2
100
AcDbLine
 10
85.3906
 20
115.41
 30
0.0
 11
86.2908
 21
115.41
 31
0.0
  0
LINE
  5
259
330
6F
100
AcDbEntity
  8
LAYER_2
100
AcDbLine
 10
85.3906
 20
115.3098
 30
0.0
 11
86.2908
 21
115.3098
 31
0.0
  0
LINE
  5
25A
330
6F
100
AcDbEntity
  8
LAYER_2
100
AcDbLine
 10
85.5408
 20
114.9098
 30
0.0
 11
86.2908
 21
114.9098
 31
0.0
  0
LINE
  5
25B
330
6F
100
AcDbEntity
  8
LAYER_2
100
AcDbLine
 10
85.3906
 20
115.3101
 30
0.0
 11
85.3906
 21
115.41
 31
0.0
  0
LINE
  5
25C
330
6F
100
AcDbEntity
  8
LAYER_2
100
AcDbLine
 10
86.0407
 20
114.9098
 30
0.0
 11
86.0407
 21
113.91
 31
0.0
  0
LINE
  5
25D
330
6F
100
AcDbEntity
  8
LAYER_2
100
AcDbLine
 10
86.0407
 20
113.91
 30
0.0
 11
86.2908
 21
113.91
 31
0.0
  0
INSERT
  5
25E
330
6F
100
AcDbEntity
  8
LAYER_2
100
AcDbBlockReference
  2
AIGNBL02010002
 10
0.0
 20
0.0
 30
0.0
  0
INSERT
  5
25F
330
6F
100
AcDbEntity
  8
LAYER_2
100
AcDbBlockReference
  2
AIGNBL02010003
 10
0.0
 20
0.0
 30
0.0
  0
INSERT
  5
260
330
6F
100
AcDbEntity
  8
LAYER_2
100
AcDbBlockReference
  2
AIGNBL02010004
 10
0.0
 20
0.0
 30
0.0
  0
INSERT
  5
261
330
6F
100
AcDbEntity
  8
LAYER_2
100
AcDbBlockReference
  2
AIGNBL02010005
 10
0.0
 20
0.0
 30
0.0
  0
INSERT
  5
262
330
6F
100
AcDbEntity
  8
LAYER_2
100
AcDbBlockReference
  2
AIGNBL02010007
 10
0.0
 20
0.0
 30
0.0
  0
INSERT
  5
263
330
6F
100
AcDbEntity
  8
LAYER_2
100
AcDbBlockReference
  2
AIGNBL02010009
 10
0.0
 20
0.0
 30
0.0
  0
INSERT
  5
264
330
6F
100
AcDbEntity
  8
LAYER_2
100
AcDbBlockReference
  2
AIGNBL0201000B
 10
0.0
 20
0.0
 30
0.0
  0
INSERT
  5
265
330
6F
100
AcDbEntity
  8
LAYER_2
100
AcDbBlockReference
  2
AIGNBL0201000C
 10
0.0
 20
0.0
 30
0.0
  0
INSERT
  5
266
330
6F
100
AcDbEntity
  8
LAYER_2
100
AcDbBlockReference
  2
AIGNBL0201000D
 10
0.0
 20
0.0
 30
0.0
  0
LINE
  5
267
330
6F
100
AcDbEntity
  8
LAYER_2
100
AcDbLine
 10
64.7887
 20
208.0307
 30
0.0
 11
74.7988
 21
198.0201
 31
0.0
  0
LINE
  5
268
330
6F
100
AcDbEntity
  8
LAYER_2
100
AcDbLine
 10
74.7988
 20
198.0201
 30
0.0
 11
80.8084
 21
198.0201
 31
0.0
  0
LINE
  5
269
330
6F
100
AcDbEntity
  8
LAYER_2
100
AcDbLine
 10
72.8978
 20
200.7593
 30
0.0
 11
70.9151
 21
201.9041
 31
0.0
  0
LINE
  5
26A
330
6F
100
AcDbEntity
  8
LAYER_2
100
AcDbLine
 10
70.9151
 20
201.9041
 30
0.0
 11
72.06
 21
199.9213
 31
0.0
  0
LINE
  5
26B
330
6F
100
AcDbEntity
  8
LAYER_2
100
AcDbLine
 10
72.06
 20
199.9213
 30
0.0
 11
72.8978
 21
200.7593
 31
0.0
  0
LINE
  5
26C
330
6F
100
AcDbEntity
  8
LAYER_2
100
AcDbLine
 10
65.6796
 20
206.3014
 30
0.0
 11
67.6626
 21
205.1566
 31
0.0
  0
LINE
  5
26D
330
6F
100
AcDbEntity
  8
LAYER_2
100
AcDbLine
 10
67.6626
 20
205.1566
 30
0.0
 11
66.5178
 21
207.1395
 31
0.0
  0
LINE
  5
26E
330
6F
100
AcDbEntity
  8
LAYER_2
100
AcDbLine
 10
66.5178
 20
207.1395
 30
0.0
 11
65.6796
 21
206.3014
 31
0.0
  0
LINE
  5
26F
330
6F
100
AcDbEntity
  8
LAYER_2
100
AcDbLine
 10
73.7909
 20
223.5483
 30
0.0
 11
65.1797
 21
214.9367
 31
0.0
  0
LINE
  5
270
330
6F
100
AcDbEntity
  8
LAYER_2
100
AcDbLine
 10
65.1797
 20
214.9367
 30
0.0
 11
59.1439
 21
214.9367
 31
0.0
  0
LINE
  5
271
330
6F
100
AcDbEntity
  8
LAYER_2
100
AcDbLine
 10
66.0707
 20
216.6655
 30
0.0
 11
68.0533
 21
217.8103
 31
0.0
  0
LINE
  5
272
330
6F
100
AcDbEntity
  8
LAYER_2
100
AcDbLine
 10
68.0533
 20
217.8103
 30
0.0
 11
66.9085
 21
215.8275
 31
0.0
  0
LINE
  5
273
330
6F
100
AcDbEntity
  8
LAYER_2
100
AcDbLine
 10
66.9085
 20
215.8275
 30
0.0
 11
66.0707
 21
216.6655
 31
0.0
  0
LINE
  5
274
330
6F
100
AcDbEntity
  8
LAYER_2
100
AcDbLine
 10
72.5111
 20
221.4301
 30
0.0
 11
70.5281
 21
220.2853
 31
0.0
  0
LINE
  5
275
330
6F
100
AcDbEntity
  8
LAYER_2
100
AcDbLine
 10
70.5281
 20
220.2853
 30
0.0
 11
71.6729
 21
222.2681
 31
0.0
  0
LINE
  5
276
330
6F
100
AcDbEntity
  8
LAYER_2
100
AcDbLine
 10
71.6729
 20
222.2681
 30
0.0
 11
72.5111
 21
221.4301
 31
0.0
  0
INSERT
  5
277
330
6F
100
AcDbEntity
  8
LAYER_2
100
AcDbBlockReference
  2
AIGNBL0201000F
 10
0.0
 20
0.0
 30
0.0
  0
INSERT
  5
278
330
6F
100
AcDbEntity
  8
LAYER_2
100
AcDbBlockReference
  2
AIGNBL02010011
 10
0.0
 20
0.0
 30
0.0
  0
INSERT
  5
279
330
6F
100
AcDbEntity
  8
LAYER_2
100
AcDbBlockReference
  2
AIGNBL02010012
 10
0.0
 20
0.0
 30
0.0
  0
INSERT
  5
27A
330
6F
100
AcDbEntity
  8
LAYER_2
100
AcDbBlockReference
  2
AIGNBL02010013
 10
0.0
 20
0.0
 30
0.0
  0
INSERT
  5
27B
330
6F
100
AcDbEntity
  8
LAYER_2
100
AcDbBlockReference
  2
AIGNBL02010014
 10
0.0
 20
0.0
 30
0.0
  0
ARC
  5
27C
330
6F
100
AcDbEntity
  8
LAYER_2
  6
AIGENLINE003
100
AcDbCircle
 10
65.2461
 20
127.8563
 30
0.0
 40
1.7953
100
AcDbArc
 50
307.6039976
 51
1.707655932
  0
LINE
  5
27D
330
6F
100
AcDbEntity
  8
LAYER_2
  6
AIGENLINE003
100
AcDbLine
 10
71.541
 20
127.9098
 30
0.0
 11
67.0406
 21
127.9098
 31
0.0
  0
LINE
  5
27E
330
6F
100
AcDbEntity
  8
LAYER_2
  6
AIGENLINE003
100
AcDbLine
 10
67.5407
 20
127.9098
 30
0.0
 11
67.5407
 21
125.4452
 31
0.0
  0
LINE
  5
27F
330
6F
100
AcDbEntity
  8
LAYER_2
  6
AIGENLINE003
100
AcDbLine
 10
71.0409
 20
127.9098
 30
0.0
 11
71.0409
 21
125.4452
 31
0.0
  0
ARC
  5
280
330
6F
100
AcDbEntity
  8
LAYER_2
  6
AIGENLINE003
100
AcDbCircle
 10
73.3354
 20
127.8563
 30
0.0
 40
1.7952
100
AcDbArc
 50
178.2909434
 51
232.3974031
  0
LINE
  5
281
330
6F
100
AcDbEntity
  8
LAYER_2
100
AcDbLine
 10
133.7271
 20
119.4101
 30
0.0
 11
133.7271
 21
115.41
 31
0.0
  0
LINE
  5
282
330
6F
100
AcDbEntity
  8
LAYER_2
100
AcDbLine
 10
133.2275
 20
115.3098
 30
0.0
 11
133.2275
 21
114.9098
 31
0.0
  0
LINE
  5
283
330
6F
100
AcDbEntity
  8
LAYER_2
100
AcDbLine
 10
133.0773
 20
115.41
 30
0.0
 11
133.9772
 21
115.41
 31
0.0
  0
LINE
  5
284
330
6F
100
AcDbEntity
  8
LAYER_2
100
AcDbLine
 10
133.0773
 20
115.3098
 30
0.0
 11
133.9772
 21
115.3098
 31
0.0
  0
LINE
  5
285
330
6F
100
AcDbEntity
  8
LAYER_2
100
AcDbLine
 10
133.2275
 20
114.9098
 30
0.0
 11
133.9772
 21
114.9098
 31
0.0
  0
LINE
  5
286
330
6F
100
AcDbEntity
  8
LAYER_2
100
AcDbLine
 10
133.0773
 20
115.3101
 30
0.0
 11
133.0773
 21
115.41
 31
0.0
  0
LINE
  5
287
330
6F
100
AcDbEntity
  8
LAYER_2
100
AcDbLine
 10
133.7271
 20
114.9098
 30
0.0
 11
133.7271
 21
113.91
 31
0.0
  0
LINE
  5
288
330
6F
100
AcDbEntity
  8
LAYER_2
100
AcDbLine
 10
133.7271
 20
113.91
 30
0.0
 11
133.9772
 21
113.91
 31
0.0
  0
LINE
  5
289
330
6F
100
AcDbEntity
  8
LAYER_2
100
AcDbLine
 10
134.2273
 20
119.4101
 30
0.0
 11
134.2273
 21
115.41
 31
0.0
  0
LINE
  5
28A
330
6F
100
AcDbEntity
  8
LAYER_2
100
AcDbLine
 10
134.7275
 20
115.3098
 30
0.0
 11
134.7275
 21
114.9098
 31
0.0
  0
LINE
  5
28B
330
6F
100
AcDbEntity
  8
LAYER_2
100
AcDbLine
 10
134.877
 20
115.41
 30
0.0
 11
133.9772
 21
115.41
 31
0.0
  0
LINE
  5
28C
330
6F
100
AcDbEntity
  8
LAYER_2
100
AcDbLine
 10
134.877
 20
115.3098
 30
0.0
 11
133.9772
 21
115.3098
 31
0.0
  0
LINE
  5
28D
330
6F
100
AcDbEntity
  8
LAYER_2
100
AcDbLine
 10
134.7275
 20
114.9098
 30
0.0
 11
133.9772
 21
114.9098
 31
0.0
  0
LINE
  5
28E
330
6F
100
AcDbEntity
  8
LAYER_2
100
AcDbLine
 10
134.877
 20
115.3101
 30
0.0
 11
134.877
 21
115.41
 31
0.0
  0
LINE
  5
28F
330
6F
100
AcDbEntity
  8
LAYER_2
100
AcDbLine
 10
134.2273
 20
114.9098
 30
0.0
 11
134.2273
 21
113.91
 31
0.0
  0
LINE
  5
290
330
6F
100
AcDbEntity
  8
LAYER_2
100
AcDbLine
 10
134.2273
 20
113.91
 30
0.0
 11
133.9772
 21
113.91
 31
0.0
  0
INSERT
  5
291
330
6F
100
AcDbEntity
  8
LAYER_2
100
AcDbBlockReference
  2
AIGNBL02010015
 10
0.0
 20
0.0
 30
0.0
  0
ARC
  5
292
330
6F
100
AcDbEntity
  8
LAYER_2
  6
AIGENLINE003
100
AcDbCircle
 10
150.3957
 20
127.8972
 30
0.0
 40
2.772
100
AcDbArc
 50
320.6643696
 51
340.0897102
  0
ARC
  5
293
330
6F
100
AcDbEntity
  8
LAYER_2
  6
AIGENLINE003
100
AcDbCircle
 10
147.5028
 20
128.7494
 30
0.0
 40
5.7852
100
AcDbArc
 50
341.9107963000001
 51
351.6546969
  0
LINE
  5
294
330
6F
100
AcDbEntity
  8
LAYER_2
  6
AIGENLINE003
100
AcDbLine
 10
157.7273
 20
127.9098
 30
0.0
 11
153.2267
 21
127.9098
 31
0.0
  0
LINE
  5
295
330
6F
100
AcDbEntity
  8
LAYER_2
  6
AIGENLINE003
100
AcDbLine
 10
157.7273
 20
124.41
 30
0.0
 11
153.2267
 21
124.41
 31
0.0
  0
LINE
  5
296
330
6F
100
AcDbEntity
  8
LAYER_2
  6
AIGENLINE003
100
AcDbLine
 10
153.7269
 20
127.9098
 30
0.0
 11
153.2267
 21
124.41
 31
0.0
  0
LINE
  5
297
330
6F
100
AcDbEntity
  8
LAYER_2
  6
AIGENLINE003
100
AcDbLine
 10
157.2271
 20
127.9098
 30
0.0
 11
157.7273
 21
124.41
 31
0.0
  0
ARC
  5
298
330
6F
100
AcDbEntity
  8
LAYER_2
  6
AIGENLINE003
100
AcDbCircle
 10
160.7453
 20
128.3186
 30
0.0
 40
3.0456
100
AcDbArc
 50
187.714684
 51
210.1139243000001
  0
ARC
  5
299
330
6F
100
AcDbEntity
  8
LAYER_2
  6
AIGENLINE003
100
AcDbCircle
 10
158.9924
 20
127.192
 30
0.0
 40
0.9687
100
AcDbArc
 50
204.4803756
 51
238.2338165
  0
ARC
  5
29A
330
6F
100
AcDbEntity
  8
LAYER_2
  6
AIGENLINE003
100
AcDbCircle
 10
159.1416
 20
127.6349
 30
0.0
 40
1.4278
100
AcDbArc
 50
242.5040497000001
 51
273.4394143999999
  0
ARC
  5
29B
330
6F
100
AcDbEntity
  8
LAYER_2
  6
AIGENLINE003
100
AcDbCircle
 10
159.4305
 20
132.877
 30
0.0
 40
6.6704
100
AcDbArc
 50
268.2540657
 51
281.0020816
  0
ARC
  5
29C
330
6F
100
AcDbEntity
  8
LAYER_2
  6
AIGENLINE003
100
AcDbCircle
 10
160.0364
 20
129.6772
 30
0.0
 40
3.4138
100
AcDbArc
 50
281.2688471
 51
298.3108447
  0
ARC
  5
29D
330
6F
100
AcDbEntity
  8
LAYER_2
  6
AIGENLINE003
100
AcDbCircle
 10
160.5105
 20
128.7736
 30
0.0
 40
2.3935
100
AcDbArc
 50
298.5784500999999
 51
326.8883067
  0
CIRCLE
  5
29E
330
6F
100
AcDbEntity
  8
LAYER_2
100
AcDbCircle
 10
69.3071
 20
203.5479
 30
0.0
 40
23.5
  0
CIRCLE
  5
29F
330
6F
100
AcDbEntity
  8
LAYER_2
100
AcDbCircle
 10
69.3071
 20
203.5479
 30
0.0
 40
23.9999
  0
LINE
  5
2A0
330
6F
100
AcDbEntity
  8
LAYER_2
100
AcDbLine
 10
45.3072
 20
198.1286
 30
0.0
 11
45.3072
 21
164.1035
 31
0.0
  0
LINE
  5
2A1
330
6F
100
AcDbEntity
  8
LAYER_2
100
AcDbLine
 10
45.8073
 20
196.3222
 30
0.0
 11
45.8073
 21
171.1034
 31
0.0
  0
LINE
  5
2A2
330
6F
100
AcDbEntity
  8
LAYER_2
100
AcDbLine
 10
92.8072
 20
196.3222
 30
0.0
 11
92.8072
 21
171.1034
 31
0.0
  0
LINE
  5
2A3
330
6F
100
AcDbEntity
  8
LAYER_2
100
AcDbLine
 10
93.3072
 20
198.1286
 30
0.0
 11
93.3072
 21
164.1035
 31
0.0
  0
INSERT
  5
2A4
330
6F
100
AcDbEntity
  8
LAYER_2
100
AcDbBlockReference
  2
AIGNBL02010016
 10
0.0
 20
0.0
 30
0.0
  0
INSERT
  5
2A5
330
6F
100
AcDbEntity
  8
LAYER_2
100
AcDbBlockReference
  2
AIGNBL02010017
 10
0.0
 20
0.0
 30
0.0
  0
CIRCLE
  5
2A6
330
6F
100
AcDbEntity
  8
LAYER_2
100
AcDbCircle
 10
69.3071
 20
203.5479
 30
0.0
 40
3.75
  0
CIRCLE
  5
2A7
330
6F
100
AcDbEntity
  8
LAYER_2
100
AcDbCircle
 10
69.2963
 20
219.0478
 30
0.0
 40
2.25
  0
INSERT
  5
2A8
330
6F
100
AcDbEntity
  8
LAYER_2
100
AcDbBlockReference
  2
AIGNBL02010018
 10
0.0
 20
0.0
 30
0.0
  0
INSERT
  5
2A9
330
6F
100
AcDbEntity
  8
LAYER_2
100
AcDbBlockReference
  2
AIGNBL02010019
 10
0.0
 20
0.0
 30
0.0
  0
LINE
  5
2AA
330
6F
100
AcDbEntity
  8
LAYER_2
100
AcDbLine
 10
93.3072
 20
219.0474
 30
0.0
 11
93.3072
 21
227.5468
 31
0.0
  0
LINE
  5
2AB
330
6F
100
AcDbEntity
  8
LAYER_2
100
AcDbLine
 10
93.8922
 20
225.3361
 30
0.0
 11
93.2997
 21
227.5479
 31
0.0
  0
LINE
  5
2AC
330
6F
100
AcDbEntity
  8
LAYER_2
100
AcDbLine
 10
93.2997
 20
227.5479
 30
0.0
 11
92.7071
 21
225.3361
 31
0.0
  0
LINE
  5
2AD
330
6F
100
AcDbEntity
  8
LAYER_2
100
AcDbLine
 10
92.7071
 20
225.3361
 30
0.0
 11
93.8922
 21
225.3361
 31
0.0
  0
LINE
  5
2AE
330
6F
100
AcDbEntity
  8
LAYER_2
100
AcDbLine
 10
92.7216
 20
221.2592
 30
0.0
 11
93.3141
 21
219.0474
 31
0.0
  0
LINE
  5
2AF
330
6F
100
AcDbEntity
  8
LAYER_2
100
AcDbLine
 10
93.3141
 20
219.0474
 30
0.0
 11
93.9067
 21
221.2592
 31
0.0
  0
LINE
  5
2B0
330
6F
100
AcDbEntity
  8
LAYER_2
100
AcDbLine
 10
93.9067
 20
221.2592
 30
0.0
 11
92.7216
 21
221.2592
 31
0.0
  0
INSERT
  5
2B1
330
6F
100
AcDbEntity
  8
LAYER_2
100
AcDbBlockReference
  2
AIGNBL0201001A
 10
0.0
 20
0.0
 30
0.0
  0
INSERT
  5
2B2
330
6F
100
AcDbEntity
  8
LAYER_2
100
AcDbBlockReference
  2
AIGNBL0201001B
 10
0.0
 20
0.0
 30
0.0
  0
LINE
  5
2B3
330
6F
100
AcDbEntity
  8
LAYER_2
100
AcDbLine
 10
155.477
 20
136.8964
 30
0.0
 11
163.976
 21
136.8964
 31
0.0
  0
LINE
  5
2B4
330
6F
100
AcDbEntity
  8
LAYER_2
100
AcDbLine
 10
161.7657
 20
136.3114
 30
0.0
 11
163.9774
 21
136.904
 31
0.0
  0
LINE
  5
2B5
330
6F
100
AcDbEntity
  8
LAYER_2
100
AcDbLine
 10
163.9774
 20
136.904
 30
0.0
 11
161.7657
 21
137.4965
 31
0.0
  0
LINE
  5
2B6
330
6F
100
AcDbEntity
  8
LAYER_2
100
AcDbLine
 10
161.7657
 20
137.4965
 30
0.0
 11
161.7657
 21
136.3114
 31
0.0
  0
LINE
  5
2B7
330
6F
100
AcDbEntity
  8
LAYER_2
100
AcDbLine
 10
157.6887
 20
137.482
 30
0.0
 11
155.477
 21
136.8895
 31
0.0
  0
LINE
  5
2B8
330
6F
100
AcDbEntity
  8
LAYER_2
100
AcDbLine
 10
155.477
 20
136.8895
 30
0.0
 11
157.6887
 21
136.2969
 31
0.0
  0
LINE
  5
2B9
330
6F
100
AcDbEntity
  8
LAYER_2
100
AcDbLine
 10
157.6887
 20
136.2969
 30
0.0
 11
157.6887
 21
137.482
 31
0.0
  0
LINE
  5
2BA
330
6F
100
AcDbEntity
  8
LAYER_2
  6
AIGENLINE003
100
AcDbLine
 10
159.2769
 20
119.4101
 30
0.0
 11
158.5958
 21
124.2439
 31
0.0
  0
LINE
  5
2BB
330
6F
100
AcDbEntity
  8
LAYER_2
  6
AIGENLINE003
100
AcDbLine
 10
157.7273
 20
124.41
 30
0.0
 11
158.4415
 21
124.41
 31
0.0
  0
ARC
  5
2BC
330
6F
100
AcDbEntity
  8
LAYER_2
  6
AIGENLINE003
100
AcDbCircle
 10
158.4269
 20
124.2417
 30
0.0
 40
0.1689
100
AcDbArc
 50
0.7299520709999998
 51
85.05166608
  0
ARC
  5
2BD
330
6F
100
AcDbEntity
  8
LAYER_2
  6
AIGENLINE003
100
AcDbCircle
 10
123.913
 20
120.7738
 30
0.0
 40
1.3844
100
AcDbArc
 50
138.6175254
 51
168.7997686
  0
ARC
  5
2BE
330
6F
100
AcDbEntity
  8
LAYER_2
  6
AIGENLINE003
100
AcDbCircle
 10
127.6675
 20
119.4394
 30
0.0
 40
4.4624
100
AcDbArc
 50
153.4823478
 51
167.4066651
  0
LINE
  5
2BF
330
6F
100
AcDbEntity
  8
LAYER_2
  6
AIGENLINE003
100
AcDbLine
 10
118.5859
 20
123.9639
 30
0.0
 11
119.8402
 21
120.3055
 31
0.0
  0
ARC
  5
2C0
330
6F
100
AcDbEntity
  8
LAYER_2
  6
AIGENLINE003
100
AcDbCircle
 10
121.1045
 20
119.2752
 30
0.0
 40
1.3346
100
AcDbArc
 50
88.59229457999999
 51
134.4705135
  0
ARC
  5
2C1
330
6F
100
AcDbEntity
  8
LAYER_2
  6
AIGENLINE003
100
AcDbCircle
 10
120.0291
 20
120.3704
 30
0.0
 40
0.1998
100
AcDbArc
 50
198.9669217
 51
288.9730465
  0
LINE
  5
2C2
330
6F
100
AcDbEntity
  8
LAYER_2
  6
AIGENLINE003
100
AcDbLine
 10
120.0941
 20
120.1815
 30
0.0
 11
120.1696
 21
120.2276
 31
0.0
  0
LINE
  5
2C3
330
6F
100
AcDbEntity
  8
LAYER_2
  6
AIGENLINE003
100
AcDbLine
 10
121.1087
 20
120.6094
 30
0.0
 11
122.3083
 21
120.6183
 31
0.0
  0
LINE
  5
2C4
330
6F
100
AcDbEntity
  8
LAYER_2
  6
AIGENLINE003
100
AcDbLine
 10
122.503
 20
120.7795
 30
0.0
 11
122.555
 21
121.0427
 31
0.0
  0
ARC
  5
2C5
330
6F
100
AcDbEntity
  8
LAYER_2
  6
AIGENLINE003
100
AcDbCircle
 10
122.307
 20
120.818
 30
0.0
 40
0.1997
100
AcDbArc
 50
270.3661637
 51
348.8792991
  0
ARC
  5
2C6
330
6F
100
AcDbEntity
  8
LAYER_2
  6
AIGENLINE003
100
AcDbCircle
 10
138.1497
 20
139.9703
 30
0.0
 40
24.1929
100
AcDbArc
 50
206.256743
 51
216.032106
  0
ARC
  5
2C7
330
6F
100
AcDbEntity
  8
LAYER_2
  6
AIGENLINE003
100
AcDbCircle
 10
125.558
 20
131.5267
 30
0.0
 40
9.0618
100
AcDbArc
 50
219.6934489
 51
264.2795251
  0
ARC
  5
2C8
330
6F
100
AcDbEntity
  8
LAYER_2
  6
AIGENLINE003
100
AcDbCircle
 10
125.5572
 20
131.5248
 30
0.0
 40
9.9087
100
AcDbArc
 50
227.8630363
 51
253.7250740000001
  0
ARC
  5
2C9
330
6F
100
AcDbEntity
  8
LAYER_2
  6
AIGENLINE003
100
AcDbCircle
 10
122.7244
 20
121.8213
 30
0.0
 40
0.1999
100
AcDbArc
 50
318.5615823000001
 51
48.68956962000001
  0
LINE
  5
2CA
330
6F
100
AcDbEntity
  8
LAYER_2
  6
AIGENLINE003
100
AcDbLine
 10
122.8564
 20
121.9715
 30
0.0
 11
122.7803
 21
122.0132
 31
0.0
  0
ARC
  5
2CB
330
6F
100
AcDbEntity
  8
LAYER_2
  6
AIGENLINE003
100
AcDbCircle
 10
118.7759
 20
124.0172
 30
0.0
 40
0.2083
100
AcDbArc
 50
50.14354269
 51
135.7309152
  0
ARC
  5
2CC
330
6F
100
AcDbEntity
  8
LAYER_2
  6
AIGENLINE003
100
AcDbCircle
 10
118.7796
 20
124.0276
 30
0.0
 40
0.2039
100
AcDbArc
 50
138.5424695
 51
198.1951442
  0
ARC
  5
2CD
330
6F
100
AcDbEntity
  8
LAYER_2
  6
AIGENLINE003
100
AcDbCircle
 10
136.7858
 20
244.5884
 30
0.0
 40
122.6796
100
AcDbArc
 50
264.3251217
 51
269.72142
  0
ARC
  5
2CE
330
6F
100
AcDbEntity
  8
LAYER_2
  6
AIGENLINE003
100
AcDbCircle
 10
137.7872
 20
257.3062
 30
0.0
 40
136.282
100
AcDbArc
 50
264.2670814000001
 51
269.401478
  0
ARC
  5
2CF
330
6F
100
AcDbEntity
  8
LAYER_2
  6
AIGENLINE003
100
AcDbCircle
 10
136.3446
 20
120.5149
 30
0.0
 40
0.5172
100
AcDbArc
 50
6.897423409000001
 51
87.89304589
  0
ARC
  5
2D0
330
6F
100
AcDbEntity
  8
LAYER_2
  6
AIGENLINE003
100
AcDbCircle
 10
124.122
 20
121.2086
 30
0.0
 40
0.5
100
AcDbArc
 50
84.05786733
 51
153.500255
  0
ARC
  5
2D1
330
6F
100
AcDbEntity
  8
LAYER_2
  6
AIGENLINE003
100
AcDbCircle
 10
136.1864
 20
121.1081
 30
0.0
 40
0.8021
100
AcDbArc
 50
50.26255836999999
 51
89.79468789
  0
LINE
  5
2D2
330
6F
100
AcDbEntity
  8
LAYER_2
  6
AIGENLINE003
100
AcDbLine
 10
137.497
 20
121.0613
 30
0.0
 11
136.6992
 21
121.7249
 31
0.0
  0
LINE
  5
2D3
330
6F
100
AcDbEntity
  8
LAYER_2
  6
AIGENLINE003
100
AcDbLine
 10
136.858
 20
120.577
 30
0.0
 11
136.9641
 21
119.4101
 31
0.0
  0
ARC
  5
2D4
330
6F
100
AcDbEntity
  8
LAYER_2
  6
AIGENLINE003
100
AcDbCircle
 10
122.5276
 20
120.5674
 30
0.0
 40
0.8001
100
AcDbArc
 50
270.4314682
 51
348.8242241999999
  0
LINE
  5
2D5
330
6F
100
AcDbEntity
  8
LAYER_2
  6
AIGENLINE003
100
AcDbLine
 10
122.5336
 20
119.7673
 30
0.0
 11
121.2493
 21
119.7673
 31
0.0
  0
ARC
  5
2D6
330
6F
100
AcDbEntity
  8
LAYER_2
  6
AIGENLINE003
100
AcDbCircle
 10
121.212
 20
119.1574
 30
0.0
 40
0.6111
100
AcDbArc
 50
86.50088194
 51
152.3339932
  0
LINE
  5
2D7
330
6F
100
AcDbEntity
  8
LAYER_2
  6
AIGENLINE003
100
AcDbLine
 10
139.9772
 20
121.9102
 30
0.0
 11
136.1893
 21
121.9102
 31
0.0
  0
ARC
  5
2D8
330
6F
100
AcDbEntity
  8
LAYER_2
  6
AIGENLINE003
100
AcDbCircle
 10
116.2229
 20
129.1534
 30
0.0
 40
0.2568
100
AcDbArc
 50
26.37534201
 51
89.08672412
  0
ARC
  5
2D9
330
6F
100
AcDbEntity
  8
LAYER_2
  6
AIGENLINE003
100
AcDbCircle
 10
141.8071
 20
139.9713
 30
0.0
 40
24.1911
100
AcDbArc
 50
328.8731538
 51
333.7384801000001
  0
ARC
  5
2DA
330
6F
100
AcDbEntity
  8
LAYER_2
  6
AIGENLINE003
100
AcDbCircle
 10
163.7314
 20
129.1534
 30
0.0
 40
0.2568
100
AcDbArc
 50
90.91327585999998
 51
153.624658
  0
LINE
  5
2DB
330
6F
100
AcDbEntity
  8
LAYER_2
  6
AIGENLINE003
100
AcDbLine
 10
137.6772
 20
120.6769
 30
0.0
 11
137.6772
 21
119.4101
 31
0.0
  0
ARC
  5
2DC
330
6F
100
AcDbEntity
  8
LAYER_2
  6
AIGENLINE003
100
AcDbCircle
 10
137.1766
 20
120.6766
 30
0.0
 40
0.5006
100
AcDbArc
 50
0.02931491402
 51
50.20340985
  0
LINE
  5
2DD
330
6F
100
AcDbEntity
  8
LAYER_2
  6
AIGENLINE003
100
AcDbLine
 10
137.63
 20
120.8891
 30
0.0
 11
139.9772
 21
120.8891
 31
0.0
  0
ARC
  5
2DE
330
6F
100
AcDbEntity
  8
LAYER_2
  6
AIGENLINE003
100
AcDbCircle
 10
143.1447
 20
136.7681
 30
0.0
 40
14.1852
100
AcDbArc
 50
304.7296136000001
 51
311.4761141999999
  0
ARC
  5
2DF
330
6F
100
AcDbEntity
  8
LAYER_2
  6
AIGENLINE003
100
AcDbCircle
 10
144.4031
 20
133.7937
 30
0.0
 40
11.0436
100
AcDbArc
 50
301.8210225
 51
308.1576348
  0
LINE
  5
2E0
330
6F
100
AcDbEntity
  8
LAYER_2
  6
AIGENLINE003
100
AcDbLine
 10
150.226
 20
124.41
 30
0.0
 11
149.2259
 21
123.8098
 31
0.0
  0
ARC
  5
2E1
330
6F
100
AcDbEntity
  8
LAYER_2
  6
AIGENLINE003
100
AcDbCircle
 10
140.9237
 20
136.5124
 30
0.0
 40
15.175
100
AcDbArc
 50
298.7630724
 51
303.1678106
  0
ARC
  5
2E2
330
6F
100
AcDbEntity
  8
LAYER_2
  6
AIGENLINE003
100
AcDbCircle
 10
146.3796
 20
127.2661
 30
0.0
 40
4.4568
100
AcDbArc
 50
278.8645955
 51
294.4719309
  0
ARC
  5
2E3
330
6F
100
AcDbEntity
  8
LAYER_2
  6
AIGENLINE003
100
AcDbCircle
 10
144.3549
 20
135.3925
 30
0.0
 40
12.82
100
AcDbArc
 50
278.3918133
 51
282.2104093999999
  0
ARC
  5
2E4
330
6F
100
AcDbEntity
  8
LAYER_2
  6
AIGENLINE003
100
AcDbCircle
 10
146.7574
 20
119.9055
 30
0.0
 40
2.8542
100
AcDbArc
 50
100.7312593
 51
122.4521384
  0
ARC
  5
2E5
330
6F
100
AcDbEntity
  8
LAYER_2
  6
AIGENLINE003
100
AcDbCircle
 10
143.954
 20
124.022
 30
0.0
 40
2.1295
100
AcDbArc
 50
277.3272196999999
 51
306.6720878
  0
LINE
  5
2E6
330
6F
100
AcDbEntity
  8
LAYER_2
  6
AIGENLINE003
100
AcDbLine
 10
144.2256
 20
121.9099
 30
0.0
 11
143.7651
 21
121.9102
 31
0.0
  0
ARC
  5
2E7
330
6F
100
AcDbEntity
  8
LAYER_2
  6
AIGENLINE003
100
AcDbCircle
 10
143.4773
 20
130.1374
 30
0.0
 40
9.1064
100
AcDbArc
 50
270.713783
 51
281.0816536
  0
ARC
  5
2E8
330
6F
100
AcDbEntity
  8
LAYER_2
  6
AIGENLINE003
100
AcDbCircle
 10
142.5684
 20
135.1992
 30
0.0
 40
14.2487
100
AcDbArc
 50
280.7559553999999
 51
297.2319034000001
  0
ARC
  5
2E9
330
6F
100
AcDbEntity
  8
LAYER_2
  6
AIGENLINE003
100
AcDbCircle
 10
144.0975
 20
132.2486
 30
0.0
 40
10.9255
100
AcDbArc
 50
297.1822311
 51
306.7756605000001
  0
ARC
  5
2EA
330
6F
100
AcDbEntity
  8
LAYER_2
  6
AIGENLINE003
100
AcDbCircle
 10
145.8156
 20
129.9393
 30
0.0
 40
8.0471
100
AcDbArc
 50
306.8207497
 51
314.888953
  0
ARC
  5
2EB
330
6F
100
AcDbEntity
  8
LAYER_2
  6
AIGENLINE003
100
AcDbCircle
 10
151.843
 20
123.9719
 30
0.0
 40
0.4383
100
AcDbArc
 50
88.27132483
 51
142.604892
  0
LINE
  5
2EC
330
6F
100
AcDbEntity
  8
LAYER_2
  6
AIGENLINE003
100
AcDbLine
 10
151.8562
 20
124.41
 30
0.0
 11
153.2267
 21
124.41
 31
0.0
  0
ARC
  5
2ED
330
6F
100
AcDbEntity
  8
LAYER_2
  6
AIGENLINE003
100
AcDbCircle
 10
143.6097
 20
120.515
 30
0.0
 40
0.517
100
AcDbArc
 50
92.10454206
 51
173.1165383
  0
ARC
  5
2EE
330
6F
100
AcDbEntity
  8
LAYER_2
  6
AIGENLINE003
100
AcDbCircle
 10
143.7679
 20
121.108
 30
0.0
 40
0.8022
100
AcDbArc
 50
90.19956104
 51
129.7359797
  0
LINE
  5
2EF
330
6F
100
AcDbEntity
  8
LAYER_2
  6
AIGENLINE003
100
AcDbLine
 10
142.4573
 20
121.0613
 30
0.0
 11
143.2551
 21
121.7249
 31
0.0
  0
LINE
  5
2F0
330
6F
100
AcDbEntity
  8
LAYER_2
  6
AIGENLINE003
100
AcDbLine
 10
143.0964
 20
120.577
 30
0.0
 11
142.9902
 21
119.4101
 31
0.0
  0
LINE
  5
2F1
330
6F
100
AcDbEntity
  8
LAYER_2
  6
AIGENLINE003
100
AcDbLine
 10
139.9772
 20
121.9102
 30
0.0
 11
143.7651
 21
121.9102
 31
0.0
  0
LINE
  5
2F2
330
6F
100
AcDbEntity
  8
LAYER_2
  6
AIGENLINE003
100
AcDbLine
 10
142.2771
 20
120.6769
 30
0.0
 11
142.2771
 21
119.4101
 31
0.0
  0
ARC
  5
2F3
330
6F
100
AcDbEntity
  8
LAYER_2
  6
AIGENLINE003
100
AcDbCircle
 10
142.7778
 20
120.6766
 30
0.0
 40
0.5007
100
AcDbArc
 50
129.7968957
 51
179.9703795
  0
LINE
  5
2F4
330
6F
100
AcDbEntity
  8
LAYER_2
  6
AIGENLINE003
100
AcDbLine
 10
142.3243
 20
120.8891
 30
0.0
 11
139.9772
 21
120.8891
 31
0.0
  0
ARC
  5
2F5
330
6F
100
AcDbEntity
  8
LAYER_2
  6
AIGENLINE003
100
AcDbCircle
 10
139.9466
 20
203.5351
 30
0.0
 40
3.2806
100
AcDbArc
 50
0.2229866359
 51
44.77610481
  0
ARC
  5
2F6
330
6F
100
AcDbEntity
  8
LAYER_2
  6
AIGENLINE003
100
AcDbCircle
 10
139.964
 20
203.5165
 30
0.0
 40
3.2815
100
AcDbArc
 50
45.22051055
 51
89.76866313
  0
ARC
  5
2F7
330
6F
100
AcDbEntity
  8
LAYER_2
  6
AIGENLINE003
100
AcDbCircle
 10
139.9898
 20
203.5179
 30
0.0
 40
3.2801
100
AcDbArc
 50
90.2195565
 51
134.7895066
  0
ARC
  5
2F8
330
6F
100
AcDbEntity
  8
LAYER_2
  6
AIGENLINE003
100
AcDbCircle
 10
140.0068
 20
203.536
 30
0.0
 40
3.2794
100
AcDbArc
 50
135.2224305
 51
179.7912482
  0
ARC
  5
2F9
330
6F
100
AcDbEntity
  8
LAYER_2
  6
AIGENLINE003
100
AcDbCircle
 10
140.0082
 20
203.5605
 30
0.0
 40
3.2808
100
AcDbArc
 50
180.2207693
 51
224.7673147
  0
ARC
  5
2FA
330
6F
100
AcDbEntity
  8
LAYER_2
  6
AIGENLINE003
100
AcDbCircle
 10
139.9904
 20
203.5793
 30
0.0
 40
3.2815
100
AcDbArc
 50
225.2179653
 51
269.7687162
  0
ARC
  5
2FB
330
6F
100
AcDbEntity
  8
LAYER_2
  6
AIGENLINE003
100
AcDbCircle
 10
139.9645
 20
203.5778
 30
0.0
 40
3.28
100
AcDbArc
 50
270.2222653
 51
314.7928166
  0
ARC
  5
2FC
330
6F
100
AcDbEntity
  8
LAYER_2
  6
AIGENLINE003
100
AcDbCircle
 10
139.9485
 20
203.56
 30
0.0
 40
3.2787
100
AcDbArc
 50
315.2104121
 51
359.7887333
  0
ARC
  5
2FD
330
6F
100
AcDbEntity
  8
LAYER_2
100
AcDbCircle
 10
140.0037
 20
203.6062
 30
0.0
 40
5.0585
100
AcDbArc
 50
221.6011084
 51
269.6998298
  0
ARC
  5
2FE
330
6F
100
AcDbEntity
  8
LAYER_2
100
AcDbCircle
 10
139.9502
 20
203.6071
 30
0.0
 40
5.0595
100
AcDbArc
 50
270.30602
 51
318.3941878
  0
LINE
  5
2FF
330
6F
100
AcDbEntity
  8
LAYER_2
  6
AIGENLINE001
100
AcDbLine
 10
135.7001
 20
199.2707
 30
0.0
 11
154.2998
 21
217.8706
 31
0.0
  0
LINE
  5
300
330
6F
100
AcDbEntity
  8
LAYER_2
  6
AIGENLINE001
100
AcDbLine
 10
144.2546
 20
199.2703
 30
0.0
 11
125.5839
 21
217.9412
 31
0.0
  0
LINE
  5
301
330
6F
100
AcDbEntity
  8
LAYER_2
  6
AIGENLINE001
100
AcDbLine
 10
139.9772
 20
208.1049
 30
0.0
 11
139.9772
 21
226.308
 31
0.0
  0
LINE
  5
302
330
6F
100
AcDbEntity
  8
LAYER_2
  6
AIGENLINE001
100
AcDbLine
 10
139.9772
 20
207.5461
 30
0.0
 11
139.9772
 21
197.698
 31
0.0
  0
LINE
  5
303
330
6F
100
AcDbEntity
  8
LAYER_2
100
AcDbLine
 10
143.7333
 20
200.2479
 30
0.0
 11
153.9425
 21
211.8679
 31
0.0
  0
LINE
  5
304
330
6F
100
AcDbEntity
  8
LAYER_2
100
AcDbLine
 10
136.221
 20
200.2479
 30
0.0
 11
126.0121
 21
211.8679
 31
0.0
  0
ARC
  5
305
330
6F
100
AcDbEntity
  8
LAYER_2
100
AcDbCircle
 10
150.8995
 20
214.4923
 30
0.0
 40
4.038
100
AcDbArc
 50
0.225648697
 51
44.77913590000001
  0
ARC
  5
306
330
6F
100
AcDbEntity
  8
LAYER_2
100
AcDbCircle
 10
129.2113
 20
214.5017
 30
0.0
 40
4.1439
100
AcDbArc
 50
136.8330773
 51
219.4635319
  0
ARC
  5
307
330
6F
100
AcDbEntity
  8
LAYER_2
100
AcDbCircle
 10
150.9084
 20
214.5193
 30
0.0
 40
4.0291
100
AcDbArc
 50
318.8483619
 51
359.84229
  0
ARC
  5
308
330
6F
100
AcDbEntity
  8
LAYER_2
100
AcDbCircle
 10
139.9774
 20
203.5478
 30
0.0
 40
19.5001
100
AcDbArc
 50
45.00069763
 51
134.9993024
  0
LINE
  5
309
330
6F
100
AcDbEntity
  8
LAYER_2
100
AcDbLine
 10
147.5622
 20
195.963
 30
0.0
 11
144.7252
 21
198.8001
 31
0.0
  0
LINE
  5
30A
330
6F
100
AcDbEntity
  8
LAYER_2
100
AcDbLine
 10
140.0478
 20
203.4773
 30
0.0
 11
139.9772
 21
203.5479
 31
0.0
  0
LINE
  5
30B
330
6F
100
AcDbEntity
  8
LAYER_2
100
AcDbLine
 10
158.5225
 20
206.9233
 30
0.0
 11
154.8776
 21
210.568
 31
0.0
  0
LINE
  5
30C
330
6F
100
AcDbEntity
  8
LAYER_2
  6
AIGENLINE001
100
AcDbLine
 10
154.2261
 20
211.2195
 30
0.0
 11
147.4179
 21
218.0277
 31
0.0
  0
LINE
  5
30D
330
6F
100
AcDbEntity
  8
LAYER_2
  6
AIGENLINE001
100
AcDbLine
 10
125.5191
 20
211.0102
 30
0.0
 11
132.5365
 21
218.0277
 31
0.0
  0
LINE
  5
30E
330
6F
100
AcDbEntity
  8
LAYER_2
100
AcDbLine
 10
139.9772
 20
196.9924
 30
0.0
 11
139.9772
 21
189.0955
 31
0.0
  0
LINE
  5
30F
330
6F
100
AcDbEntity
  8
LAYER_2
100
AcDbLine
 10
122.9773
 20
189.0955
 30
0.0
 11
122.9773
 21
195.0641
 31
0.0
  0
ARC
  5
310
330
6F
100
AcDbEntity
  8
LAYER_2
100
AcDbCircle
 10
122.9581
 20
197.5294
 30
0.0
 40
0.5192
100
AcDbArc
 50
2.054627257
 51
87.87660405
  0
ARC
  5
311
330
6F
100
AcDbEntity
  8
LAYER_2
100
AcDbCircle
 10
122.9773
 20
197.548
 30
0.0
 40
0.5002
100
AcDbArc
 50
90.00422396000002
 51
179.995776
  0
ARC
  5
312
330
6F
100
AcDbEntity
  8
LAYER_2
100
AcDbCircle
 10
122.9774
 20
197.548
 30
0.0
 40
0.5003
100
AcDbArc
 50
179.9945848
 51
269.9939617
  0
ARC
  5
313
330
6F
100
AcDbEntity
  8
LAYER_2
100
AcDbCircle
 10
122.9583
 20
197.5662
 30
0.0
 40
0.5189
100
AcDbArc
 50
272.0944877000001
 51
357.9857343999999
  0
LINE
  5
314
330
6F
100
AcDbEntity
  8
LAYER_2
100
AcDbLine
 10
156.977
 20
189.0955
 30
0.0
 11
156.977
 21
195.0641
 31
0.0
  0
LINE
  5
315
330
6F
100
AcDbEntity
  8
LAYER_2
100
AcDbLine
 10
154.677
 20
203.5479
 30
0.0
 11
178.2573
 21
203.5479
 31
0.0
  0
LINE
  5
316
330
6F
100
AcDbEntity
  8
LAYER_2
100
AcDbLine
 10
159.4947
 20
197.548
 30
0.0
 11
164.4742
 21
197.548
 31
0.0
  0
ARC
  5
317
330
6F
100
AcDbEntity
  8
LAYER_2
100
AcDbCircle
 10
156.9584
 20
197.5294
 30
0.0
 40
0.5192
100
AcDbArc
 50
2.053399906
 51
87.86636193
  0
ARC
  5
318
330
6F
100
AcDbEntity
  8
LAYER_2
100
AcDbCircle
 10
156.9777
 20
197.5479
 30
0.0
 40
0.5003
100
AcDbArc
 50
89.99467771
 51
179.9938688
  0
ARC
  5
319
330
6F
100
AcDbEntity
  8
LAYER_2
100
AcDbCircle
 10
156.9777
 20
197.548
 30
0.0
 40
0.5003
100
AcDbArc
 50
179.9964925
 51
270.0035075
  0
ARC
  5
31A
330
6F
100
AcDbEntity
  8
LAYER_2
100
AcDbCircle
 10
156.9587
 20
197.5662
 30
0.0
 40
0.5188
100
AcDbArc
 50
272.0998058
 51
357.9918857
  0
ARC
  5
31B
330
6F
100
AcDbEntity
  8
LAYER_2
100
AcDbCircle
 10
140.0058
 20
203.4788
 30
0.0
 40
6.9915
100
AcDbArc
 50
90.23463587999998
 51
134.7655131
  0
ARC
  5
31C
330
6F
100
AcDbEntity
  8
LAYER_2
100
AcDbCircle
 10
139.9484
 20
203.4785
 30
0.0
 40
6.9918
100
AcDbArc
 50
45.23559888
 51
89.76425214
  0
TEXT
  5
31D
330
6F
100
AcDbEntity
  8
LAYER_2
100
AcDbText
 10
161.938425
 20
199.1677
 30
0.0
 40
3.0923
  1
④
 41
0.5
 72
     2
 11
162.7115
 21
199.1677
 31
0.0
100
AcDbText
  0
TEXT
  5
31E
330
6F
100
AcDbEntity
  8
LAYER_2
100
AcDbText
 10
130.8099625
 20
190.7708
 30
0.0
 40
3.0923
  1
①
 41
0.5
 72
     1
 11
131.1965
 21
190.7708
 31
0.0
100
AcDbText
  0
TEXT
  5
31F
330
6F
100
AcDbEntity
  8
LAYER_2
100
AcDbText
 10
148.1549625
 20
190.7708
 30
0.0
 40
3.0923
  1
②
 41
0.5
 72
     1
 11
148.5415
 21
190.7708
 31
0.0
100
AcDbText
  0
INSERT
  5
320
330
6F
100
AcDbEntity
  8
LAYER_2
100
AcDbBlockReference
  2
AIGNBL0201001C
 10
0.0
 20
0.0
 30
0.0
  0
LINE
  5
321
330
6F
100
AcDbEntity
  8
LAYER_2
100
AcDbLine
 10
116.4885
 20
203.5479
 30
0.0
 11
125.1615
 21
203.5479
 31
0.0
  0
LINE
  5
322
330
6F
100
AcDbEntity
  8
LAYER_2
100
AcDbLine
 10
116.5143
 20
197.548
 30
0.0
 11
120.4934
 21
197.548
 31
0.0
  0
TEXT
  5
323
330
6F
100
AcDbEntity
  8
LAYER_2
100
AcDbText
 10
115.665625
 20
199.1677
 30
0.0
 40
3.0923
  1
③
 41
0.5
 72
     2
 11
116.4387
 21
199.1677
 31
0.0
100
AcDbText
  0
INSERT
  5
324
330
6F
100
AcDbEntity
  8
LAYER_2
100
AcDbBlockReference
  2
AIGNBL0201001E
 10
0.0
 20
0.0
 30
0.0
  0
INSERT
  5
325
330
6F
100
AcDbEntity
  8
LAYER_2
100
AcDbBlockReference
  2
AIGNBL02010020
 10
0.0
 20
0.0
 30
0.0
  0
LINE
  5
326
330
6F
100
AcDbEntity
  8
LAYER_2
100
AcDbLine
 10
162.875
 20
191.7297
 30
0.0
 11
172.5306
 21
191.7297
 31
0.0
  0
LINE
  5
327
330
6F
100
AcDbEntity
  8
LAYER_2
100
AcDbLine
 10
157.3666
 20
197.2376
 30
0.0
 11
162.875
 21
191.7297
 31
0.0
  0
LINE
  5
328
330
6F
100
AcDbEntity
  8
LAYER_2
100
AcDbLine
 10
157.3666
 20
197.2376
 30
0.0
 11
159.3486
 21
196.0931
 31
0.0
  0
LINE
  5
329
330
6F
100
AcDbEntity
  8
LAYER_2
100
AcDbLine
 10
159.3486
 20
196.0931
 30
0.0
 11
158.5111
 21
195.2556
 31
0.0
  0
LINE
  5
32A
330
6F
100
AcDbEntity
  8
LAYER_2
100
AcDbLine
 10
158.5111
 20
195.2556
 30
0.0
 11
157.3666
 21
197.2376
 31
0.0
  0
TEXT
  5
32B
330
6F
100
AcDbEntity
  8
LAYER_2
100
AcDbText
 10
150.4933913250905
 20
201.2252913255358
 30
0.0
 40
3.0923
  1
155
 50
44.99999999
 41
0.5
 72
     1
 11
151.7689
 21
202.5008
 31
0.0
100
AcDbText
  0
INSERT
  5
32C
330
6F
100
AcDbEntity
  8
LAYER_2
100
AcDbBlockReference
  2
AIGNBL02010022
 10
0.0
 20
0.0
 30
0.0
  0
LINE
  5
32D
330
6F
100
AcDbEntity
  8
LAYER_2
100
AcDbLine
 10
132.3921
 20
195.963
 30
0.0
 11
135.2291
 21
198.8001
 31
0.0
  0
LINE
  5
32E
330
6F
100
AcDbEntity
  8
LAYER_2
100
AcDbLine
 10
121.4319
 20
206.9233
 30
0.0
 11
125.0768
 21
210.568
 31
0.0
  0
INSERT
  5
32F
330
6F
100
AcDbEntity
  8
LAYER_2
100
AcDbBlockReference
  2
AIGNBL02010024
 10
0.0
 20
0.0
 30
0.0
  0
INSERT
  5
330
330
6F
100
AcDbEntity
  8
LAYER_2
100
AcDbBlockReference
  2
AIGNBL02010026
 10
0.0
 20
0.0
 30
0.0
  0
INSERT
  5
331
330
6F
100
AcDbEntity
  8
LAYER_2
100
AcDbBlockReference
  2
AIGNBL02010028
 10
0.0
 20
0.0
 30
0.0
  0
INSERT
  5
332
330
6F
100
AcDbEntity
  8
LAYER_2
100
AcDbBlockReference
  2
AIGNBL02010029
 10
0.0
 20
0.0
 30
0.0
  0
INSERT
  5
333
330
6F
100
AcDbEntity
  8
LAYER_2
100
AcDbBlockReference
  2
AIGNBL0201002A
 10
0.0
 20
0.0
 30
0.0
  0
INSERT
  5
334
330
6F
100
AcDbEntity
  8
LAYER_2
100
AcDbBlockReference
  2
AIGNBL0201002B
 10
0.0
 20
0.0
 30
0.0
  0
LINE
  5
335
330
6F
100
AcDbEntity
  8
LAYER_2
100
AcDbLine
 10
152.5266
 20
127.9098
 30
0.0
 11
147.4444
 21
127.9098
 31
0.0
  0
INSERT
  5
336
330
6F
100
AcDbEntity
  8
LAYER_2
100
AcDbBlockReference
  2
AIGNBL0201002C
 10
0.0
 20
0.0
 30
0.0
  0
INSERT
  5
337
330
6F
100
AcDbEntity
  8
LAYER_2
100
AcDbBlockReference
  2
AIGNBL0201002D
 10
0.0
 20
0.0
 30
0.0
  0
LINE
  5
338
330
6F
100
AcDbEntity
  8
LAYER_2
100
AcDbLine
 10
148.1444
 20
127.9098
 30
0.0
 11
148.1444
 21
129.4099
 31
0.0
  0
INSERT
  5
339
330
6F
100
AcDbEntity
  8
LAYER_2
100
AcDbBlockReference
  2
AIGNBL0201002E
 10
0.0
 20
0.0
 30
0.0
  0
LINE
  5
33A
330
6F
100
AcDbEntity
  8
LAYER_2
  6
AIGENLINE001
100
AcDbLine
 10
124.7791
 20
197.548
 30
0.0
 11
121.199
 21
197.548
 31
0.0
  0
LINE
  5
33B
330
6F
100
AcDbEntity
  8
LAYER_2
  6
AIGENLINE001
100
AcDbLine
 10
122.9773
 20
199.3735
 30
0.0
 11
122.9773
 21
195.7696
 31
0.0
  0
LINE
  5
33C
330
6F
100
AcDbEntity
  8
LAYER_2
  6
AIGENLINE001
100
AcDbLine
 10
158.7795
 20
197.548
 30
0.0
 11
155.1993
 21
197.548
 31
0.0
  0
LINE
  5
33D
330
6F
100
AcDbEntity
  8
LAYER_2
  6
AIGENLINE001
100
AcDbLine
 10
156.9777
 20
199.3735
 30
0.0
 11
156.9777
 21
195.7696
 31
0.0
  0
LINE
  5
33E
330
6F
100
AcDbEntity
  8
LAYER_2
  6
AIGENLINE001
100
AcDbLine
 10
147.6377
 20
203.5479
 30
0.0
 11
131.959
 21
203.5479
 31
0.0
  0
LINE
  5
33F
330
6F
100
AcDbEntity
  8
LAYER_2
100
AcDbLine
 10
171.3833
 20
206.1183
 30
0.0
 11
169.8992
 21
203.5479
 31
0.0
  0
LINE
  5
340
330
6F
100
AcDbEntity
  8
LAYER_2
100
AcDbLine
 10
169.8992
 20
203.5479
 30
0.0
 11
168.415
 21
206.1183
 31
0.0
  0
LINE
  5
341
330
6F
100
AcDbEntity
  8
LAYER_2
100
AcDbLine
 10
168.415
 20
206.1183
 30
0.0
 11
171.3833
 21
206.1183
 31
0.0
  0
INSERT
  5
342
330
6F
100
AcDbEntity
  8
LAYER_2
100
AcDbBlockReference
  2
AIGNBL0201002F
 10
0.0
 20
0.0
 30
0.0
  0
LINE
  5
343
330
6F
100
AcDbEntity
  8
LAYER_2
  6
AIGENLINE002
100
AcDbLine
 10
98.8924
 20
115.41
 30
0.0
 11
46.2409
 21
115.41
 31
0.0
  0
INSERT
  5
344
330
6F
100
AcDbEntity
  8
LAYER_2
100
AcDbBlockReference
  2
AIGNBL02010030
 10
0.0
 20
0.0
 30
0.0
  0
LINE
  5
345
330
6F
100
AcDbEntity
  8
LAYER_2
  6
AIGENLINE001
100
AcDbLine
 10
52.2908
 20
120.0102
 30
0.0
 11
52.2908
 21
112.9602
 31
0.0
  0
LINE
  5
346
330
6F
100
AcDbEntity
  8
LAYER_2
  6
AIGENLINE001
100
AcDbLine
 10
86.2908
 20
120.0102
 30
0.0
 11
86.2908
 21
112.9602
 31
0.0
  0
LINE
  5
347
330
6F
100
AcDbEntity
  8
LAYER_2
  6
AIGENLINE001
100
AcDbLine
 10
133.9772
 20
120.0102
 30
0.0
 11
133.9772
 21
112.9602
 31
0.0
  0
LINE
  5
348
330
6F
100
AcDbEntity
  8
LAYER_3
100
AcDbLine
 10
21.9883
 20
148.9301
 30
0.0
 11
0.2384
 21
148.9301
 31
0.0
  0
LINE
  5
349
330
6F
100
AcDbEntity
  8
LAYER_3
100
AcDbLine
 10
105.2384
 20
297.4487
 30
0.0
 11
105.2384
 21
280.4287
 31
0.0
  0
LINE
  5
34A
330
6F
100
AcDbEntity
  8
LAYER_3
100
AcDbLine
 10
210.2383
 20
148.9301
 30
0.0
 11
188.4881
 21
148.9301
 31
0.0
  0
LINE
  5
34B
330
6F
100
AcDbEntity
  8
LAYER_3
100
AcDbLine
 10
21.9883
 20
57.4284
 30
0.0
 11
188.4884
 21
57.4284
 31
0.0
  0
LINE
  5
34C
330
6F
100
AcDbEntity
  8
LAYER_3
100
AcDbLine
 10
108.4885
 20
37.4279
 30
0.0
 11
188.4884
 21
37.4279
 31
0.0
  0
LINE
  5
34D
330
6F
100
AcDbEntity
  8
LAYER_3
100
AcDbLine
 10
21.9883
 20
44.9285
 30
0.0
 11
108.4885
 21
44.9285
 31
0.0
  0
LINE
  5
34E
330
6F
100
AcDbEntity
  8
LAYER_3
100
AcDbLine
 10
21.9883
 20
30.9287
 30
0.0
 11
108.4885
 21
30.9287
 31
0.0
  0
LINE
  5
34F
330
6F
100
AcDbEntity
  8
LAYER_3
100
AcDbLine
 10
33.4881
 20
30.9287
 30
0.0
 11
33.4881
 21
44.9285
 31
0.0
  0
LINE
  5
350
330
6F
100
AcDbEntity
  8
LAYER_3
100
AcDbLine
 10
108.4885
 20
17.4284
 30
0.0
 11
108.4885
 21
57.4284
 31
0.0
  0
LINE
  5
351
330
6F
100
AcDbEntity
  8
LAYER_3
100
AcDbLine
 10
89.4881
 20
30.9287
 30
0.0
 11
89.4881
 21
57.4284
 31
0.0
  0
LINE
  5
352
330
6F
100
AcDbEntity
  8
LAYER_3
100
AcDbLine
 10
70.4884
 20
30.9287
 30
0.0
 11
70.4884
 21
57.4284
 31
0.0
  0
LINE
  5
353
330
6F
100
AcDbEntity
  8
LAYER_3
100
AcDbLine
 10
188.4884
 20
17.4284
 30
0.0
 11
21.9883
 21
17.4284
 31
0.0
  0
LINE
  5
354
330
6F
100
AcDbEntity
  8
LAYER_3
100
AcDbLine
 10
21.9883
 20
17.4284
 30
0.0
 11
21.9883
 21
280.4285
 31
0.0
  0
LINE
  5
355
330
6F
100
AcDbEntity
  8
LAYER_3
100
AcDbLine
 10
21.9883
 20
280.4285
 30
0.0
 11
188.4884
 21
280.4285
 31
0.0
  0
LINE
  5
356
330
6F
100
AcDbEntity
  8
LAYER_3
100
AcDbLine
 10
188.4884
 20
280.4285
 30
0.0
 11
188.4884
 21
17.4284
 31
0.0
  0
INSERT
  5
357
330
6F
100
AcDbEntity
  8
LAYER_3
100
AcDbBlockReference
  2
AIGNBL03010002
 10
0.0
 20
0.0
 30
0.0
  0
INSERT
  5
358
330
6F
100
AcDbEntity
  8
LAYER_3
100
AcDbBlockReference
  2
AIGNBL03010003
 10
0.0
 20
0.0
 30
0.0
  0
INSERT
  5
359
330
6F
100
AcDbEntity
  8
LAYER_3
100
AcDbBlockReference
  2
AIGNBL03010004
 10
0.0
 20
0.0
 30
0.0
  0
INSERT
  5
35A
330
6F
100
AcDbEntity
  8
LAYER_3
100
AcDbBlockReference
  2
AIGNBL03010005
 10
0.0
 20
0.0
 30
0.0
  0
INSERT
  5
35B
330
6F
100
AcDbEntity
  8
LAYER_3
100
AcDbBlockReference
  2
AIGNBL03010006
 10
0.0
 20
0.0
 30
0.0
  0
INSERT
  5
35C
330
6F
100
AcDbEntity
  8
LAYER_3
100
AcDbBlockReference
  2
AIGNBL03010007
 10
0.0
 20
0.0
 30
0.0
  0
INSERT
  5
35D
330
6F
100
AcDbEntity
  8
LAYER_3
100
AcDbBlockReference
  2
AIGNBL03010008
 10
0.0
 20
0.0
 30
0.0
  0
INSERT
  5
35E
330
6F
100
AcDbEntity
  8
LAYER_3
100
AcDbBlockReference
  2
AIGNBL03010009
 10
0.0
 20
0.0
 30
0.0
  0
INSERT
  5
35F
330
6F
100
AcDbEntity
  8
LAYER_3
100
AcDbBlockReference
  2
AIGNBL0301000A
 10
0.0
 20
0.0
 30
0.0
  0
INSERT
  5
360
330
6F
100
AcDbEntity
  8
LAYER_3
100
AcDbBlockReference
  2
AIGNBL0301000B
 10
0.0
 20
0.0
 30
0.0
  0
INSERT
  5
361
330
6F
100
AcDbEntity
  8
LAYER_3
100
AcDbBlockReference
  2
AIGNBL0301000C
 10
0.0
 20
0.0
 30
0.0
  0
INSERT
  5
362
330
6F
100
AcDbEntity
  8
LAYER_3
100
AcDbBlockReference
  2
AIGNBL0301000D
 10
0.0
 20
0.0
 30
0.0
  0
INSERT
  5
363
330
6F
100
AcDbEntity
  8
LAYER_3
100
AcDbBlockReference
  2
AIGNBL0301000E
 10
0.0
 20
0.0
 30
0.0
  0
LINE
  5
364
330
6F
100
AcDbEntity
  8
LAYER_3
100
AcDbLine
 10
108.4885
 20
27.4281
 30
0.0
 11
188.4884
 21
27.4281
 31
0.0
  0
INSERT
  5
365
330
6F
100
AcDbEntity
  8
LAYER_3
100
AcDbBlockReference
  2
AIGNBL0301000F
 10
0.0
 20
0.0
 30
0.0
  0
INSERT
  5
366
330
6F
100
AcDbEntity
  8
LAYER_3
100
AcDbBlockReference
  2
AIGNBL03010010
 10
0.0
 20
0.0
 30
0.0
  0
LINE
  5
367
330
6F
100
AcDbEntity
  8
LAYER_3
100
AcDbLine
 10
105.2384
 20
17.4284
 30
0.0
 11
105.2384
 21
0.4486
 31
0.0
  0
TEXT
  5
368
330
6F
100
AcDbEntity
  8
LAYER_3
100
AcDbText
 10
113.8849
 20
45.7454
 30
0.0
 40
3.9357
  1
ケープコッド 洗面器
 41
0.5
100
AcDbText
  0
TEXT
  5
369
330
6F
100
AcDbEntity
  8
LAYER_3
100
AcDbText
 10
29.5255
 20
22.2271
 30
0.0
 40
3.9357
  1
重量：5.7kg、オーバーフローなし
 41
0.5
100
AcDbText
  0
TEXT
  5
36A
330
6F
100
AcDbEntity
  8
LAYER_3
100
AcDbText
 10
31.27478499999999
 20
49.4561
 30
0.0
 40
4.4979
  1
セラトレーディング株式会社
 41
0.5
 72
     1
 11
48.5917
 21
49.4561
 31
0.0
100
AcDbText
  0
TEXT
  5
36B
330
6F
100
AcDbEntity
  8
LAYER_3
100
AcDbText
 10
25.7941
 20
61.2145
 30
0.0
 40
4.2168
  1
※カウンター取付金具（2本）付
 41
0.5
100
AcDbText
  0
TEXT
  5
36C
330
6F
100
AcDbEntity
  8
LAYER_3
100
AcDbText
 10
139.632775
 20
20.6268
 30
0.0
 40
3.9357
  1
DV232848R
 41
0.5
 72
     1
 11
148.4881
 21
20.6268
 31
0.0
100
AcDbText
  0
TEXT
  5
36D
330
6F
100
AcDbEntity
  8
LAYER_3
100
AcDbText
 10
137.008975
 20
30.6272
 30
0.0
 40
3.9357
  1
DV232848R-00
 41
0.5
 72
     1
 11
148.4881
 21
30.6272
 31
0.0
100
AcDbText
  0
ENDSEC
  0
SECTION
  2
OBJECTS
  0
DICTIONARY
  5
C
330
0
100
AcDbDictionary
281
     1
  3
ACAD_CIP_PREVIOUS_PRODUCT_INFO
350
36F
  3
ACAD_COLOR
350
62
  3
ACAD_DETAILVIEWSTYLE
350
69
  3
ACAD_GROUP
350
D
  3
ACAD_LAYOUT
350
61
  3
ACAD_MATERIAL
350
10
  3
ACAD_MLEADERSTYLE
350
65
  3
ACAD_MLINESTYLE
350
5E
  3
ACAD_PLOTSETTINGS
350
60
  3
ACAD_PLOTSTYLENAME
350
E
  3
ACAD_SCALELIST
350
42
  3
ACAD_SECTIONVIEWSTYLE
350
67
  3
ACAD_TABLESTYLE
350
63
  3
ACAD_VISUALSTYLE
350
29
  3
ACDBHEADERROUNDTRIPXREC
350
3CB
  3
AcDbVariableDictionary
350
3BF
  3
DWGPROPS
350
3CE
  0
DICTIONARY
  5
3CF
330
8
100
AcDbDictionary
280
     1
281
     1
  3
ACAD_XREC_ROUNDTRIP
360
3D0
  0
DICTIONARY
  5
371
330
54
100
AcDbDictionary
280
     1
281
     1
  3
ADSK_XREC_LAYER_RECONCILED
360
372
  0
DICTIONARY
  5
373
330
76
100
AcDbDictionary
280
     1
281
     1
  3
ADSK_XREC_LAYER_RECONCILED
360
374
  0
DICTIONARY
  5
375
330
77
100
AcDbDictionary
280
     1
281
     1
  3
ADSK_XREC_LAYER_RECONCILED
360
376
  0
DICTIONARY
  5
377
330
78
100
AcDbDictionary
280
     1
281
     1
  3
ADSK_XREC_LAYER_RECONCILED
360
378
  0
DICTIONARY
  5
379
330
370
100
AcDbDictionary
280
     1
281
     1
  3
ADSK_XREC_LAYER_RECONCILED
360
37A
  0
XRECORD
  5
36F
102
{ACAD_REACTORS
330
C
102
}
330
C
100
AcDbXrecord
280
     1
300
ACD
300
2020
300

  0
DICTIONARY
  5
62
102
{ACAD_REACTORS
330
C
102
}
330
C
100
AcDbDictionary
281
     1
  0
DICTIONARY
  5
69
102
{ACAD_REACTORS
330
C
102
}
330
C
100
AcDbDictionary
281
     1
  3
Imperial24
350
6A
  0
DICTIONARY
  5
D
102
{ACAD_REACTORS
330
C
102
}
330
C
100
AcDbDictionary
281
     1
  0
DICTIONARY
  5
61
102
{ACAD_REACTORS
330
C
102
}
330
C
100
AcDbDictionary
281
     1
  3
Model
350
72
  3
レイアウト1
350
6E
  0
DICTIONARY
  5
10
102
{ACAD_REACTORS
330
C
102
}
330
C
100
AcDbDictionary
281
     1
  3
ByBlock
350
19
  3
ByLayer
350
11
  3
Global
350
21
  0
DICTIONARY
  5
65
102
{ACAD_REACTORS
330
C
102
}
330
C
100
AcDbDictionary
281
     1
  3
Standard
350
66
  0
DICTIONARY
  5
5E
102
{ACAD_REACTORS
330
C
102
}
330
C
100
AcDbDictionary
281
     1
  3
Standard
350
5F
  0
DICTIONARY
  5
60
102
{ACAD_REACTORS
330
C
102
}
330
C
100
AcDbDictionary
281
     1
  0
ACDBDICTIONARYWDFLT
  5
E
102
{ACAD_REACTORS
330
C
102
}
330
C
100
AcDbDictionary
281
     1
  3
Normal
350
F
100
AcDbDictionaryWithDefault
340
F
  0
DICTIONARY
  5
42
102
{ACAD_REACTORS
330
C
102
}
330
C
100
AcDbDictionary
281
     1
  3
A0
350
43
  3
A1
350
44
  3
A2
350
45
  3
A3
350
46
  3
A4
350
47
  3
A5
350
48
  3
A6
350
49
  3
A7
350
4A
  3
A8
350
4B
  3
A9
350
4C
  3
B0
350
4D
  3
B1
350
4E
  3
B2
350
4F
  3
B3
350
50
  3
B4
350
51
  3
B5
350
52
  3
B6
350
53
  0
DICTIONARY
  5
67
102
{ACAD_REACTORS
330
C
102
}
330
C
100
AcDbDictionary
281
     1
  3
Imperial24
350
68
  0
DICTIONARY
  5
63
102
{ACAD_REACTORS
330
C
102
}
330
C
100
AcDbDictionary
281
     1
  3
Standard
350
64
  0
DICTIONARY
  5
29
102
{ACAD_REACTORS
330
C
102
}
330
C
100
AcDbDictionary
281
     1
  3
2dWireframe
350
2F
  3
Basic
350
2E
  3
Brighten
350
35
  3
ColorChange
350
39
  3
Conceptual
350
32
  3
Dim
350
34
  3
EdgeColorOff
350
41
  3
Facepattern
350
38
  3
Flat
350
2A
  3
FlatWithEdges
350
2B
  3
Gouraud
350
2C
  3
GouraudWithEdges
350
2D
  3
Hidden
350
31
  3
JitterOff
350
3F
  3
Linepattern
350
37
  3
OverhangOff
350
40
  3
Realistic
350
33
  3
Shaded
350
3E
  3
Shaded with edges
350
3D
  3
Shades of Gray
350
3A
  3
Sketchy
350
3B
  3
Thicken
350
36
  3
Wireframe
350
30
  3
X-Ray
350
3C
  0
DICTIONARY
  5
3CB
102
{ACAD_REACTORS
330
C
102
}
330
C
100
AcDbDictionary
281
     1
  3
COLORDICT
350
3CC
  3
MATERIALDICT
350
3CD
  0
DICTIONARY
  5
3BF
102
{ACAD_REACTORS
330
C
102
}
330
C
100
AcDbDictionary
281
     1
  3
CANNOSCALE
350
3D1
  3
CMLEADERSTYLE
350
3C1
  3
CTABLESTYLE
350
3C0
  3
CVIEWDETAILSTYLE
350
3C2
  3
CVIEWSECTIONSTYLE
350
3C3
  3
DIMASSOC
350
3C7
  3
HIDETEXT
350
3CA
  3
INDEXCTL
350
3C6
  3
MSLTSCALE
350
3C9
  3
SORTENTS
350
3C5
  3
XCLIPFRAME
350
3C8
  0
XRECORD
  5
3CE
102
{ACAD_REACTORS
330
C
102
}
330
C
100
AcDbXrecord
280
     1
  1
DWGPROPS COOKIE
  2

  3

  4

  6

  7

  8
SYSTEM
  9

300
=
301
=
302
=
303
=
304
=
305
=
306
=
307
=
308
=
309
=
 40
0.0
 41
2459881.279050926
 42
2459922.359247801
  1

 90
        0
  0
XRECORD
  5
3D0
102
{ACAD_REACTORS
330
3CF
102
}
330
3CF
100
AcDbXrecord
280
     1
102
VTR_0.000_0.000_1.000_1.000_VISUALSTYLE
340
2F
102
VTR_0.000_0.000_1.000_1.000_GRIDDISPLAY
 70
     3
102
VTR_0.000_0.000_1.000_1.000_GRIDMAJOR
 70
     5
102
VTR_0.000_0.000_1.000_1.000_DEFAULTLIGHTING
280
     1
102
VTR_0.000_0.000_1.000_1.000_DEFAULTLIGHTINGTYPE
 70
     1
102
VTR_0.000_0.000_1.000_1.000_BRIGHTNESS
141
0.0
102
VTR_0.000_0.000_1.000_1.000_CONTRAST
142
0.0
  0
XRECORD
  5
372
102
{ACAD_REACTORS
330
371
102
}
330
371
100
AcDbXrecord
280
     1
290
     1
  0
XRECORD
  5
374
102
{ACAD_REACTORS
330
373
102
}
330
373
100
AcDbXrecord
280
     1
290
     1
  0
XRECORD
  5
376
102
{ACAD_REACTORS
330
375
102
}
330
375
100
AcDbXrecord
280
     1
290
     1
  0
XRECORD
  5
378
102
{ACAD_REACTORS
330
377
102
}
330
377
100
AcDbXrecord
280
     1
290
     1
  0
XRECORD
  5
37A
102
{ACAD_REACTORS
330
379
102
}
330
379
100
AcDbXrecord
280
     1
290
     1
  0
ACDBDETAILVIEWSTYLE
  5
6A
102
{ACAD_REACTORS
330
69
102
}
102
{ACAD_XDICTIONARY
360
3B9
102
}
330
69
100
AcDbModelDocViewStyle
 70
     0
  3
Imperial24
290
     0
100
AcDbDetailViewStyle
 70
     0
 71
     0
 90
        3
 71
     1
340
55
 40
0.24
340
0
 40
0.24
300

 40
0.36
280
     3
 71
     2
340
5C
 90
       25
 71
     3
340
55
 40
0.24
 90
        1
 40
0.75
 90
        1
300
%<\AcVar ViewType \f "%tc1">% %<\AcVar ViewDetailId>%\PSCALE %<\AcVar ViewScale \f "%sn">%
 71
     4
340
5C
 90
       25
340
5C
 90
       25
280
     0
  0
LAYOUT
  5
72
102
{ACAD_REACTORS
330
61
102
}
330
61
100
AcDbPlotSettings
  1

  2
RICOH IM C3500 JPN RPCS
  4

  6

 40
0.0
 41
0.0
 42
0.0
 43
0.0
 44
0.0
 45
0.0
 46
0.0
 47
0.0
 48
0.0
 49
0.0
140
0.0
141
0.0
142
1.0
143
1.0
 70
  1712
 72
     0
 73
     0
 74
     0
  7

 75
     0
147
1.0
148
0.0
149
0.0
100
AcDbLayout
  1
Model
 70
     1
 71
     0
 10
0.0
 20
0.0
 11
12.0
 21
9.0
 12
0.0
 22
0.0
 32
0.0
 14
0.0
 24
0.0
 34
0.0
 15
0.0
 25
0.0
 35
0.0
146
0.0
 13
0.0
 23
0.0
 33
0.0
 16
1.0
 26
0.0
 36
0.0
 17
0.0
 27
1.0
 37
0.0
 76
     0
330
6F
331
7B
  0
LAYOUT
  5
6E
102
{ACAD_REACTORS
330
61
102
}
330
61
100
AcDbPlotSettings
  1

  2
RICOH IM C3500 JPN RPCS
  4

  6

 40
0.0
 41
0.0
 42
0.0
 43
0.0
 44
0.0
 45
0.0
 46
0.0
 47
0.0
 48
0.0
 49
0.0
140
0.0
141
0.0
142
1.0
143
1.0
 70
   688
 72
     0
 73
     0
 74
     5
  7

 75
    16
147
1.0
148
0.0
149
0.0
100
AcDbLayout
  1
レイアウト1
 70
     1
 71
     1
 10
0.0
 20
0.0
 11
12.0
 21
9.0
 12
0.0
 22
0.0
 32
0.0
 14
1.000000000000000E+20
 24
1.000000000000000E+20
 34
1.000000000000000E+20
 15
-1.000000000000000E+20
 25
-1.000000000000000E+20
 35
-1.000000000000000E+20
146
0.0
 13
0.0
 23
0.0
 33
0.0
 16
1.0
 26
0.0
 36
0.0
 17
0.0
 27
1.0
 37
0.0
 76
     0
330
6B
  0
MATERIAL
  5
19
102
{ACAD_REACTORS
330
10
102
}
102
{ACAD_XDICTIONARY
360
3D3
102
}
330
10
100
AcDbMaterial
  1
ByBlock
 72
     0
 73
     2
 43
0.0208333333333333
 43
0.0
 43
0.0
 43
0.0
 43
0.0
 43
0.0208333333333333
 43
0.0
 43
0.0
 43
0.0
 43
0.0
 43
1.0
 43
0.0
 43
0.0
 43
0.0
 43
0.0
 43
1.0
 77
     0
 78
     2
 47
0.0208333333333333
 47
0.0
 47
0.0
 47
0.0
 47
0.0
 47
0.0208333333333333
 47
0.0
 47
0.0
 47
0.0
 47
0.0
 47
1.0
 47
0.0
 47
0.0
 47
0.0
 47
0.0
 47
1.0
171
     0
172
     2
 49
0.0208333333333333
 49
0.0
 49
0.0
 49
0.0
 49
0.0
 49
0.0208333333333333
 49
0.0
 49
0.0
 49
0.0
 49
0.0
 49
1.0
 49
0.0
 49
0.0
 49
0.0
 49
0.0
 49
1.0
175
     0
176
     2
142
0.0208333333333333
142
0.0
142
0.0
142
0.0
142
0.0
142
0.0208333333333333
142
0.0
142
0.0
142
0.0
142
0.0
142
1.0
142
0.0
142
0.0
142
0.0
142
0.0
142
1.0
179
     0
270
     2
144
0.0208333333333333
144
0.0
144
0.0
144
0.0
144
0.0
144
0.0208333333333333
144
0.0
144
0.0
144
0.0
144
0.0
144
1.0
144
0.0
144
0.0
144
0.0
144
0.0
144
1.0
274
     2
147
0.0208333333333333
147
0.0
147
0.0
147
0.0
147
0.0
147
0.0208333333333333
147
0.0
147
0.0
147
0.0
147
0.0
147
1.0
147
0.0
147
0.0
147
0.0
147
0.0
147
1.0
  0
MATERIAL
  5
11
102
{ACAD_REACTORS
330
10
102
}
102
{ACAD_XDICTIONARY
360
3D5
102
}
330
10
100
AcDbMaterial
  1
ByLayer
 72
     0
 73
     2
 43
0.0208333333333333
 43
0.0
 43
0.0
 43
0.0
 43
0.0
 43
0.0208333333333333
 43
0.0
 43
0.0
 43
0.0
 43
0.0
 43
1.0
 43
0.0
 43
0.0
 43
0.0
 43
0.0
 43
1.0
 77
     0
 78
     2
 47
0.0208333333333333
 47
0.0
 47
0.0
 47
0.0
 47
0.0
 47
0.0208333333333333
 47
0.0
 47
0.0
 47
0.0
 47
0.0
 47
1.0
 47
0.0
 47
0.0
 47
0.0
 47
0.0
 47
1.0
171
     0
172
     2
 49
0.0208333333333333
 49
0.0
 49
0.0
 49
0.0
 49
0.0
 49
0.0208333333333333
 49
0.0
 49
0.0
 49
0.0
 49
0.0
 49
1.0
 49
0.0
 49
0.0
 49
0.0
 49
0.0
 49
1.0
175
     0
176
     2
142
0.0208333333333333
142
0.0
142
0.0
142
0.0
142
0.0
142
0.0208333333333333
142
0.0
142
0.0
142
0.0
142
0.0
142
1.0
142
0.0
142
0.0
142
0.0
142
0.0
142
1.0
179
     0
270
     2
144
0.0208333333333333
144
0.0
144
0.0
144
0.0
144
0.0
144
0.0208333333333333
144
0.0
144
0.0
144
0.0
144
0.0
144
1.0
144
0.0
144
0.0
144
0.0
144
0.0
144
1.0
274
     2
147
0.0208333333333333
147
0.0
147
0.0
147
0.0
147
0.0
147
0.0208333333333333
147
0.0
147
0.0
147
0.0
147
0.0
147
1.0
147
0.0
147
0.0
147
0.0
147
0.0
147
1.0
  0
MATERIAL
  5
21
102
{ACAD_REACTORS
330
10
102
}
102
{ACAD_XDICTIONARY
360
3D7
102
}
330
10
100
AcDbMaterial
  1
Global
 72
     0
 73
     2
 43
0.0208333333333333
 43
0.0
 43
0.0
 43
0.0
 43
0.0
 43
0.0208333333333333
 43
0.0
 43
0.0
 43
0.0
 43
0.0
 43
1.0
 43
0.0
 43
0.0
 43
0.0
 43
0.0
 43
1.0
 77
     0
 78
     2
 47
0.0208333333333333
 47
0.0
 47
0.0
 47
0.0
 47
0.0
 47
0.0208333333333333
 47
0.0
 47
0.0
 47
0.0
 47
0.0
 47
1.0
 47
0.0
 47
0.0
 47
0.0
 47
0.0
 47
1.0
171
     0
172
     2
 49
0.0208333333333333
 49
0.0
 49
0.0
 49
0.0
 49
0.0
 49
0.0208333333333333
 49
0.0
 49
0.0
 49
0.0
 49
0.0
 49
1.0
 49
0.0
 49
0.0
 49
0.0
 49
0.0
 49
1.0
175
     0
176
     2
142
0.0208333333333333
142
0.0
142
0.0
142
0.0
142
0.0
142
0.0208333333333333
142
0.0
142
0.0
142
0.0
142
0.0
142
1.0
142
0.0
142
0.0
142
0.0
142
0.0
142
1.0
179
     0
270
     2
144
0.0208333333333333
144
0.0
144
0.0
144
0.0
144
0.0
144
0.0208333333333333
144
0.0
144
0.0
144
0.0
144
0.0
144
1.0
144
0.0
144
0.0
144
0.0
144
0.0
144
1.0
274
     2
147
0.0208333333333333
147
0.0
147
0.0
147
0.0
147
0.0
147
0.0208333333333333
147
0.0
147
0.0
147
0.0
147
0.0
147
1.0
147
0.0
147
0.0
147
0.0
147
0.0
147
1.0
  0
MLEADERSTYLE
  5
66
102
{ACAD_REACTORS
330
65
102
}
102
{ACAD_XDICTIONARY
360
3D9
102
}
330
65
100
AcDbMLeaderStyle
170
     2
171
     1
172
     0
 90
        2
 40
0.0
 41
0.0
173
     1
 91
-1056964608
340
5A
 92
       -2
290
     1
 42
0.09
291
     1
 43
0.36
  3
Standard
341
0
 44
0.18
300

342
55
174
     1
178
     6
175
     1
176
     0
 93
-1056964608
 45
0.18
292
     0
297
     0
 46
0.18
343
0
 94
-1056964608
 47
1.0
 49
1.0
140
1.0
293
     1
141
0.0
294
     1
177
     0
142
1.0
295
     0
296
     0
143
0.125
1001
ACAD_MLEADERVER
1070
     2
  0
MLINESTYLE
  5
5F
102
{ACAD_REACTORS
330
5E
102
}
330
5E
100
AcDbMlineStyle
  2
STANDARD
 70
     0
  3

 62
   256
 51
90.0
 52
90.0
 71
     2
 49
0.5
 62
   256
  6
BYLAYER
 49
-0.5
 62
   256
  6
BYLAYER
  0
ACDBPLACEHOLDER
  5
F
102
{ACAD_REACTORS
330
E
102
}
330
E
  0
SCALE
  5
43
102
{ACAD_REACTORS
330
42
102
}
330
42
100
AcDbScale
 70
     0
300
1:1
140
1.0
141
1.0
290
     1
  0
SCALE
  5
44
102
{ACAD_REACTORS
330
42
102
}
330
42
100
AcDbScale
 70
     0
300
1/128" = 1'-0"
140
0.0078125
141
12.0
290
     0
  0
SCALE
  5
45
102
{ACAD_REACTORS
330
42
102
}
330
42
100
AcDbScale
 70
     0
300
1/64" = 1'-0"
140
0.015625
141
12.0
290
     0
  0
SCALE
  5
46
102
{ACAD_REACTORS
330
42
102
}
330
42
100
AcDbScale
 70
     0
300
1/32" = 1'-0"
140
0.03125
141
12.0
290
     0
  0
SCALE
  5
47
102
{ACAD_REACTORS
330
42
102
}
330
42
100
AcDbScale
 70
     0
300
1/16" = 1'-0"
140
0.0625
141
12.0
290
     0
  0
SCALE
  5
48
102
{ACAD_REACTORS
330
42
102
}
330
42
100
AcDbScale
 70
     0
300
3/32" = 1'-0"
140
0.09375
141
12.0
290
     0
  0
SCALE
  5
49
102
{ACAD_REACTORS
330
42
102
}
330
42
100
AcDbScale
 70
     0
300
1/8" = 1'-0"
140
0.125
141
12.0
290
     0
  0
SCALE
  5
4A
102
{ACAD_REACTORS
330
42
102
}
330
42
100
AcDbScale
 70
     0
300
3/16" = 1'-0"
140
0.1875
141
12.0
290
     0
  0
SCALE
  5
4B
102
{ACAD_REACTORS
330
42
102
}
330
42
100
AcDbScale
 70
     0
300
1/4" = 1'-0"
140
0.25
141
12.0
290
     0
  0
SCALE
  5
4C
102
{ACAD_REACTORS
330
42
102
}
330
42
100
AcDbScale
 70
     0
300
3/8" = 1'-0"
140
0.375
141
12.0
290
     0
  0
SCALE
  5
4D
102
{ACAD_REACTORS
330
42
102
}
330
42
100
AcDbScale
 70
     0
300
1/2" = 1'-0"
140
0.5
141
12.0
290
     0
  0
SCALE
  5
4E
102
{ACAD_REACTORS
330
42
102
}
330
42
100
AcDbScale
 70
     0
300
3/4" = 1'-0"
140
0.75
141
12.0
290
     0
  0
SCALE
  5
4F
102
{ACAD_REACTORS
330
42
102
}
330
42
100
AcDbScale
 70
     0
300
1" = 1'-0"
140
1.0
141
12.0
290
     0
  0
SCALE
  5
50
102
{ACAD_REACTORS
330
42
102
}
330
42
100
AcDbScale
 70
     0
300
1-1/2" = 1'-0"
140
1.5
141
12.0
290
     0
  0
SCALE
  5
51
102
{ACAD_REACTORS
330
42
102
}
330
42
100
AcDbScale
 70
     0
300
3" = 1'-0"
140
3.0
141
12.0
290
     0
  0
SCALE
  5
52
102
{ACAD_REACTORS
330
42
102
}
330
42
100
AcDbScale
 70
     0
300
6" = 1'-0"
140
6.0
141
12.0
290
     0
  0
SCALE
  5
53
102
{ACAD_REACTORS
330
42
102
}
330
42
100
AcDbScale
 70
     0
300
1'-0" = 1'-0"
140
12.0
141
12.0
290
     0
  0
ACDBSECTIONVIEWSTYLE
  5
68
102
{ACAD_REACTORS
330
67
102
}
102
{ACAD_XDICTIONARY
360
3B7
102
}
330
67
100
AcDbModelDocViewStyle
 70
     0
  3
Imperial24
290
     0
100
AcDbSectionViewStyle
 70
     0
 71
     0
 90
       78
 71
     1
340
55
 40
0.24
340
0
340
0
 40
0.24
300
I, O, Q, S, X, Z
 40
0.48
 90
        3
 40
0.18
 90
        1
 71
     2
340
5C
 90
       25
340
5C
 90
       50
 40
0.24
 40
0.0
 40
0.24
 71
     3
340
55
 40
0.24
 90
        1
 40
0.75
 90
        1
300
%<\AcVar ViewType \f "%tc1">% %<\AcVar ViewSectionStartId>%-%<\AcVar ViewSectionEndId>%\PSCALE %<\AcVar ViewScale \f "%sn">%
 71
     4
300
ANSI31
 40
1.0
 90
        0
290
     0
290
     0
 90
        6
 40
0.0
 40
1.570796326794897
 40
0.2617993877991494
 40
1.308996938995747
 40
-0.2617993877991494
 40
1.832595714594046
  0
TABLESTYLE
  5
64
102
{ACAD_REACTORS
330
63
102
}
330
63
100
AcDbTableStyle
  3
Standard
 70
     0
 71
     0
 40
0.06
 41
0.06
280
     0
281
     0
  7
STANDARD
140
0.18
170
     2
 62
     0
 63
   257
283
     0
274
    -2
284
     1
 64
     0
275
    -2
285
     1
 65
     0
276
    -2
286
     1
 66
     0
277
    -2
287
     1
 67
     0
278
    -2
288
     1
 68
     0
279
    -2
289
     1
 69
     0
  7
STANDARD
140
0.25
170
     5
 62
     0
 63
   257
283
     0
274
    -2
284
     1
 64
     0
275
    -2
285
     1
 65
     0
276
    -2
286
     1
 66
     0
277
    -2
287
     1
 67
     0
278
    -2
288
     1
 68
     0
279
    -2
289
     1
 69
     0
  7
STANDARD
140
0.18
170
     5
 62
     0
 63
   257
283
     0
274
    -2
284
     1
 64
     0
275
    -2
285
     1
 65
     0
276
    -2
286
     1
 66
     0
277
    -2
287
     1
 67
     0
278
    -2
288
     1
 68
     0
279
    -2
289
     1
 69
     0
  0
VISUALSTYLE
  5
2F
102
{ACAD_REACTORS
330
29
102
}
102
{ACAD_XDICTIONARY
360
3DC
102
}
330
29
100
AcDbVisualStyle
  2
2dWireframe
 70
     4
 71
     0
 72
     2
 73
     0
 90
        0
 40
-0.6
 41
-30.0
 62
     5
 63
     7
 74
     1
 91
        4
 64
     7
 65
   257
 75
     1
175
     1
 42
1.0
 92
        0
 66
   257
 43
1.0
 76
     1
 77
     6
 78
     2
 67
     7
 79
     5
170
     0
171
     0
290
     0
174
     0
 93
        1
 44
0.0
173
     0
291
     0
 45
0.0
1001
ACAD
1000
AcDbSavedByObjectVersion
1070
     0
  0
VISUALSTYLE
  5
2E
102
{ACAD_REACTORS
330
29
102
}
102
{ACAD_XDICTIONARY
360
3DE
102
}
330
29
100
AcDbVisualStyle
  2
Basic
 70
     7
 71
     1
 72
     0
 73
     1
 90
        0
 40
-0.6
 41
-30.0
 62
     5
 63
     7
 74
     0
 91
        4
 64
     7
 65
   257
 75
     1
175
     1
 42
1.0
 92
        8
 66
     7
 43
1.0
 76
     1
 77
     6
 78
     2
 67
     7
 79
     5
170
     0
171
     0
290
     0
174
     0
 93
        1
 44
0.0
173
     0
291
     1
 45
0.0
1001
ACAD
1000
AcDbSavedByObjectVersion
1070
     0
  0
VISUALSTYLE
  5
35
102
{ACAD_REACTORS
330
29
102
}
102
{ACAD_XDICTIONARY
360
3E0
102
}
330
29
100
AcDbVisualStyle
  2
Brighten
 70
    12
 71
     2
 72
     2
 73
     0
 90
        0
 40
-0.6
 41
-30.0
 62
     5
 63
     7
 74
     1
 91
        4
 64
     7
 65
   257
 75
     1
175
     1
 42
1.0
 92
        8
 66
     7
 43
1.0
 76
     1
 77
     6
 78
     2
 67
     7
 79
     5
170
     0
171
     0
290
     0
174
     0
 93
        1
 44
50.0
173
     0
291
     1
 45
0.0
1001
ACAD
1000
AcDbSavedByObjectVersion
1070
     0
  0
VISUALSTYLE
  5
39
102
{ACAD_REACTORS
330
29
102
}
102
{ACAD_XDICTIONARY
360
3E2
102
}
330
29
100
AcDbVisualStyle
  2
ColorChange
 70
    16
 71
     2
 72
     2
 73
     3
 90
        0
 40
-0.6
 41
-30.0
 62
     5
 63
     8
 74
     1
 91
        4
 64
     7
 65
   257
 75
     1
175
     1
 42
1.0
 92
        8
 66
     8
 43
1.0
 76
     1
 77
     6
 78
     2
 67
     7
 79
     5
170
     0
171
     0
290
     0
174
     0
 93
        1
 44
0.0
173
     0
291
     1
 45
0.0
1001
ACAD
1000
AcDbSavedByObjectVersion
1070
     0
  0
VISUALSTYLE
  5
32
102
{ACAD_REACTORS
330
29
102
}
102
{ACAD_XDICTIONARY
360
3E4
102
}
330
29
100
AcDbVisualStyle
  2
Conceptual
 70
     9
 71
     3
 72
     2
 73
     0
 90
        0
 40
-0.6
 41
-30.0
 62
     5
 63
     7
 74
     2
 91
        2
 64
     7
 65
   257
 75
     1
175
     1
 42
179.0
 92
        8
 66
     7
 43
1.0
 76
     1
 77
     6
 78
     2
 67
     7
 79
     3
170
     0
171
     0
290
     0
174
     0
 93
        1
 44
0.0
173
     0
291
     0
 45
0.0
1001
ACAD
1000
AcDbSavedByObjectVersion
1070
     0
  0
VISUALSTYLE
  5
34
102
{ACAD_REACTORS
330
29
102
}
102
{ACAD_XDICTIONARY
360
3E6
102
}
330
29
100
AcDbVisualStyle
  2
Dim
 70
    11
 71
     2
 72
     2
 73
     0
 90
        0
 40
-0.6
 41
-30.0
 62
     5
 63
     7
 74
     1
 91
        4
 64
     7
 65
   257
 75
     1
175
     1
 42
1.0
 92
        8
 66
     7
 43
1.0
 76
     1
 77
     6
 78
     2
 67
     7
 79
     5
170
     0
171
     0
290
     0
174
     0
 93
        1
 44
-50.0
173
     0
291
     1
 45
0.0
1001
ACAD
1000
AcDbSavedByObjectVersion
1070
     0
  0
VISUALSTYLE
  5
41
102
{ACAD_REACTORS
330
29
102
}
102
{ACAD_XDICTIONARY
360
3E8
102
}
330
29
100
AcDbVisualStyle
  2
EdgeColorOff
 70
    22
 71
     2
 72
     2
 73
     0
 90
        0
 40
-0.6
 41
-30.0
 62
     5
 63
     7
 74
     1
 91
        4
 64
     7
 65
   257
 75
     1
175
     1
 42
1.0
 92
        8
 66
     7
 43
1.0
 76
     1
 77
     6
 78
     2
 67
     7
 79
     5
170
     0
171
     0
290
     0
174
     0
 93
        1
 44
0.0
173
     0
291
     1
 45
0.0
1001
ACAD
1000
AcDbSavedByObjectVersion
1070
     0
  0
VISUALSTYLE
  5
38
102
{ACAD_REACTORS
330
29
102
}
102
{ACAD_XDICTIONARY
360
3EA
102
}
330
29
100
AcDbVisualStyle
  2
Facepattern
 70
    15
 71
     2
 72
     2
 73
     0
 90
        0
 40
-0.6
 41
-30.0
 62
     5
 63
     7
 74
     1
 91
        4
 64
     7
 65
   257
 75
     1
175
     1
 42
1.0
 92
        8
 66
     7
 43
1.0
 76
     1
 77
     6
 78
     2
 67
     7
 79
     5
170
     0
171
     0
290
     0
174
     0
 93
        1
 44
0.0
173
     0
291
     1
 45
0.0
1001
ACAD
1000
AcDbSavedByObjectVersion
1070
     0
  0
VISUALSTYLE
  5
2A
102
{ACAD_REACTORS
330
29
102
}
102
{ACAD_XDICTIONARY
360
3EC
102
}
330
29
100
AcDbVisualStyle
  2
Flat
 70
     0
 71
     2
 72
     1
 73
     1
 90
        2
 40
-0.6
 41
30.0
 62
     5
 63
     7
 74
     0
 91
        0
 64
     7
 65
   257
 75
     1
175
     1
 42
1.0
 92
        8
 66
     7
 43
1.0
 76
     1
 77
     6
 78
     2
 67
     7
 79
     5
170
     0
171
     0
290
     0
174
     0
 93
       13
 44
0.0
173
     0
291
     1
 45
0.0
1001
ACAD
1000
AcDbSavedByObjectVersion
1070
     0
  0
VISUALSTYLE
  5
2B
102
{ACAD_REACTORS
330
29
102
}
102
{ACAD_XDICTIONARY
360
3EE
102
}
330
29
100
AcDbVisualStyle
  2
FlatWithEdges
 70
     1
 71
     2
 72
     1
 73
     1
 90
        2
 40
-0.6
 41
30.0
 62
     5
 63
     7
 74
     1
 91
        0
 64
     7
 65
   257
 75
     1
175
     1
 42
1.0
 92
        0
 66
   257
 43
1.0
 76
     1
 77
     6
 78
     2
 67
     7
 79
     5
170
     0
171
     0
290
     0
174
     0
 93
       13
 44
0.0
173
     0
291
     1
 45
0.0
1001
ACAD
1000
AcDbSavedByObjectVersion
1070
     0
  0
VISUALSTYLE
  5
2C
102
{ACAD_REACTORS
330
29
102
}
102
{ACAD_XDICTIONARY
360
3F0
102
}
330
29
100
AcDbVisualStyle
  2
Gouraud
 70
     2
 71
     2
 72
     2
 73
     1
 90
        2
 40
-0.6
 41
30.0
 62
     5
 63
     7
 74
     0
 91
        0
 64
     7
 65
   257
 75
     1
175
     1
 42
1.0
 92
        0
 66
     7
 43
1.0
 76
     1
 77
     6
 78
     2
 67
     7
 79
     5
170
     0
171
     0
290
     0
174
     0
 93
       13
 44
0.0
173
     0
291
     1
 45
0.0
1001
ACAD
1000
AcDbSavedByObjectVersion
1070
     0
  0
VISUALSTYLE
  5
2D
102
{ACAD_REACTORS
330
29
102
}
102
{ACAD_XDICTIONARY
360
3F2
102
}
330
29
100
AcDbVisualStyle
  2
GouraudWithEdges
 70
     3
 71
     2
 72
     2
 73
     1
 90
        2
 40
-0.6
 41
30.0
 62
     5
 63
     7
 74
     1
 91
        0
 64
     7
 65
   257
 75
     1
175
     1
 42
1.0
 92
        0
 66
   257
 43
1.0
 76
     1
 77
     6
 78
     2
 67
     7
 79
     5
170
     0
171
     0
290
     0
174
     0
 93
       13
 44
0.0
173
     0
291
     1
 45
0.0
1001
ACAD
1000
AcDbSavedByObjectVersion
1070
     0
  0
VISUALSTYLE
  5
31
102
{ACAD_REACTORS
330
29
102
}
102
{ACAD_XDICTIONARY
360
3F4
102
}
330
29
100
AcDbVisualStyle
  2
Hidden
 70
     6
 71
     1
 72
     2
 73
     2
 90
        0
 40
-0.6
 41
-30.0
 62
     5
 63
     7
 74
     2
 91
        2
 64
     7
 65
   257
 75
     2
175
     1
 42
40.0
 92
        0
 66
   257
 43
1.0
 76
     1
 77
     6
 78
     2
 67
     7
 79
     3
170
     0
171
     0
290
     0
174
     0
 93
        1
 44
0.0
173
     0
291
     0
 45
0.0
1001
ACAD
1000
AcDbSavedByObjectVersion
1070
     0
  0
VISUALSTYLE
  5
3F
102
{ACAD_REACTORS
330
29
102
}
102
{ACAD_XDICTIONARY
360
3F6
102
}
330
29
100
AcDbVisualStyle
  2
JitterOff
 70
    20
 71
     2
 72
     2
 73
     0
 90
        0
 40
-0.6
 41
-30.0
 62
     5
 63
     7
 74
     1
 91
        4
 64
     7
 65
   257
 75
     1
175
     1
 42
1.0
 92
       10
 66
     7
 43
1.0
 76
     1
 77
     6
 78
     2
 67
     7
 79
     5
170
     0
171
     0
290
     0
174
     0
 93
        1
 44
0.0
173
     0
291
     1
 45
0.0
1001
ACAD
1000
AcDbSavedByObjectVersion
1070
     0
  0
VISUALSTYLE
  5
37
102
{ACAD_REACTORS
330
29
102
}
102
{ACAD_XDICTIONARY
360
3F8
102
}
330
29
100
AcDbVisualStyle
  2
Linepattern
 70
    14
 71
     2
 72
     2
 73
     0
 90
        0
 40
-0.6
 41
-30.0
 62
     5
 63
     7
 74
     1
 91
        4
 64
     7
 65
   257
 75
     7
175
     7
 42
1.0
 92
        8
 66
     7
 43
1.0
 76
     1
 77
     6
 78
     2
 67
     7
 79
     5
170
     0
171
     0
290
     0
174
     0
 93
        1
 44
0.0
173
     0
291
     1
 45
0.0
1001
ACAD
1000
AcDbSavedByObjectVersion
1070
     0
  0
VISUALSTYLE
  5
40
102
{ACAD_REACTORS
330
29
102
}
102
{ACAD_XDICTIONARY
360
3FA
102
}
330
29
100
AcDbVisualStyle
  2
OverhangOff
 70
    21
 71
     2
 72
     2
 73
     0
 90
        0
 40
-0.6
 41
-30.0
 62
     5
 63
     7
 74
     1
 91
        4
 64
     7
 65
   257
 75
     1
175
     1
 42
1.0
 92
        9
 66
     7
 43
1.0
 76
     1
 77
     6
 78
     2
 67
     7
 79
     5
170
     0
171
     0
290
     0
174
     0
 93
        1
 44
0.0
173
     0
291
     1
 45
0.0
1001
ACAD
1000
AcDbSavedByObjectVersion
1070
     0
  0
VISUALSTYLE
  5
33
102
{ACAD_REACTORS
330
29
102
}
102
{ACAD_XDICTIONARY
360
3FC
102
}
330
29
100
AcDbVisualStyle
  2
Realistic
 70
     8
 71
     2
 72
     2
 73
     0
 90
        2
 40
-0.6
 41
30.0
 62
     5
 63
     7
 74
     0
 91
        0
 64
     7
 65
   257
 75
     1
175
     1
 42
1.0
 92
        8
 66
   257
 43
1.0
 76
     1
 77
     6
 78
     2
 67
     7
 79
     3
170
     0
171
     0
290
     0
174
     0
 93
       13
 44
0.0
173
     0
291
     0
 45
0.0
1001
ACAD
1000
AcDbSavedByObjectVersion
1070
     0
  0
VISUALSTYLE
  5
3E
102
{ACAD_REACTORS
330
29
102
}
102
{ACAD_XDICTIONARY
360
3FE
102
}
330
29
100
AcDbVisualStyle
  2
Shaded
 70
    27
 71
     2
 72
     2
 73
     1
 90
        2
 40
-0.6
 41
30.0
 62
     5
 63
     7
 74
     0
 91
        4
 64
     7
 65
   257
 75
     1
175
     1
 42
1.0
 92
        8
 66
   257
 43
1.0
 76
     1
 77
     6
 78
     2
 67
     8
 79
     3
170
     0
171
     0
290
     0
174
     0
 93
        5
 44
0.0
173
     0
291
     0
 45
0.0
1001
ACAD
1000
AcDbSavedByObjectVersion
1070
     0
  0
VISUALSTYLE
  5
3D
102
{ACAD_REACTORS
330
29
102
}
102
{ACAD_XDICTIONARY
360
400
102
}
330
29
100
AcDbVisualStyle
  2
Shaded with edges
 70
    26
 71
     2
 72
     2
 73
     1
 90
        2
 40
-0.6
 41
30.0
 62
     5
 63
     7
 74
     1
 91
        2
 64
     7
 65
   257
 75
     2
175
     1
 42
1.0
 92
        8
 66
   257
 43
1.0
 76
     1
 77
     6
 78
     2
 67
     7
 79
     3
170
     0
171
     0
290
     0
174
     0
 93
        5
 44
0.0
173
     0
291
     0
 45
0.0
1001
ACAD
1000
AcDbSavedByObjectVersion
1070
     0
  0
VISUALSTYLE
  5
3A
102
{ACAD_REACTORS
330
29
102
}
102
{ACAD_XDICTIONARY
360
402
102
}
330
29
100
AcDbVisualStyle
  2
Shades of Gray
 70
    23
 71
     2
 72
     2
 73
     3
 90
        0
 40
-0.6
 41
-30.0
 62
     5
 63
     7
 74
     2
 91
        2
 64
     7
 65
     7
 75
     1
175
     1
 42
40.0
 92
        8
 66
     7
 43
1.0
 76
     1
 77
     6
 78
     2
 67
     7
 79
     3
170
     0
171
     0
290
     0
174
     0
 93
        1
 44
0.0
173
     0
291
     0
 45
0.0
1001
ACAD
1000
AcDbSavedByObjectVersion
1070
     0
  0
VISUALSTYLE
  5
3B
102
{ACAD_REACTORS
330
29
102
}
102
{ACAD_XDICTIONARY
360
404
102
}
330
29
100
AcDbVisualStyle
  2
Sketchy
 70
    24
 71
     1
 72
     2
 73
     2
 90
        0
 40
-0.6
 41
-30.0
 62
     5
 63
     7
 74
     2
 91
        2
 64
     7
 65
     7
 75
     1
175
     1
 42
40.0
 92
       11
 66
     7
 43
1.0
 76
     1
 77
     6
 78
     2
 67
     7
 79
     6
170
     0
171
     0
290
     0
174
     0
 93
        1
 44
0.0
173
     0
291
     0
 45
0.0
1001
ACAD
1000
AcDbSavedByObjectVersion
1070
     0
  0
VISUALSTYLE
  5
36
102
{ACAD_REACTORS
330
29
102
}
102
{ACAD_XDICTIONARY
360
406
102
}
330
29
100
AcDbVisualStyle
  2
Thicken
 70
    13
 71
     2
 72
     2
 73
     0
 90
        0
 40
-0.6
 41
-30.0
 62
     5
 63
     7
 74
     1
 91
        4
 64
     7
 65
   257
 75
     1
175
     1
 42
1.0
 92
       12
 66
     7
 43
1.0
 76
     1
 77
     6
 78
     2
 67
     7
 79
     5
170
     0
171
     0
290
     0
174
     0
 93
        1
 44
0.0
173
     0
291
     1
 45
0.0
1001
ACAD
1000
AcDbSavedByObjectVersion
1070
     0
  0
VISUALSTYLE
  5
30
102
{ACAD_REACTORS
330
29
102
}
102
{ACAD_XDICTIONARY
360
408
102
}
330
29
100
AcDbVisualStyle
  2
Wireframe
 70
     5
 71
     0
 72
     2
 73
     0
 90
        0
 40
-0.6
 41
-30.0
 62
     5
 63
     7
 74
     1
 91
        4
 64
     7
 65
   257
 75
     1
175
     1
 42
1.0
 92
        0
 66
   257
 43
1.0
 76
     1
 77
     6
 78
     2
 67
     7
 79
     3
170
     0
171
     0
290
     0
174
     0
 93
        1
 44
0.0
173
     0
291
     0
 45
0.0
1001
ACAD
1000
AcDbSavedByObjectVersion
1070
     0
  0
VISUALSTYLE
  5
3C
102
{ACAD_REACTORS
330
29
102
}
102
{ACAD_XDICTIONARY
360
40A
102
}
330
29
100
AcDbVisualStyle
  2
X-Ray
 70
    25
 71
     2
 72
     2
 73
     1
 90
        1
 40
0.5
 41
-30.0
 62
     5
 63
     7
 74
     1
 91
        0
 64
     7
 65
   257
 75
     1
175
     1
 42
1.0
 92
        8
 66
     7
 43
1.0
 76
     1
 77
     6
 78
     2
 67
     7
 79
     3
170
     0
171
     0
290
     0
174
     0
 93
       13
 44
0.0
173
     0
291
     0
 45
0.0
1001
ACAD
1000
AcDbSavedByObjectVersion
1070
     0
  0
XRECORD
  5
3CC
102
{ACAD_REACTORS
330
3CB
102
}
330
3CB
100
AcDbXrecord
280
     1
340
62
  0
XRECORD
  5
3CD
102
{ACAD_REACTORS
330
3CB
102
}
330
3CB
100
AcDbXrecord
280
     1
340
10
  0
DICTIONARYVAR
  5
3D1
102
{ACAD_REACTORS
330
3BF
102
}
330
3BF
100
DictionaryVariables
280
     0
  1
1:1
  0
DICTIONARYVAR
  5
3C1
102
{ACAD_REACTORS
330
3BF
102
}
330
3BF
100
DictionaryVariables
280
     0
  1
Standard
  0
DICTIONARYVAR
  5
3C0
102
{ACAD_REACTORS
330
3BF
102
}
330
3BF
100
DictionaryVariables
280
     0
  1
Standard
  0
DICTIONARYVAR
  5
3C2
102
{ACAD_REACTORS
330
3BF
102
}
330
3BF
100
DictionaryVariables
280
     0
  1
Imperial24
  0
DICTIONARYVAR
  5
3C3
102
{ACAD_REACTORS
330
3BF
102
}
330
3BF
100
DictionaryVariables
280
     0
  1
Imperial24
  0
DICTIONARYVAR
  5
3C7
102
{ACAD_REACTORS
330
3BF
102
}
330
3BF
100
DictionaryVariables
280
     0
  1
1
  0
DICTIONARYVAR
  5
3CA
102
{ACAD_REACTORS
330
3BF
102
}
330
3BF
100
DictionaryVariables
280
     0
  1
1
  0
DICTIONARYVAR
  5
3C6
102
{ACAD_REACTORS
330
3BF
102
}
330
3BF
100
DictionaryVariables
280
     0
  1
0
  0
DICTIONARYVAR
  5
3C9
102
{ACAD_REACTORS
330
3BF
102
}
330
3BF
100
DictionaryVariables
280
     0
  1
0
  0
DICTIONARYVAR
  5
3C5
102
{ACAD_REACTORS
330
3BF
102
}
330
3BF
100
DictionaryVariables
280
     0
  1
127
  0
DICTIONARYVAR
  5
3C8
102
{ACAD_REACTORS
330
3BF
102
}
330
3BF
100
DictionaryVariables
280
     0
  1
2
  0
DICTIONARY
  5
3B9
330
6A
100
AcDbDictionary
280
     1
281
     1
  3
ACAD_XREC_ROUNDTRIP
360
3D2
  0
DICTIONARY
  5
3D3
330
19
100
AcDbDictionary
280
     1
281
     1
  3
ACAD_XREC_ROUNDTRIP
360
3D4
  0
DICTIONARY
  5
3D5
330
11
100
AcDbDictionary
280
     1
281
     1
  3
ACAD_XREC_ROUNDTRIP
360
3D6
  0
DICTIONARY
  5
3D7
330
21
100
AcDbDictionary
280
     1
281
     1
  3
ACAD_XREC_ROUNDTRIP
360
3D8
  0
DICTIONARY
  5
3D9
330
66
100
AcDbDictionary
280
     1
281
     1
  3
ACAD_XREC_ROUNDTRIP
360
3DA
  0
DICTIONARY
  5
3B7
330
68
100
AcDbDictionary
280
     1
281
     1
  3
ACAD_XREC_ROUNDTRIP
360
3DB
  0
DICTIONARY
  5
3DC
330
2F
100
AcDbDictionary
280
     1
281
     1
  3
ACAD_XREC_ROUNDTRIP
360
3DD
  0
DICTIONARY
  5
3DE
330
2E
100
AcDbDictionary
280
     1
281
     1
  3
ACAD_XREC_ROUNDTRIP
360
3DF
  0
DICTIONARY
  5
3E0
330
35
100
AcDbDictionary
280
     1
281
     1
  3
ACAD_XREC_ROUNDTRIP
360
3E1
  0
DICTIONARY
  5
3E2
330
39
100
AcDbDictionary
280
     1
281
     1
  3
ACAD_XREC_ROUNDTRIP
360
3E3
  0
DICTIONARY
  5
3E4
330
32
100
AcDbDictionary
280
     1
281
     1
  3
ACAD_XREC_ROUNDTRIP
360
3E5
  0
DICTIONARY
  5
3E6
330
34
100
AcDbDictionary
280
     1
281
     1
  3
ACAD_XREC_ROUNDTRIP
360
3E7
  0
DICTIONARY
  5
3E8
330
41
100
AcDbDictionary
280
     1
281
     1
  3
ACAD_XREC_ROUNDTRIP
360
3E9
  0
DICTIONARY
  5
3EA
330
38
100
AcDbDictionary
280
     1
281
     1
  3
ACAD_XREC_ROUNDTRIP
360
3EB
  0
DICTIONARY
  5
3EC
330
2A
100
AcDbDictionary
280
     1
281
     1
  3
ACAD_XREC_ROUNDTRIP
360
3ED
  0
DICTIONARY
  5
3EE
330
2B
100
AcDbDictionary
280
     1
281
     1
  3
ACAD_XREC_ROUNDTRIP
360
3EF
  0
DICTIONARY
  5
3F0
330
2C
100
AcDbDictionary
280
     1
281
     1
  3
ACAD_XREC_ROUNDTRIP
360
3F1
  0
DICTIONARY
  5
3F2
330
2D
100
AcDbDictionary
280
     1
281
     1
  3
ACAD_XREC_ROUNDTRIP
360
3F3
  0
DICTIONARY
  5
3F4
330
31
100
AcDbDictionary
280
     1
281
     1
  3
ACAD_XREC_ROUNDTRIP
360
3F5
  0
DICTIONARY
  5
3F6
330
3F
100
AcDbDictionary
280
     1
281
     1
  3
ACAD_XREC_ROUNDTRIP
360
3F7
  0
DICTIONARY
  5
3F8
330
37
100
AcDbDictionary
280
     1
281
     1
  3
ACAD_XREC_ROUNDTRIP
360
3F9
  0
DICTIONARY
  5
3FA
330
40
100
AcDbDictionary
280
     1
281
     1
  3
ACAD_XREC_ROUNDTRIP
360
3FB
  0
DICTIONARY
  5
3FC
330
33
100
AcDbDictionary
280
     1
281
     1
  3
ACAD_XREC_ROUNDTRIP
360
3FD
  0
DICTIONARY
  5
3FE
330
3E
100
AcDbDictionary
280
     1
281
     1
  3
ACAD_XREC_ROUNDTRIP
360
3FF
  0
DICTIONARY
  5
400
330
3D
100
AcDbDictionary
280
     1
281
     1
  3
ACAD_XREC_ROUNDTRIP
360
401
  0
DICTIONARY
  5
402
330
3A
100
AcDbDictionary
280
     1
281
     1
  3
ACAD_XREC_ROUNDTRIP
360
403
  0
DICTIONARY
  5
404
330
3B
100
AcDbDictionary
280
     1
281
     1
  3
ACAD_XREC_ROUNDTRIP
360
405
  0
DICTIONARY
  5
406
330
36
100
AcDbDictionary
280
     1
281
     1
  3
ACAD_XREC_ROUNDTRIP
360
407
  0
DICTIONARY
  5
408
330
30
100
AcDbDictionary
280
     1
281
     1
  3
ACAD_XREC_ROUNDTRIP
360
409
  0
DICTIONARY
  5
40A
330
3C
100
AcDbDictionary
280
     1
281
     1
  3
ACAD_XREC_ROUNDTRIP
360
40B
  0
XRECORD
  5
3D2
102
{ACAD_REACTORS
330
3B9
102
}
330
3B9
100
AcDbXrecord
280
     1
102
DISPLAYNAME
  1
Imperial24
102
FLAGS
 90
        0
  0
XRECORD
  5
3D4
102
{ACAD_REACTORS
330
3D3
102
}
330
3D3
100
AcDbXrecord
280
     1
102
MATERIAL
148
0.0
149
0.0
149
0.0
 93
        0
 94
      127
282
     0
 72
     0
 77
     0
171
     0
175
     0
179
     0
273
     0
  0
XRECORD
  5
3D6
102
{ACAD_REACTORS
330
3D5
102
}
330
3D5
100
AcDbXrecord
280
     1
102
MATERIAL
148
0.0
149
0.0
149
0.0
 93
        0
 94
      127
282
     0
 72
     0
 77
     0
171
     0
175
     0
179
     0
273
     0
  0
XRECORD
  5
3D8
102
{ACAD_REACTORS
330
3D7
102
}
330
3D7
100
AcDbXrecord
280
     1
102
MATERIAL
148
0.0
149
0.0
149
0.0
 93
        0
 94
      127
282
     0
 72
     0
 77
     0
171
     0
175
     0
179
     0
273
     0
  0
XRECORD
  5
3DA
102
{ACAD_REACTORS
330
3D9
102
}
330
3D9
100
AcDbXrecord
280
     1
102
ACAD_ROUNDTRIP_2010_MLEADER_STYLE
  0
XRECORD
  5
3DB
102
{ACAD_REACTORS
330
3B7
102
}
330
3B7
100
AcDbXrecord
280
     1
102
DISPLAYNAME
  1
Imperial24
102
FLAGS
 90
        0
  0
XRECORD
  5
3DD
102
{ACAD_REACTORS
330
3DC
102
}
330
3DC
100
AcDbXrecord
280
     1
102
RTVSPropertyOp0
 70
     1
102
RTVSPropertyOp1
 70
     1
102
RTVSPropertyOp2
 70
     1
102
RTVSPropertyOp3
 70
     1
102
RTVSPropertyOp4
 70
     1
102
RTVSPropertyOp5
 70
     1
102
RTVSPropertyOp6
 70
     1
102
RTVSPropertyOp7
 70
     1
102
RTVSPropertyOp8
 70
     1
102
RTVSPropertyOp9
 70
     1
102
RTVSPropertyOp10
 70
     1
102
RTVSPropertyOp11
 70
     1
102
RTVSPropertyOp12
 70
     1
102
RTVSPropertyOp13
 70
     1
102
RTVSPropertyOp14
 70
     1
102
RTVSPropertyOp15
 70
     1
102
RTVSPropertyOp16
 70
     1
102
RTVSPropertyOp17
 70
     1
102
RTVSPropertyOp18
 70
     1
102
RTVSPropertyOp19
 70
     1
102
RTVSPropertyOp20
 70
     1
102
RTVSPropertyOp21
 70
     1
102
RTVSPropertyOp22
 70
     1
102
RTVSPropertyOp23
 70
     1
102
RTVSPropertyOp24
 70
     1
102
RTVSPropertyOp25
 70
     1
102
RTVSPropertyOp26
 70
     1
102
RTVSPropertyOp27
 70
     1
102
RTVSPropertyOp28
 70
     1
102
RTVSPropertyOp29
 70
     1
102
RTVSPropertyOp30
 70
     1
102
RTVSPropertyOp31
 70
     1
102
RTVSPropertyOp32
 70
     1
102
RTVSPropertyOp33
 70
     1
102
RTVSPropertyOp34
 70
     1
102
RTVSPropertyOp35
 70
     1
102
RTVSPropertyOp36
 70
     1
102
RTVSPropertyOp37
 70
     1
102
RTVSPropertyOp38
 70
     1
102
RTVSPropertyOp39
 70
     1
102
RTVSPropertyOp40
 70
     1
102
RTVSPropertyOp41
 70
     1
102
RTVSPropertyOp42
 70
     1
102
RTVSPropertyOp43
 70
     1
102
RTVSPropertyOp44
 70
     1
102
RTVSPropertyOp45
 70
     1
102
RTVSPropertyOp46
 70
     1
102
RTVSPropertyOp47
 70
     1
102
RTVSPropertyOp48
 70
     1
102
RTVSPropertyOp49
 70
     1
102
RTVSPropertyOp50
 70
     1
102
RTVSPropertyOp51
 70
     0
102
RTVSPropertyOp52
 70
     0
102
RTVSPropertyOp53
 70
     1
102
RTVSPropertyOp54
 70
     1
102
RTVSPropertyOp55
 70
     1
102
RTVSPropertyOp56
 70
     1
102
RTVSPropertyOp57
 70
     1
102
RTVSPost2010Prop28
280
     1
102
RTVSPost2010PropOp28
 70
     1
102
RTVSPost2010Prop29
280
     1
102
RTVSPost2010PropOp29
 70
     1
102
RTVSPost2010Prop30
280
     0
102
RTVSPost2010PropOp30
 70
     1
102
RTVSPost2010Prop31
280
     0
102
RTVSPost2010PropOp31
 70
     1
102
RTVSPost2010Prop32
280
     0
102
RTVSPost2010PropOp32
 70
     1
102
RTVSPost2010Prop33
280
     0
102
RTVSPost2010PropOp33
 70
     1
102
RTVSPost2010Prop34
280
     0
102
RTVSPost2010PropOp34
 70
     1
102
RTVSPost2010Prop35
280
     0
102
RTVSPost2010PropOp35
 70
     1
102
RTVSPost2010Prop36
280
     0
102
RTVSPost2010PropOp36
 70
     1
102
RTVSPost2010Prop37
 90
       50
102
RTVSPost2010PropOp37
 70
     1
102
RTVSPost2010Prop38
140
0.0
102
RTVSPost2010PropOp38
 70
     1
102
RTVSPost2010Prop39
140
1.0
102
RTVSPost2010PropOp39
 70
     1
102
RTVSPost2010Prop40
 90
        0
102
RTVSPost2010PropOp40
 70
     1
102
RTVSPost2010Prop41ColorIndex
 90
       18
102
RTVSPost2010Prop41ColorRGB
 90
        0
102
RTVSPost2010PropOp41
 70
     1
102
RTVSPost2010Prop42
 90
       50
102
RTVSPost2010PropOp42
 70
     1
102
RTVSPost2010Prop43
 90
        3
102
RTVSPost2010PropOp43
 70
     1
102
RTVSPost2010Prop44ColorIndex
 90
        5
102
RTVSPost2010Prop44ColorRGB
 90
      255
102
RTVSPost2010PropOp44
 70
     1
102
RTVSPost2010Prop45
280
     0
102
RTVSPost2010PropOp45
 70
     1
102
RTVSPost2010Prop46
 90
       50
102
RTVSPost2010PropOp46
 70
     1
102
RTVSPost2010Prop47
 90
       50
102
RTVSPost2010PropOp47
 70
     1
102
RTVSPost2010Prop48
 90
       50
102
RTVSPost2010PropOp48
 70
     1
102
RTVSPost2010Prop49
280
     0
102
RTVSPost2010PropOp49
 70
     1
102
RTVSPost2010Prop50
 90
       50
102
RTVSPost2010PropOp50
 70
     1
102
RTVSPost2010Prop51ColorIndex
 90
      256
102
RTVSPost2010Prop51ColorRGB
 90
-16777216
102
RTVSPost2010PropOp51
 70
     0
102
RTVSPost2010Prop52
140
1.0
102
RTVSPost2010PropOp52
 70
     0
102
RTVSPost2010Prop53
 90
        2
102
RTVSPost2010PropOp53
 70
     1
102
RTVSPost2010Prop54
  1
strokes_ogs.tif
102
RTVSPost2010PropOp54
 70
     1
102
RTVSPost2010Prop55
280
     0
102
RTVSPost2010PropOp55
 70
     1
102
RTVSPost2010Prop56
140
1.0
102
RTVSPost2010PropOp56
 70
     1
102
RTVSPost2010Prop57
140
1.0
102
RTVSPost2010PropOp57
 70
     1
  0
XRECORD
  5
3DF
102
{ACAD_REACTORS
330
3DE
102
}
330
3DE
100
AcDbXrecord
280
     1
102
RTVSPropertyOp0
 70
     1
102
RTVSPropertyOp1
 70
     1
102
RTVSPropertyOp2
 70
     1
102
RTVSPropertyOp3
 70
     1
102
RTVSPropertyOp4
 70
     1
102
RTVSPropertyOp5
 70
     1
102
RTVSPropertyOp6
 70
     1
102
RTVSPropertyOp7
 70
     1
102
RTVSPropertyOp8
 70
     1
102
RTVSPropertyOp9
 70
     1
102
RTVSPropertyOp10
 70
     1
102
RTVSPropertyOp11
 70
     1
102
RTVSPropertyOp12
 70
     1
102
RTVSPropertyOp13
 70
     1
102
RTVSPropertyOp14
 70
     1
102
RTVSPropertyOp15
 70
     1
102
RTVSPropertyOp16
 70
     1
102
RTVSPropertyOp17
 70
     1
102
RTVSPropertyOp18
 70
     1
102
RTVSPropertyOp19
 70
     1
102
RTVSPropertyOp20
 70
     1
102
RTVSPropertyOp21
 70
     1
102
RTVSPropertyOp22
 70
     1
102
RTVSPropertyOp23
 70
     1
102
RTVSPropertyOp24
 70
     1
102
RTVSPropertyOp25
 70
     1
102
RTVSPropertyOp26
 70
     1
102
RTVSPropertyOp27
 70
     1
102
RTVSPropertyOp28
 70
     1
102
RTVSPropertyOp29
 70
     1
102
RTVSPropertyOp30
 70
     1
102
RTVSPropertyOp31
 70
     1
102
RTVSPropertyOp32
 70
     1
102
RTVSPropertyOp33
 70
     1
102
RTVSPropertyOp34
 70
     1
102
RTVSPropertyOp35
 70
     1
102
RTVSPropertyOp36
 70
     1
102
RTVSPropertyOp37
 70
     1
102
RTVSPropertyOp38
 70
     1
102
RTVSPropertyOp39
 70
     1
102
RTVSPropertyOp40
 70
     1
102
RTVSPropertyOp41
 70
     1
102
RTVSPropertyOp42
 70
     1
102
RTVSPropertyOp43
 70
     1
102
RTVSPropertyOp44
 70
     1
102
RTVSPropertyOp45
 70
     1
102
RTVSPropertyOp46
 70
     1
102
RTVSPropertyOp47
 70
     1
102
RTVSPropertyOp48
 70
     1
102
RTVSPropertyOp49
 70
     1
102
RTVSPropertyOp50
 70
     1
102
RTVSPropertyOp51
 70
     0
102
RTVSPropertyOp52
 70
     0
102
RTVSPropertyOp53
 70
     1
102
RTVSPropertyOp54
 70
     1
102
RTVSPropertyOp55
 70
     1
102
RTVSPropertyOp56
 70
     1
102
RTVSPropertyOp57
 70
     1
102
RTVSPost2010Prop28
280
     0
102
RTVSPost2010PropOp28
 70
     1
102
RTVSPost2010Prop29
280
     1
102
RTVSPost2010PropOp29
 70
     1
102
RTVSPost2010Prop30
280
     1
102
RTVSPost2010PropOp30
 70
     1
102
RTVSPost2010Prop31
280
     0
102
RTVSPost2010PropOp31
 70
     1
102
RTVSPost2010Prop32
280
     0
102
RTVSPost2010PropOp32
 70
     1
102
RTVSPost2010Prop33
280
     0
102
RTVSPost2010PropOp33
 70
     1
102
RTVSPost2010Prop34
280
     0
102
RTVSPost2010PropOp34
 70
     1
102
RTVSPost2010Prop35
280
     0
102
RTVSPost2010PropOp35
 70
     1
102
RTVSPost2010Prop36
280
     0
102
RTVSPost2010PropOp36
 70
     1
102
RTVSPost2010Prop37
 90
       50
102
RTVSPost2010PropOp37
 70
     1
102
RTVSPost2010Prop38
140
0.0
102
RTVSPost2010PropOp38
 70
     1
102
RTVSPost2010Prop39
140
1.0
102
RTVSPost2010PropOp39
 70
     1
102
RTVSPost2010Prop40
 90
        0
102
RTVSPost2010PropOp40
 70
     1
102
RTVSPost2010Prop41ColorIndex
 90
       18
102
RTVSPost2010Prop41ColorRGB
 90
        0
102
RTVSPost2010PropOp41
 70
     1
102
RTVSPost2010Prop42
 90
       50
102
RTVSPost2010PropOp42
 70
     1
102
RTVSPost2010Prop43
 90
        3
102
RTVSPost2010PropOp43
 70
     1
102
RTVSPost2010Prop44ColorIndex
 90
        5
102
RTVSPost2010Prop44ColorRGB
 90
      255
102
RTVSPost2010PropOp44
 70
     1
102
RTVSPost2010Prop45
280
     0
102
RTVSPost2010PropOp45
 70
     1
102
RTVSPost2010Prop46
 90
       50
102
RTVSPost2010PropOp46
 70
     1
102
RTVSPost2010Prop47
 90
       50
102
RTVSPost2010PropOp47
 70
     1
102
RTVSPost2010Prop48
 90
       50
102
RTVSPost2010PropOp48
 70
     1
102
RTVSPost2010Prop49
280
     0
102
RTVSPost2010PropOp49
 70
     1
102
RTVSPost2010Prop50
 90
       50
102
RTVSPost2010PropOp50
 70
     1
102
RTVSPost2010Prop51ColorIndex
 90
      256
102
RTVSPost2010Prop51ColorRGB
 90
-16777216
102
RTVSPost2010PropOp51
 70
     0
102
RTVSPost2010Prop52
140
1.0
102
RTVSPost2010PropOp52
 70
     0
102
RTVSPost2010Prop53
 90
        2
102
RTVSPost2010PropOp53
 70
     1
102
RTVSPost2010Prop54
  1
strokes_ogs.tif
102
RTVSPost2010PropOp54
 70
     1
102
RTVSPost2010Prop55
280
     0
102
RTVSPost2010PropOp55
 70
     1
102
RTVSPost2010Prop56
140
1.0
102
RTVSPost2010PropOp56
 70
     1
102
RTVSPost2010Prop57
140
1.0
102
RTVSPost2010PropOp57
 70
     1
  0
XRECORD
  5
3E1
102
{ACAD_REACTORS
330
3E0
102
}
330
3E0
100
AcDbXrecord
280
     1
102
RTVSPropertyOp0
 70
     1
102
RTVSPropertyOp1
 70
     1
102
RTVSPropertyOp2
 70
     1
102
RTVSPropertyOp3
 70
     1
102
RTVSPropertyOp4
 70
     1
102
RTVSPropertyOp5
 70
     1
102
RTVSPropertyOp6
 70
     1
102
RTVSPropertyOp7
 70
     1
102
RTVSPropertyOp8
 70
     1
102
RTVSPropertyOp9
 70
     1
102
RTVSPropertyOp10
 70
     1
102
RTVSPropertyOp11
 70
     1
102
RTVSPropertyOp12
 70
     1
102
RTVSPropertyOp13
 70
     1
102
RTVSPropertyOp14
 70
     1
102
RTVSPropertyOp15
 70
     1
102
RTVSPropertyOp16
 70
     1
102
RTVSPropertyOp17
 70
     1
102
RTVSPropertyOp18
 70
     1
102
RTVSPropertyOp19
 70
     1
102
RTVSPropertyOp20
 70
     1
102
RTVSPropertyOp21
 70
     1
102
RTVSPropertyOp22
 70
     1
102
RTVSPropertyOp23
 70
     1
102
RTVSPropertyOp24
 70
     1
102
RTVSPropertyOp25
 70
     1
102
RTVSPropertyOp26
 70
     1
102
RTVSPropertyOp27
 70
     1
102
RTVSPropertyOp28
 70
     1
102
RTVSPropertyOp29
 70
     1
102
RTVSPropertyOp30
 70
     1
102
RTVSPropertyOp31
 70
     1
102
RTVSPropertyOp32
 70
     1
102
RTVSPropertyOp33
 70
     1
102
RTVSPropertyOp34
 70
     1
102
RTVSPropertyOp35
 70
     1
102
RTVSPropertyOp36
 70
     1
102
RTVSPropertyOp37
 70
     1
102
RTVSPropertyOp38
 70
     1
102
RTVSPropertyOp39
 70
     1
102
RTVSPropertyOp40
 70
     1
102
RTVSPropertyOp41
 70
     1
102
RTVSPropertyOp42
 70
     1
102
RTVSPropertyOp43
 70
     1
102
RTVSPropertyOp44
 70
     1
102
RTVSPropertyOp45
 70
     1
102
RTVSPropertyOp46
 70
     1
102
RTVSPropertyOp47
 70
     1
102
RTVSPropertyOp48
 70
     1
102
RTVSPropertyOp49
 70
     1
102
RTVSPropertyOp50
 70
     1
102
RTVSPropertyOp51
 70
     0
102
RTVSPropertyOp52
 70
     0
102
RTVSPropertyOp53
 70
     1
102
RTVSPropertyOp54
 70
     1
102
RTVSPropertyOp55
 70
     1
102
RTVSPropertyOp56
 70
     1
102
RTVSPropertyOp57
 70
     1
102
RTVSPost2010Prop28
280
     0
102
RTVSPost2010PropOp28
 70
     1
102
RTVSPost2010Prop29
280
     1
102
RTVSPost2010PropOp29
 70
     1
102
RTVSPost2010Prop30
280
     1
102
RTVSPost2010PropOp30
 70
     1
102
RTVSPost2010Prop31
280
     0
102
RTVSPost2010PropOp31
 70
     1
102
RTVSPost2010Prop32
280
     0
102
RTVSPost2010PropOp32
 70
     1
102
RTVSPost2010Prop33
280
     0
102
RTVSPost2010PropOp33
 70
     1
102
RTVSPost2010Prop34
280
     0
102
RTVSPost2010PropOp34
 70
     1
102
RTVSPost2010Prop35
280
     0
102
RTVSPost2010PropOp35
 70
     1
102
RTVSPost2010Prop36
280
     0
102
RTVSPost2010PropOp36
 70
     1
102
RTVSPost2010Prop37
 90
       50
102
RTVSPost2010PropOp37
 70
     1
102
RTVSPost2010Prop38
140
0.0
102
RTVSPost2010PropOp38
 70
     1
102
RTVSPost2010Prop39
140
1.0
102
RTVSPost2010PropOp39
 70
     1
102
RTVSPost2010Prop40
 90
        0
102
RTVSPost2010PropOp40
 70
     1
102
RTVSPost2010Prop41ColorIndex
 90
       18
102
RTVSPost2010Prop41ColorRGB
 90
        0
102
RTVSPost2010PropOp41
 70
     1
102
RTVSPost2010Prop42
 90
       50
102
RTVSPost2010PropOp42
 70
     1
102
RTVSPost2010Prop43
 90
        3
102
RTVSPost2010PropOp43
 70
     1
102
RTVSPost2010Prop44ColorIndex
 90
        5
102
RTVSPost2010Prop44ColorRGB
 90
      255
102
RTVSPost2010PropOp44
 70
     1
102
RTVSPost2010Prop45
280
     0
102
RTVSPost2010PropOp45
 70
     1
102
RTVSPost2010Prop46
 90
       50
102
RTVSPost2010PropOp46
 70
     1
102
RTVSPost2010Prop47
 90
       50
102
RTVSPost2010PropOp47
 70
     1
102
RTVSPost2010Prop48
 90
       50
102
RTVSPost2010PropOp48
 70
     1
102
RTVSPost2010Prop49
280
     0
102
RTVSPost2010PropOp49
 70
     1
102
RTVSPost2010Prop50
 90
       50
102
RTVSPost2010PropOp50
 70
     1
102
RTVSPost2010Prop51ColorIndex
 90
      256
102
RTVSPost2010Prop51ColorRGB
 90
-16777216
102
RTVSPost2010PropOp51
 70
     0
102
RTVSPost2010Prop52
140
1.0
102
RTVSPost2010PropOp52
 70
     0
102
RTVSPost2010Prop53
 90
        2
102
RTVSPost2010PropOp53
 70
     1
102
RTVSPost2010Prop54
  1
strokes_ogs.tif
102
RTVSPost2010PropOp54
 70
     1
102
RTVSPost2010Prop55
280
     0
102
RTVSPost2010PropOp55
 70
     1
102
RTVSPost2010Prop56
140
1.0
102
RTVSPost2010PropOp56
 70
     1
102
RTVSPost2010Prop57
140
1.0
102
RTVSPost2010PropOp57
 70
     1
  0
XRECORD
  5
3E3
102
{ACAD_REACTORS
330
3E2
102
}
330
3E2
100
AcDbXrecord
280
     1
102
RTVSPropertyOp0
 70
     1
102
RTVSPropertyOp1
 70
     1
102
RTVSPropertyOp2
 70
     1
102
RTVSPropertyOp3
 70
     1
102
RTVSPropertyOp4
 70
     1
102
RTVSPropertyOp5
 70
     1
102
RTVSPropertyOp6
 70
     1
102
RTVSPropertyOp7
 70
     1
102
RTVSPropertyOp8
 70
     1
102
RTVSPropertyOp9
 70
     1
102
RTVSPropertyOp10
 70
     1
102
RTVSPropertyOp11
 70
     1
102
RTVSPropertyOp12
 70
     1
102
RTVSPropertyOp13
 70
     1
102
RTVSPropertyOp14
 70
     1
102
RTVSPropertyOp15
 70
     1
102
RTVSPropertyOp16
 70
     1
102
RTVSPropertyOp17
 70
     1
102
RTVSPropertyOp18
 70
     1
102
RTVSPropertyOp19
 70
     1
102
RTVSPropertyOp20
 70
     1
102
RTVSPropertyOp21
 70
     1
102
RTVSPropertyOp22
 70
     1
102
RTVSPropertyOp23
 70
     1
102
RTVSPropertyOp24
 70
     1
102
RTVSPropertyOp25
 70
     1
102
RTVSPropertyOp26
 70
     1
102
RTVSPropertyOp27
 70
     1
102
RTVSPropertyOp28
 70
     1
102
RTVSPropertyOp29
 70
     1
102
RTVSPropertyOp30
 70
     1
102
RTVSPropertyOp31
 70
     1
102
RTVSPropertyOp32
 70
     1
102
RTVSPropertyOp33
 70
     1
102
RTVSPropertyOp34
 70
     1
102
RTVSPropertyOp35
 70
     1
102
RTVSPropertyOp36
 70
     1
102
RTVSPropertyOp37
 70
     1
102
RTVSPropertyOp38
 70
     1
102
RTVSPropertyOp39
 70
     1
102
RTVSPropertyOp40
 70
     1
102
RTVSPropertyOp41
 70
     1
102
RTVSPropertyOp42
 70
     1
102
RTVSPropertyOp43
 70
     1
102
RTVSPropertyOp44
 70
     1
102
RTVSPropertyOp45
 70
     1
102
RTVSPropertyOp46
 70
     1
102
RTVSPropertyOp47
 70
     1
102
RTVSPropertyOp48
 70
     1
102
RTVSPropertyOp49
 70
     1
102
RTVSPropertyOp50
 70
     1
102
RTVSPropertyOp51
 70
     0
102
RTVSPropertyOp52
 70
     0
102
RTVSPropertyOp53
 70
     1
102
RTVSPropertyOp54
 70
     1
102
RTVSPropertyOp55
 70
     1
102
RTVSPropertyOp56
 70
     1
102
RTVSPropertyOp57
 70
     1
102
RTVSPost2010Prop28
280
     0
102
RTVSPost2010PropOp28
 70
     1
102
RTVSPost2010Prop29
280
     1
102
RTVSPost2010PropOp29
 70
     1
102
RTVSPost2010Prop30
280
     1
102
RTVSPost2010PropOp30
 70
     1
102
RTVSPost2010Prop31
280
     0
102
RTVSPost2010PropOp31
 70
     1
102
RTVSPost2010Prop32
280
     0
102
RTVSPost2010PropOp32
 70
     1
102
RTVSPost2010Prop33
280
     0
102
RTVSPost2010PropOp33
 70
     1
102
RTVSPost2010Prop34
280
     0
102
RTVSPost2010PropOp34
 70
     1
102
RTVSPost2010Prop35
280
     0
102
RTVSPost2010PropOp35
 70
     1
102
RTVSPost2010Prop36
280
     0
102
RTVSPost2010PropOp36
 70
     1
102
RTVSPost2010Prop37
 90
       50
102
RTVSPost2010PropOp37
 70
     1
102
RTVSPost2010Prop38
140
0.0
102
RTVSPost2010PropOp38
 70
     1
102
RTVSPost2010Prop39
140
1.0
102
RTVSPost2010PropOp39
 70
     1
102
RTVSPost2010Prop40
 90
        0
102
RTVSPost2010PropOp40
 70
     1
102
RTVSPost2010Prop41ColorIndex
 90
       18
102
RTVSPost2010Prop41ColorRGB
 90
        0
102
RTVSPost2010PropOp41
 70
     1
102
RTVSPost2010Prop42
 90
       50
102
RTVSPost2010PropOp42
 70
     1
102
RTVSPost2010Prop43
 90
        3
102
RTVSPost2010PropOp43
 70
     1
102
RTVSPost2010Prop44ColorIndex
 90
        5
102
RTVSPost2010Prop44ColorRGB
 90
      255
102
RTVSPost2010PropOp44
 70
     1
102
RTVSPost2010Prop45
280
     0
102
RTVSPost2010PropOp45
 70
     1
102
RTVSPost2010Prop46
 90
       50
102
RTVSPost2010PropOp46
 70
     1
102
RTVSPost2010Prop47
 90
       50
102
RTVSPost2010PropOp47
 70
     1
102
RTVSPost2010Prop48
 90
       50
102
RTVSPost2010PropOp48
 70
     1
102
RTVSPost2010Prop49
280
     0
102
RTVSPost2010PropOp49
 70
     1
102
RTVSPost2010Prop50
 90
       50
102
RTVSPost2010PropOp50
 70
     1
102
RTVSPost2010Prop51ColorIndex
 90
      256
102
RTVSPost2010Prop51ColorRGB
 90
-16777216
102
RTVSPost2010PropOp51
 70
     0
102
RTVSPost2010Prop52
140
1.0
102
RTVSPost2010PropOp52
 70
     0
102
RTVSPost2010Prop53
 90
        2
102
RTVSPost2010PropOp53
 70
     1
102
RTVSPost2010Prop54
  1
strokes_ogs.tif
102
RTVSPost2010PropOp54
 70
     1
102
RTVSPost2010Prop55
280
     0
102
RTVSPost2010PropOp55
 70
     1
102
RTVSPost2010Prop56
140
1.0
102
RTVSPost2010PropOp56
 70
     1
102
RTVSPost2010Prop57
140
1.0
102
RTVSPost2010PropOp57
 70
     1
  0
XRECORD
  5
3E5
102
{ACAD_REACTORS
330
3E4
102
}
330
3E4
100
AcDbXrecord
280
     1
102
RTVSPropertyOp0
 70
     1
102
RTVSPropertyOp1
 70
     1
102
RTVSPropertyOp2
 70
     1
102
RTVSPropertyOp3
 70
     1
102
RTVSPropertyOp4
 70
     1
102
RTVSPropertyOp5
 70
     1
102
RTVSPropertyOp6
 70
     1
102
RTVSPropertyOp7
 70
     1
102
RTVSPropertyOp8
 70
     1
102
RTVSPropertyOp9
 70
     1
102
RTVSPropertyOp10
 70
     1
102
RTVSPropertyOp11
 70
     1
102
RTVSPropertyOp12
 70
     1
102
RTVSPropertyOp13
 70
     1
102
RTVSPropertyOp14
 70
     1
102
RTVSPropertyOp15
 70
     1
102
RTVSPropertyOp16
 70
     1
102
RTVSPropertyOp17
 70
     1
102
RTVSPropertyOp18
 70
     1
102
RTVSPropertyOp19
 70
     1
102
RTVSPropertyOp20
 70
     1
102
RTVSPropertyOp21
 70
     1
102
RTVSPropertyOp22
 70
     1
102
RTVSPropertyOp23
 70
     1
102
RTVSPropertyOp24
 70
     1
102
RTVSPropertyOp25
 70
     1
102
RTVSPropertyOp26
 70
     1
102
RTVSPropertyOp27
 70
     1
102
RTVSPropertyOp28
 70
     1
102
RTVSPropertyOp29
 70
     1
102
RTVSPropertyOp30
 70
     1
102
RTVSPropertyOp31
 70
     1
102
RTVSPropertyOp32
 70
     1
102
RTVSPropertyOp33
 70
     1
102
RTVSPropertyOp34
 70
     1
102
RTVSPropertyOp35
 70
     1
102
RTVSPropertyOp36
 70
     1
102
RTVSPropertyOp37
 70
     1
102
RTVSPropertyOp38
 70
     1
102
RTVSPropertyOp39
 70
     1
102
RTVSPropertyOp40
 70
     1
102
RTVSPropertyOp41
 70
     1
102
RTVSPropertyOp42
 70
     1
102
RTVSPropertyOp43
 70
     1
102
RTVSPropertyOp44
 70
     1
102
RTVSPropertyOp45
 70
     1
102
RTVSPropertyOp46
 70
     1
102
RTVSPropertyOp47
 70
     1
102
RTVSPropertyOp48
 70
     1
102
RTVSPropertyOp49
 70
     1
102
RTVSPropertyOp50
 70
     1
102
RTVSPropertyOp51
 70
     0
102
RTVSPropertyOp52
 70
     0
102
RTVSPropertyOp53
 70
     1
102
RTVSPropertyOp54
 70
     1
102
RTVSPropertyOp55
 70
     1
102
RTVSPropertyOp56
 70
     1
102
RTVSPropertyOp57
 70
     1
102
RTVSPost2010Prop28
280
     0
102
RTVSPost2010PropOp28
 70
     1
102
RTVSPost2010Prop29
280
     1
102
RTVSPost2010PropOp29
 70
     1
102
RTVSPost2010Prop30
280
     1
102
RTVSPost2010PropOp30
 70
     1
102
RTVSPost2010Prop31
280
     0
102
RTVSPost2010PropOp31
 70
     1
102
RTVSPost2010Prop32
280
     0
102
RTVSPost2010PropOp32
 70
     1
102
RTVSPost2010Prop33
280
     0
102
RTVSPost2010PropOp33
 70
     1
102
RTVSPost2010Prop34
280
     0
102
RTVSPost2010PropOp34
 70
     1
102
RTVSPost2010Prop35
280
     0
102
RTVSPost2010PropOp35
 70
     1
102
RTVSPost2010Prop36
280
     0
102
RTVSPost2010PropOp36
 70
     1
102
RTVSPost2010Prop37
 90
       50
102
RTVSPost2010PropOp37
 70
     1
102
RTVSPost2010Prop38
140
0.0
102
RTVSPost2010PropOp38
 70
     1
102
RTVSPost2010Prop39
140
1.0
102
RTVSPost2010PropOp39
 70
     1
102
RTVSPost2010Prop40
 90
        0
102
RTVSPost2010PropOp40
 70
     1
102
RTVSPost2010Prop41ColorIndex
 90
       18
102
RTVSPost2010Prop41ColorRGB
 90
        0
102
RTVSPost2010PropOp41
 70
     1
102
RTVSPost2010Prop42
 90
       50
102
RTVSPost2010PropOp42
 70
     1
102
RTVSPost2010Prop43
 90
        3
102
RTVSPost2010PropOp43
 70
     1
102
RTVSPost2010Prop44ColorIndex
 90
        5
102
RTVSPost2010Prop44ColorRGB
 90
      255
102
RTVSPost2010PropOp44
 70
     1
102
RTVSPost2010Prop45
280
     0
102
RTVSPost2010PropOp45
 70
     1
102
RTVSPost2010Prop46
 90
       50
102
RTVSPost2010PropOp46
 70
     1
102
RTVSPost2010Prop47
 90
       50
102
RTVSPost2010PropOp47
 70
     1
102
RTVSPost2010Prop48
 90
       50
102
RTVSPost2010PropOp48
 70
     1
102
RTVSPost2010Prop49
280
     0
102
RTVSPost2010PropOp49
 70
     1
102
RTVSPost2010Prop50
 90
       50
102
RTVSPost2010PropOp50
 70
     1
102
RTVSPost2010Prop51ColorIndex
 90
      256
102
RTVSPost2010Prop51ColorRGB
 90
-16777216
102
RTVSPost2010PropOp51
 70
     0
102
RTVSPost2010Prop52
140
1.0
102
RTVSPost2010PropOp52
 70
     0
102
RTVSPost2010Prop53
 90
        2
102
RTVSPost2010PropOp53
 70
     1
102
RTVSPost2010Prop54
  1
strokes_ogs.tif
102
RTVSPost2010PropOp54
 70
     1
102
RTVSPost2010Prop55
280
     0
102
RTVSPost2010PropOp55
 70
     1
102
RTVSPost2010Prop56
140
1.0
102
RTVSPost2010PropOp56
 70
     1
102
RTVSPost2010Prop57
140
1.0
102
RTVSPost2010PropOp57
 70
     1
  0
XRECORD
  5
3E7
102
{ACAD_REACTORS
330
3E6
102
}
330
3E6
100
AcDbXrecord
280
     1
102
RTVSPropertyOp0
 70
     1
102
RTVSPropertyOp1
 70
     1
102
RTVSPropertyOp2
 70
     1
102
RTVSPropertyOp3
 70
     1
102
RTVSPropertyOp4
 70
     1
102
RTVSPropertyOp5
 70
     1
102
RTVSPropertyOp6
 70
     1
102
RTVSPropertyOp7
 70
     1
102
RTVSPropertyOp8
 70
     1
102
RTVSPropertyOp9
 70
     1
102
RTVSPropertyOp10
 70
     1
102
RTVSPropertyOp11
 70
     1
102
RTVSPropertyOp12
 70
     1
102
RTVSPropertyOp13
 70
     1
102
RTVSPropertyOp14
 70
     1
102
RTVSPropertyOp15
 70
     1
102
RTVSPropertyOp16
 70
     1
102
RTVSPropertyOp17
 70
     1
102
RTVSPropertyOp18
 70
     1
102
RTVSPropertyOp19
 70
     1
102
RTVSPropertyOp20
 70
     1
102
RTVSPropertyOp21
 70
     1
102
RTVSPropertyOp22
 70
     1
102
RTVSPropertyOp23
 70
     1
102
RTVSPropertyOp24
 70
     1
102
RTVSPropertyOp25
 70
     1
102
RTVSPropertyOp26
 70
     1
102
RTVSPropertyOp27
 70
     1
102
RTVSPropertyOp28
 70
     1
102
RTVSPropertyOp29
 70
     1
102
RTVSPropertyOp30
 70
     1
102
RTVSPropertyOp31
 70
     1
102
RTVSPropertyOp32
 70
     1
102
RTVSPropertyOp33
 70
     1
102
RTVSPropertyOp34
 70
     1
102
RTVSPropertyOp35
 70
     1
102
RTVSPropertyOp36
 70
     1
102
RTVSPropertyOp37
 70
     1
102
RTVSPropertyOp38
 70
     1
102
RTVSPropertyOp39
 70
     1
102
RTVSPropertyOp40
 70
     1
102
RTVSPropertyOp41
 70
     1
102
RTVSPropertyOp42
 70
     1
102
RTVSPropertyOp43
 70
     1
102
RTVSPropertyOp44
 70
     1
102
RTVSPropertyOp45
 70
     1
102
RTVSPropertyOp46
 70
     1
102
RTVSPropertyOp47
 70
     1
102
RTVSPropertyOp48
 70
     1
102
RTVSPropertyOp49
 70
     1
102
RTVSPropertyOp50
 70
     1
102
RTVSPropertyOp51
 70
     0
102
RTVSPropertyOp52
 70
     0
102
RTVSPropertyOp53
 70
     1
102
RTVSPropertyOp54
 70
     1
102
RTVSPropertyOp55
 70
     1
102
RTVSPropertyOp56
 70
     1
102
RTVSPropertyOp57
 70
     1
102
RTVSPost2010Prop28
280
     0
102
RTVSPost2010PropOp28
 70
     1
102
RTVSPost2010Prop29
280
     1
102
RTVSPost2010PropOp29
 70
     1
102
RTVSPost2010Prop30
280
     1
102
RTVSPost2010PropOp30
 70
     1
102
RTVSPost2010Prop31
280
     0
102
RTVSPost2010PropOp31
 70
     1
102
RTVSPost2010Prop32
280
     0
102
RTVSPost2010PropOp32
 70
     1
102
RTVSPost2010Prop33
280
     0
102
RTVSPost2010PropOp33
 70
     1
102
RTVSPost2010Prop34
280
     0
102
RTVSPost2010PropOp34
 70
     1
102
RTVSPost2010Prop35
280
     0
102
RTVSPost2010PropOp35
 70
     1
102
RTVSPost2010Prop36
280
     0
102
RTVSPost2010PropOp36
 70
     1
102
RTVSPost2010Prop37
 90
       50
102
RTVSPost2010PropOp37
 70
     1
102
RTVSPost2010Prop38
140
0.0
102
RTVSPost2010PropOp38
 70
     1
102
RTVSPost2010Prop39
140
1.0
102
RTVSPost2010PropOp39
 70
     1
102
RTVSPost2010Prop40
 90
        0
102
RTVSPost2010PropOp40
 70
     1
102
RTVSPost2010Prop41ColorIndex
 90
       18
102
RTVSPost2010Prop41ColorRGB
 90
        0
102
RTVSPost2010PropOp41
 70
     1
102
RTVSPost2010Prop42
 90
       50
102
RTVSPost2010PropOp42
 70
     1
102
RTVSPost2010Prop43
 90
        3
102
RTVSPost2010PropOp43
 70
     1
102
RTVSPost2010Prop44ColorIndex
 90
        5
102
RTVSPost2010Prop44ColorRGB
 90
      255
102
RTVSPost2010PropOp44
 70
     1
102
RTVSPost2010Prop45
280
     0
102
RTVSPost2010PropOp45
 70
     1
102
RTVSPost2010Prop46
 90
       50
102
RTVSPost2010PropOp46
 70
     1
102
RTVSPost2010Prop47
 90
       50
102
RTVSPost2010PropOp47
 70
     1
102
RTVSPost2010Prop48
 90
       50
102
RTVSPost2010PropOp48
 70
     1
102
RTVSPost2010Prop49
280
     0
102
RTVSPost2010PropOp49
 70
     1
102
RTVSPost2010Prop50
 90
       50
102
RTVSPost2010PropOp50
 70
     1
102
RTVSPost2010Prop51ColorIndex
 90
      256
102
RTVSPost2010Prop51ColorRGB
 90
-16777216
102
RTVSPost2010PropOp51
 70
     0
102
RTVSPost2010Prop52
140
1.0
102
RTVSPost2010PropOp52
 70
     0
102
RTVSPost2010Prop53
 90
        2
102
RTVSPost2010PropOp53
 70
     1
102
RTVSPost2010Prop54
  1
strokes_ogs.tif
102
RTVSPost2010PropOp54
 70
     1
102
RTVSPost2010Prop55
280
     0
102
RTVSPost2010PropOp55
 70
     1
102
RTVSPost2010Prop56
140
1.0
102
RTVSPost2010PropOp56
 70
     1
102
RTVSPost2010Prop57
140
1.0
102
RTVSPost2010PropOp57
 70
     1
  0
XRECORD
  5
3E9
102
{ACAD_REACTORS
330
3E8
102
}
330
3E8
100
AcDbXrecord
280
     1
102
RTVSPropertyOp0
 70
     0
102
RTVSPropertyOp1
 70
     0
102
RTVSPropertyOp2
 70
     0
102
RTVSPropertyOp3
 70
     0
102
RTVSPropertyOp4
 70
     0
102
RTVSPropertyOp5
 70
     0
102
RTVSPropertyOp6
 70
     0
102
RTVSPropertyOp7
 70
     0
102
RTVSPropertyOp8
 70
     0
102
RTVSPropertyOp9
 70
     0
102
RTVSPropertyOp10
 70
     0
102
RTVSPropertyOp11
 70
     0
102
RTVSPropertyOp12
 70
     0
102
RTVSPropertyOp13
 70
     0
102
RTVSPropertyOp14
 70
     2
102
RTVSPropertyOp15
 70
     0
102
RTVSPropertyOp16
 70
     0
102
RTVSPropertyOp17
 70
     0
102
RTVSPropertyOp18
 70
     0
102
RTVSPropertyOp19
 70
     0
102
RTVSPropertyOp20
 70
     0
102
RTVSPropertyOp21
 70
     0
102
RTVSPropertyOp22
 70
     0
102
RTVSPropertyOp23
 70
     0
102
RTVSPropertyOp24
 70
     0
102
RTVSPropertyOp25
 70
     0
102
RTVSPropertyOp26
 70
     0
102
RTVSPropertyOp27
 70
     0
102
RTVSPropertyOp28
 70
     1
102
RTVSPropertyOp29
 70
     1
102
RTVSPropertyOp30
 70
     1
102
RTVSPropertyOp31
 70
     1
102
RTVSPropertyOp32
 70
     1
102
RTVSPropertyOp33
 70
     1
102
RTVSPropertyOp34
 70
     1
102
RTVSPropertyOp35
 70
     1
102
RTVSPropertyOp36
 70
     1
102
RTVSPropertyOp37
 70
     0
102
RTVSPropertyOp38
 70
     0
102
RTVSPropertyOp39
 70
     0
102
RTVSPropertyOp40
 70
     0
102
RTVSPropertyOp41
 70
     0
102
RTVSPropertyOp42
 70
     0
102
RTVSPropertyOp43
 70
     0
102
RTVSPropertyOp44
 70
     0
102
RTVSPropertyOp45
 70
     1
102
RTVSPropertyOp46
 70
     0
102
RTVSPropertyOp47
 70
     0
102
RTVSPropertyOp48
 70
     0
102
RTVSPropertyOp49
 70
     1
102
RTVSPropertyOp50
 70
     0
102
RTVSPropertyOp51
 70
     0
102
RTVSPropertyOp52
 70
     0
102
RTVSPropertyOp53
 70
     0
102
RTVSPropertyOp54
 70
     0
102
RTVSPropertyOp55
 70
     1
102
RTVSPropertyOp56
 70
     0
102
RTVSPropertyOp57
 70
     0
102
RTVSPost2010Prop28
280
     0
102
RTVSPost2010PropOp28
 70
     1
102
RTVSPost2010Prop29
280
     1
102
RTVSPost2010PropOp29
 70
     1
102
RTVSPost2010Prop30
280
     1
102
RTVSPost2010PropOp30
 70
     1
102
RTVSPost2010Prop31
280
     0
102
RTVSPost2010PropOp31
 70
     1
102
RTVSPost2010Prop32
280
     0
102
RTVSPost2010PropOp32
 70
     1
102
RTVSPost2010Prop33
280
     0
102
RTVSPost2010PropOp33
 70
     1
102
RTVSPost2010Prop34
280
     0
102
RTVSPost2010PropOp34
 70
     1
102
RTVSPost2010Prop35
280
     0
102
RTVSPost2010PropOp35
 70
     1
102
RTVSPost2010Prop36
280
     0
102
RTVSPost2010PropOp36
 70
     1
102
RTVSPost2010Prop37
 90
       50
102
RTVSPost2010PropOp37
 70
     0
102
RTVSPost2010Prop38
140
0.0
102
RTVSPost2010PropOp38
 70
     0
102
RTVSPost2010Prop39
140
1.0
102
RTVSPost2010PropOp39
 70
     0
102
RTVSPost2010Prop40
 90
        0
102
RTVSPost2010PropOp40
 70
     0
102
RTVSPost2010Prop41ColorIndex
 90
       18
102
RTVSPost2010Prop41ColorRGB
 90
        0
102
RTVSPost2010PropOp41
 70
     0
102
RTVSPost2010Prop42
 90
       50
102
RTVSPost2010PropOp42
 70
     0
102
RTVSPost2010Prop43
 90
        3
102
RTVSPost2010PropOp43
 70
     0
102
RTVSPost2010Prop44ColorIndex
 90
        5
102
RTVSPost2010Prop44ColorRGB
 90
      255
102
RTVSPost2010PropOp44
 70
     0
102
RTVSPost2010Prop45
280
     0
102
RTVSPost2010PropOp45
 70
     1
102
RTVSPost2010Prop46
 90
       50
102
RTVSPost2010PropOp46
 70
     0
102
RTVSPost2010Prop47
 90
       50
102
RTVSPost2010PropOp47
 70
     0
102
RTVSPost2010Prop48
 90
       50
102
RTVSPost2010PropOp48
 70
     0
102
RTVSPost2010Prop49
280
     0
102
RTVSPost2010PropOp49
 70
     1
102
RTVSPost2010Prop50
 90
       50
102
RTVSPost2010PropOp50
 70
     0
102
RTVSPost2010Prop51ColorIndex
 90
      256
102
RTVSPost2010Prop51ColorRGB
 90
-16777216
102
RTVSPost2010PropOp51
 70
     0
102
RTVSPost2010Prop52
140
1.0
102
RTVSPost2010PropOp52
 70
     0
102
RTVSPost2010Prop53
 90
        2
102
RTVSPost2010PropOp53
 70
     0
102
RTVSPost2010Prop54
  1
strokes_ogs.tif
102
RTVSPost2010PropOp54
 70
     0
102
RTVSPost2010Prop55
280
     0
102
RTVSPost2010PropOp55
 70
     1
102
RTVSPost2010Prop56
140
1.0
102
RTVSPost2010PropOp56
 70
     0
102
RTVSPost2010Prop57
140
1.0
102
RTVSPost2010PropOp57
 70
     0
  0
XRECORD
  5
3EB
102
{ACAD_REACTORS
330
3EA
102
}
330
3EA
100
AcDbXrecord
280
     1
102
RTVSPropertyOp0
 70
     1
102
RTVSPropertyOp1
 70
     1
102
RTVSPropertyOp2
 70
     1
102
RTVSPropertyOp3
 70
     1
102
RTVSPropertyOp4
 70
     1
102
RTVSPropertyOp5
 70
     1
102
RTVSPropertyOp6
 70
     1
102
RTVSPropertyOp7
 70
     1
102
RTVSPropertyOp8
 70
     1
102
RTVSPropertyOp9
 70
     1
102
RTVSPropertyOp10
 70
     1
102
RTVSPropertyOp11
 70
     1
102
RTVSPropertyOp12
 70
     1
102
RTVSPropertyOp13
 70
     1
102
RTVSPropertyOp14
 70
     1
102
RTVSPropertyOp15
 70
     1
102
RTVSPropertyOp16
 70
     1
102
RTVSPropertyOp17
 70
     1
102
RTVSPropertyOp18
 70
     1
102
RTVSPropertyOp19
 70
     1
102
RTVSPropertyOp20
 70
     1
102
RTVSPropertyOp21
 70
     1
102
RTVSPropertyOp22
 70
     1
102
RTVSPropertyOp23
 70
     1
102
RTVSPropertyOp24
 70
     1
102
RTVSPropertyOp25
 70
     1
102
RTVSPropertyOp26
 70
     1
102
RTVSPropertyOp27
 70
     1
102
RTVSPropertyOp28
 70
     1
102
RTVSPropertyOp29
 70
     1
102
RTVSPropertyOp30
 70
     1
102
RTVSPropertyOp31
 70
     1
102
RTVSPropertyOp32
 70
     1
102
RTVSPropertyOp33
 70
     1
102
RTVSPropertyOp34
 70
     1
102
RTVSPropertyOp35
 70
     1
102
RTVSPropertyOp36
 70
     1
102
RTVSPropertyOp37
 70
     1
102
RTVSPropertyOp38
 70
     1
102
RTVSPropertyOp39
 70
     1
102
RTVSPropertyOp40
 70
     1
102
RTVSPropertyOp41
 70
     1
102
RTVSPropertyOp42
 70
     1
102
RTVSPropertyOp43
 70
     1
102
RTVSPropertyOp44
 70
     1
102
RTVSPropertyOp45
 70
     1
102
RTVSPropertyOp46
 70
     1
102
RTVSPropertyOp47
 70
     1
102
RTVSPropertyOp48
 70
     1
102
RTVSPropertyOp49
 70
     1
102
RTVSPropertyOp50
 70
     1
102
RTVSPropertyOp51
 70
     0
102
RTVSPropertyOp52
 70
     0
102
RTVSPropertyOp53
 70
     1
102
RTVSPropertyOp54
 70
     1
102
RTVSPropertyOp55
 70
     1
102
RTVSPropertyOp56
 70
     1
102
RTVSPropertyOp57
 70
     1
102
RTVSPost2010Prop28
280
     0
102
RTVSPost2010PropOp28
 70
     1
102
RTVSPost2010Prop29
280
     1
102
RTVSPost2010PropOp29
 70
     1
102
RTVSPost2010Prop30
280
     1
102
RTVSPost2010PropOp30
 70
     1
102
RTVSPost2010Prop31
280
     0
102
RTVSPost2010PropOp31
 70
     1
102
RTVSPost2010Prop32
280
     0
102
RTVSPost2010PropOp32
 70
     1
102
RTVSPost2010Prop33
280
     0
102
RTVSPost2010PropOp33
 70
     1
102
RTVSPost2010Prop34
280
     0
102
RTVSPost2010PropOp34
 70
     1
102
RTVSPost2010Prop35
280
     0
102
RTVSPost2010PropOp35
 70
     1
102
RTVSPost2010Prop36
280
     0
102
RTVSPost2010PropOp36
 70
     1
102
RTVSPost2010Prop37
 90
       50
102
RTVSPost2010PropOp37
 70
     1
102
RTVSPost2010Prop38
140
0.0
102
RTVSPost2010PropOp38
 70
     1
102
RTVSPost2010Prop39
140
1.0
102
RTVSPost2010PropOp39
 70
     1
102
RTVSPost2010Prop40
 90
        0
102
RTVSPost2010PropOp40
 70
     1
102
RTVSPost2010Prop41ColorIndex
 90
       18
102
RTVSPost2010Prop41ColorRGB
 90
        0
102
RTVSPost2010PropOp41
 70
     1
102
RTVSPost2010Prop42
 90
       50
102
RTVSPost2010PropOp42
 70
     1
102
RTVSPost2010Prop43
 90
        3
102
RTVSPost2010PropOp43
 70
     1
102
RTVSPost2010Prop44ColorIndex
 90
        5
102
RTVSPost2010Prop44ColorRGB
 90
      255
102
RTVSPost2010PropOp44
 70
     1
102
RTVSPost2010Prop45
280
     0
102
RTVSPost2010PropOp45
 70
     1
102
RTVSPost2010Prop46
 90
       50
102
RTVSPost2010PropOp46
 70
     1
102
RTVSPost2010Prop47
 90
       50
102
RTVSPost2010PropOp47
 70
     1
102
RTVSPost2010Prop48
 90
       50
102
RTVSPost2010PropOp48
 70
     1
102
RTVSPost2010Prop49
280
     0
102
RTVSPost2010PropOp49
 70
     1
102
RTVSPost2010Prop50
 90
       50
102
RTVSPost2010PropOp50
 70
     1
102
RTVSPost2010Prop51ColorIndex
 90
      256
102
RTVSPost2010Prop51ColorRGB
 90
-16777216
102
RTVSPost2010PropOp51
 70
     0
102
RTVSPost2010Prop52
140
1.0
102
RTVSPost2010PropOp52
 70
     0
102
RTVSPost2010Prop53
 90
        2
102
RTVSPost2010PropOp53
 70
     1
102
RTVSPost2010Prop54
  1
strokes_ogs.tif
102
RTVSPost2010PropOp54
 70
     1
102
RTVSPost2010Prop55
280
     0
102
RTVSPost2010PropOp55
 70
     1
102
RTVSPost2010Prop56
140
1.0
102
RTVSPost2010PropOp56
 70
     1
102
RTVSPost2010Prop57
140
1.0
102
RTVSPost2010PropOp57
 70
     1
  0
XRECORD
  5
3ED
102
{ACAD_REACTORS
330
3EC
102
}
330
3EC
100
AcDbXrecord
280
     1
102
RTVSPropertyOp0
 70
     1
102
RTVSPropertyOp1
 70
     1
102
RTVSPropertyOp2
 70
     1
102
RTVSPropertyOp3
 70
     1
102
RTVSPropertyOp4
 70
     1
102
RTVSPropertyOp5
 70
     1
102
RTVSPropertyOp6
 70
     1
102
RTVSPropertyOp7
 70
     1
102
RTVSPropertyOp8
 70
     1
102
RTVSPropertyOp9
 70
     1
102
RTVSPropertyOp10
 70
     1
102
RTVSPropertyOp11
 70
     1
102
RTVSPropertyOp12
 70
     1
102
RTVSPropertyOp13
 70
     1
102
RTVSPropertyOp14
 70
     1
102
RTVSPropertyOp15
 70
     1
102
RTVSPropertyOp16
 70
     1
102
RTVSPropertyOp17
 70
     1
102
RTVSPropertyOp18
 70
     1
102
RTVSPropertyOp19
 70
     1
102
RTVSPropertyOp20
 70
     1
102
RTVSPropertyOp21
 70
     1
102
RTVSPropertyOp22
 70
     1
102
RTVSPropertyOp23
 70
     1
102
RTVSPropertyOp24
 70
     1
102
RTVSPropertyOp25
 70
     1
102
RTVSPropertyOp26
 70
     1
102
RTVSPropertyOp27
 70
     1
102
RTVSPropertyOp28
 70
     1
102
RTVSPropertyOp29
 70
     1
102
RTVSPropertyOp30
 70
     1
102
RTVSPropertyOp31
 70
     1
102
RTVSPropertyOp32
 70
     1
102
RTVSPropertyOp33
 70
     1
102
RTVSPropertyOp34
 70
     1
102
RTVSPropertyOp35
 70
     1
102
RTVSPropertyOp36
 70
     1
102
RTVSPropertyOp37
 70
     1
102
RTVSPropertyOp38
 70
     1
102
RTVSPropertyOp39
 70
     1
102
RTVSPropertyOp40
 70
     1
102
RTVSPropertyOp41
 70
     1
102
RTVSPropertyOp42
 70
     1
102
RTVSPropertyOp43
 70
     1
102
RTVSPropertyOp44
 70
     1
102
RTVSPropertyOp45
 70
     1
102
RTVSPropertyOp46
 70
     1
102
RTVSPropertyOp47
 70
     1
102
RTVSPropertyOp48
 70
     1
102
RTVSPropertyOp49
 70
     1
102
RTVSPropertyOp50
 70
     1
102
RTVSPropertyOp51
 70
     0
102
RTVSPropertyOp52
 70
     0
102
RTVSPropertyOp53
 70
     1
102
RTVSPropertyOp54
 70
     1
102
RTVSPropertyOp55
 70
     1
102
RTVSPropertyOp56
 70
     1
102
RTVSPropertyOp57
 70
     1
102
RTVSPost2010Prop28
280
     0
102
RTVSPost2010PropOp28
 70
     1
102
RTVSPost2010Prop29
280
     1
102
RTVSPost2010PropOp29
 70
     1
102
RTVSPost2010Prop30
280
     1
102
RTVSPost2010PropOp30
 70
     1
102
RTVSPost2010Prop31
280
     0
102
RTVSPost2010PropOp31
 70
     1
102
RTVSPost2010Prop32
280
     0
102
RTVSPost2010PropOp32
 70
     1
102
RTVSPost2010Prop33
280
     0
102
RTVSPost2010PropOp33
 70
     1
102
RTVSPost2010Prop34
280
     0
102
RTVSPost2010PropOp34
 70
     1
102
RTVSPost2010Prop35
280
     0
102
RTVSPost2010PropOp35
 70
     1
102
RTVSPost2010Prop36
280
     0
102
RTVSPost2010PropOp36
 70
     1
102
RTVSPost2010Prop37
 90
       50
102
RTVSPost2010PropOp37
 70
     1
102
RTVSPost2010Prop38
140
0.0
102
RTVSPost2010PropOp38
 70
     1
102
RTVSPost2010Prop39
140
1.0
102
RTVSPost2010PropOp39
 70
     1
102
RTVSPost2010Prop40
 90
        0
102
RTVSPost2010PropOp40
 70
     1
102
RTVSPost2010Prop41ColorIndex
 90
       18
102
RTVSPost2010Prop41ColorRGB
 90
        0
102
RTVSPost2010PropOp41
 70
     1
102
RTVSPost2010Prop42
 90
       50
102
RTVSPost2010PropOp42
 70
     1
102
RTVSPost2010Prop43
 90
        3
102
RTVSPost2010PropOp43
 70
     1
102
RTVSPost2010Prop44ColorIndex
 90
        5
102
RTVSPost2010Prop44ColorRGB
 90
      255
102
RTVSPost2010PropOp44
 70
     1
102
RTVSPost2010Prop45
280
     0
102
RTVSPost2010PropOp45
 70
     1
102
RTVSPost2010Prop46
 90
       50
102
RTVSPost2010PropOp46
 70
     1
102
RTVSPost2010Prop47
 90
       50
102
RTVSPost2010PropOp47
 70
     1
102
RTVSPost2010Prop48
 90
       50
102
RTVSPost2010PropOp48
 70
     1
102
RTVSPost2010Prop49
280
     0
102
RTVSPost2010PropOp49
 70
     1
102
RTVSPost2010Prop50
 90
       50
102
RTVSPost2010PropOp50
 70
     1
102
RTVSPost2010Prop51ColorIndex
 90
      256
102
RTVSPost2010Prop51ColorRGB
 90
-16777216
102
RTVSPost2010PropOp51
 70
     0
102
RTVSPost2010Prop52
140
1.0
102
RTVSPost2010PropOp52
 70
     0
102
RTVSPost2010Prop53
 90
        2
102
RTVSPost2010PropOp53
 70
     1
102
RTVSPost2010Prop54
  1
strokes_ogs.tif
102
RTVSPost2010PropOp54
 70
     1
102
RTVSPost2010Prop55
280
     0
102
RTVSPost2010PropOp55
 70
     1
102
RTVSPost2010Prop56
140
1.0
102
RTVSPost2010PropOp56
 70
     1
102
RTVSPost2010Prop57
140
1.0
102
RTVSPost2010PropOp57
 70
     1
  0
XRECORD
  5
3EF
102
{ACAD_REACTORS
330
3EE
102
}
330
3EE
100
AcDbXrecord
280
     1
102
RTVSPropertyOp0
 70
     1
102
RTVSPropertyOp1
 70
     1
102
RTVSPropertyOp2
 70
     1
102
RTVSPropertyOp3
 70
     1
102
RTVSPropertyOp4
 70
     1
102
RTVSPropertyOp5
 70
     1
102
RTVSPropertyOp6
 70
     1
102
RTVSPropertyOp7
 70
     1
102
RTVSPropertyOp8
 70
     1
102
RTVSPropertyOp9
 70
     1
102
RTVSPropertyOp10
 70
     1
102
RTVSPropertyOp11
 70
     1
102
RTVSPropertyOp12
 70
     1
102
RTVSPropertyOp13
 70
     1
102
RTVSPropertyOp14
 70
     1
102
RTVSPropertyOp15
 70
     1
102
RTVSPropertyOp16
 70
     1
102
RTVSPropertyOp17
 70
     1
102
RTVSPropertyOp18
 70
     1
102
RTVSPropertyOp19
 70
     1
102
RTVSPropertyOp20
 70
     1
102
RTVSPropertyOp21
 70
     1
102
RTVSPropertyOp22
 70
     1
102
RTVSPropertyOp23
 70
     1
102
RTVSPropertyOp24
 70
     1
102
RTVSPropertyOp25
 70
     1
102
RTVSPropertyOp26
 70
     1
102
RTVSPropertyOp27
 70
     1
102
RTVSPropertyOp28
 70
     1
102
RTVSPropertyOp29
 70
     1
102
RTVSPropertyOp30
 70
     1
102
RTVSPropertyOp31
 70
     1
102
RTVSPropertyOp32
 70
     1
102
RTVSPropertyOp33
 70
     1
102
RTVSPropertyOp34
 70
     1
102
RTVSPropertyOp35
 70
     1
102
RTVSPropertyOp36
 70
     1
102
RTVSPropertyOp37
 70
     1
102
RTVSPropertyOp38
 70
     1
102
RTVSPropertyOp39
 70
     1
102
RTVSPropertyOp40
 70
     1
102
RTVSPropertyOp41
 70
     1
102
RTVSPropertyOp42
 70
     1
102
RTVSPropertyOp43
 70
     1
102
RTVSPropertyOp44
 70
     1
102
RTVSPropertyOp45
 70
     1
102
RTVSPropertyOp46
 70
     1
102
RTVSPropertyOp47
 70
     1
102
RTVSPropertyOp48
 70
     1
102
RTVSPropertyOp49
 70
     1
102
RTVSPropertyOp50
 70
     1
102
RTVSPropertyOp51
 70
     0
102
RTVSPropertyOp52
 70
     0
102
RTVSPropertyOp53
 70
     1
102
RTVSPropertyOp54
 70
     1
102
RTVSPropertyOp55
 70
     1
102
RTVSPropertyOp56
 70
     1
102
RTVSPropertyOp57
 70
     1
102
RTVSPost2010Prop28
280
     0
102
RTVSPost2010PropOp28
 70
     1
102
RTVSPost2010Prop29
280
     1
102
RTVSPost2010PropOp29
 70
     1
102
RTVSPost2010Prop30
280
     1
102
RTVSPost2010PropOp30
 70
     1
102
RTVSPost2010Prop31
280
     0
102
RTVSPost2010PropOp31
 70
     1
102
RTVSPost2010Prop32
280
     0
102
RTVSPost2010PropOp32
 70
     1
102
RTVSPost2010Prop33
280
     0
102
RTVSPost2010PropOp33
 70
     1
102
RTVSPost2010Prop34
280
     0
102
RTVSPost2010PropOp34
 70
     1
102
RTVSPost2010Prop35
280
     0
102
RTVSPost2010PropOp35
 70
     1
102
RTVSPost2010Prop36
280
     0
102
RTVSPost2010PropOp36
 70
     1
102
RTVSPost2010Prop37
 90
       50
102
RTVSPost2010PropOp37
 70
     1
102
RTVSPost2010Prop38
140
0.0
102
RTVSPost2010PropOp38
 70
     1
102
RTVSPost2010Prop39
140
1.0
102
RTVSPost2010PropOp39
 70
     1
102
RTVSPost2010Prop40
 90
        0
102
RTVSPost2010PropOp40
 70
     1
102
RTVSPost2010Prop41ColorIndex
 90
       18
102
RTVSPost2010Prop41ColorRGB
 90
        0
102
RTVSPost2010PropOp41
 70
     1
102
RTVSPost2010Prop42
 90
       50
102
RTVSPost2010PropOp42
 70
     1
102
RTVSPost2010Prop43
 90
        3
102
RTVSPost2010PropOp43
 70
     1
102
RTVSPost2010Prop44ColorIndex
 90
        5
102
RTVSPost2010Prop44ColorRGB
 90
      255
102
RTVSPost2010PropOp44
 70
     1
102
RTVSPost2010Prop45
280
     0
102
RTVSPost2010PropOp45
 70
     1
102
RTVSPost2010Prop46
 90
       50
102
RTVSPost2010PropOp46
 70
     1
102
RTVSPost2010Prop47
 90
       50
102
RTVSPost2010PropOp47
 70
     1
102
RTVSPost2010Prop48
 90
       50
102
RTVSPost2010PropOp48
 70
     1
102
RTVSPost2010Prop49
280
     0
102
RTVSPost2010PropOp49
 70
     1
102
RTVSPost2010Prop50
 90
       50
102
RTVSPost2010PropOp50
 70
     1
102
RTVSPost2010Prop51ColorIndex
 90
      256
102
RTVSPost2010Prop51ColorRGB
 90
-16777216
102
RTVSPost2010PropOp51
 70
     0
102
RTVSPost2010Prop52
140
1.0
102
RTVSPost2010PropOp52
 70
     0
102
RTVSPost2010Prop53
 90
        2
102
RTVSPost2010PropOp53
 70
     1
102
RTVSPost2010Prop54
  1
strokes_ogs.tif
102
RTVSPost2010PropOp54
 70
     1
102
RTVSPost2010Prop55
280
     0
102
RTVSPost2010PropOp55
 70
     1
102
RTVSPost2010Prop56
140
1.0
102
RTVSPost2010PropOp56
 70
     1
102
RTVSPost2010Prop57
140
1.0
102
RTVSPost2010PropOp57
 70
     1
  0
XRECORD
  5
3F1
102
{ACAD_REACTORS
330
3F0
102
}
330
3F0
100
AcDbXrecord
280
     1
102
RTVSPropertyOp0
 70
     1
102
RTVSPropertyOp1
 70
     1
102
RTVSPropertyOp2
 70
     1
102
RTVSPropertyOp3
 70
     1
102
RTVSPropertyOp4
 70
     1
102
RTVSPropertyOp5
 70
     1
102
RTVSPropertyOp6
 70
     1
102
RTVSPropertyOp7
 70
     1
102
RTVSPropertyOp8
 70
     1
102
RTVSPropertyOp9
 70
     1
102
RTVSPropertyOp10
 70
     1
102
RTVSPropertyOp11
 70
     1
102
RTVSPropertyOp12
 70
     1
102
RTVSPropertyOp13
 70
     1
102
RTVSPropertyOp14
 70
     1
102
RTVSPropertyOp15
 70
     1
102
RTVSPropertyOp16
 70
     1
102
RTVSPropertyOp17
 70
     1
102
RTVSPropertyOp18
 70
     1
102
RTVSPropertyOp19
 70
     1
102
RTVSPropertyOp20
 70
     1
102
RTVSPropertyOp21
 70
     1
102
RTVSPropertyOp22
 70
     1
102
RTVSPropertyOp23
 70
     1
102
RTVSPropertyOp24
 70
     1
102
RTVSPropertyOp25
 70
     1
102
RTVSPropertyOp26
 70
     1
102
RTVSPropertyOp27
 70
     1
102
RTVSPropertyOp28
 70
     1
102
RTVSPropertyOp29
 70
     1
102
RTVSPropertyOp30
 70
     1
102
RTVSPropertyOp31
 70
     1
102
RTVSPropertyOp32
 70
     1
102
RTVSPropertyOp33
 70
     1
102
RTVSPropertyOp34
 70
     1
102
RTVSPropertyOp35
 70
     1
102
RTVSPropertyOp36
 70
     1
102
RTVSPropertyOp37
 70
     1
102
RTVSPropertyOp38
 70
     1
102
RTVSPropertyOp39
 70
     1
102
RTVSPropertyOp40
 70
     1
102
RTVSPropertyOp41
 70
     1
102
RTVSPropertyOp42
 70
     1
102
RTVSPropertyOp43
 70
     1
102
RTVSPropertyOp44
 70
     1
102
RTVSPropertyOp45
 70
     1
102
RTVSPropertyOp46
 70
     1
102
RTVSPropertyOp47
 70
     1
102
RTVSPropertyOp48
 70
     1
102
RTVSPropertyOp49
 70
     1
102
RTVSPropertyOp50
 70
     1
102
RTVSPropertyOp51
 70
     0
102
RTVSPropertyOp52
 70
     0
102
RTVSPropertyOp53
 70
     1
102
RTVSPropertyOp54
 70
     1
102
RTVSPropertyOp55
 70
     1
102
RTVSPropertyOp56
 70
     1
102
RTVSPropertyOp57
 70
     1
102
RTVSPost2010Prop28
280
     0
102
RTVSPost2010PropOp28
 70
     1
102
RTVSPost2010Prop29
280
     1
102
RTVSPost2010PropOp29
 70
     1
102
RTVSPost2010Prop30
280
     1
102
RTVSPost2010PropOp30
 70
     1
102
RTVSPost2010Prop31
280
     0
102
RTVSPost2010PropOp31
 70
     1
102
RTVSPost2010Prop32
280
     0
102
RTVSPost2010PropOp32
 70
     1
102
RTVSPost2010Prop33
280
     0
102
RTVSPost2010PropOp33
 70
     1
102
RTVSPost2010Prop34
280
     0
102
RTVSPost2010PropOp34
 70
     1
102
RTVSPost2010Prop35
280
     0
102
RTVSPost2010PropOp35
 70
     1
102
RTVSPost2010Prop36
280
     0
102
RTVSPost2010PropOp36
 70
     1
102
RTVSPost2010Prop37
 90
       50
102
RTVSPost2010PropOp37
 70
     1
102
RTVSPost2010Prop38
140
0.0
102
RTVSPost2010PropOp38
 70
     1
102
RTVSPost2010Prop39
140
1.0
102
RTVSPost2010PropOp39
 70
     1
102
RTVSPost2010Prop40
 90
        0
102
RTVSPost2010PropOp40
 70
     1
102
RTVSPost2010Prop41ColorIndex
 90
       18
102
RTVSPost2010Prop41ColorRGB
 90
        0
102
RTVSPost2010PropOp41
 70
     1
102
RTVSPost2010Prop42
 90
       50
102
RTVSPost2010PropOp42
 70
     1
102
RTVSPost2010Prop43
 90
        3
102
RTVSPost2010PropOp43
 70
     1
102
RTVSPost2010Prop44ColorIndex
 90
        5
102
RTVSPost2010Prop44ColorRGB
 90
      255
102
RTVSPost2010PropOp44
 70
     1
102
RTVSPost2010Prop45
280
     0
102
RTVSPost2010PropOp45
 70
     1
102
RTVSPost2010Prop46
 90
       50
102
RTVSPost2010PropOp46
 70
     1
102
RTVSPost2010Prop47
 90
       50
102
RTVSPost2010PropOp47
 70
     1
102
RTVSPost2010Prop48
 90
       50
102
RTVSPost2010PropOp48
 70
     1
102
RTVSPost2010Prop49
280
     0
102
RTVSPost2010PropOp49
 70
     1
102
RTVSPost2010Prop50
 90
       50
102
RTVSPost2010PropOp50
 70
     1
102
RTVSPost2010Prop51ColorIndex
 90
      256
102
RTVSPost2010Prop51ColorRGB
 90
-16777216
102
RTVSPost2010PropOp51
 70
     0
102
RTVSPost2010Prop52
140
1.0
102
RTVSPost2010PropOp52
 70
     0
102
RTVSPost2010Prop53
 90
        2
102
RTVSPost2010PropOp53
 70
     1
102
RTVSPost2010Prop54
  1
strokes_ogs.tif
102
RTVSPost2010PropOp54
 70
     1
102
RTVSPost2010Prop55
280
     0
102
RTVSPost2010PropOp55
 70
     1
102
RTVSPost2010Prop56
140
1.0
102
RTVSPost2010PropOp56
 70
     1
102
RTVSPost2010Prop57
140
1.0
102
RTVSPost2010PropOp57
 70
     1
  0
XRECORD
  5
3F3
102
{ACAD_REACTORS
330
3F2
102
}
330
3F2
100
AcDbXrecord
280
     1
102
RTVSPropertyOp0
 70
     1
102
RTVSPropertyOp1
 70
     1
102
RTVSPropertyOp2
 70
     1
102
RTVSPropertyOp3
 70
     1
102
RTVSPropertyOp4
 70
     1
102
RTVSPropertyOp5
 70
     1
102
RTVSPropertyOp6
 70
     1
102
RTVSPropertyOp7
 70
     1
102
RTVSPropertyOp8
 70
     1
102
RTVSPropertyOp9
 70
     1
102
RTVSPropertyOp10
 70
     1
102
RTVSPropertyOp11
 70
     1
102
RTVSPropertyOp12
 70
     1
102
RTVSPropertyOp13
 70
     1
102
RTVSPropertyOp14
 70
     1
102
RTVSPropertyOp15
 70
     1
102
RTVSPropertyOp16
 70
     1
102
RTVSPropertyOp17
 70
     1
102
RTVSPropertyOp18
 70
     1
102
RTVSPropertyOp19
 70
     1
102
RTVSPropertyOp20
 70
     1
102
RTVSPropertyOp21
 70
     1
102
RTVSPropertyOp22
 70
     1
102
RTVSPropertyOp23
 70
     1
102
RTVSPropertyOp24
 70
     1
102
RTVSPropertyOp25
 70
     1
102
RTVSPropertyOp26
 70
     1
102
RTVSPropertyOp27
 70
     1
102
RTVSPropertyOp28
 70
     1
102
RTVSPropertyOp29
 70
     1
102
RTVSPropertyOp30
 70
     1
102
RTVSPropertyOp31
 70
     1
102
RTVSPropertyOp32
 70
     1
102
RTVSPropertyOp33
 70
     1
102
RTVSPropertyOp34
 70
     1
102
RTVSPropertyOp35
 70
     1
102
RTVSPropertyOp36
 70
     1
102
RTVSPropertyOp37
 70
     1
102
RTVSPropertyOp38
 70
     1
102
RTVSPropertyOp39
 70
     1
102
RTVSPropertyOp40
 70
     1
102
RTVSPropertyOp41
 70
     1
102
RTVSPropertyOp42
 70
     1
102
RTVSPropertyOp43
 70
     1
102
RTVSPropertyOp44
 70
     1
102
RTVSPropertyOp45
 70
     1
102
RTVSPropertyOp46
 70
     1
102
RTVSPropertyOp47
 70
     1
102
RTVSPropertyOp48
 70
     1
102
RTVSPropertyOp49
 70
     1
102
RTVSPropertyOp50
 70
     1
102
RTVSPropertyOp51
 70
     0
102
RTVSPropertyOp52
 70
     0
102
RTVSPropertyOp53
 70
     1
102
RTVSPropertyOp54
 70
     1
102
RTVSPropertyOp55
 70
     1
102
RTVSPropertyOp56
 70
     1
102
RTVSPropertyOp57
 70
     1
102
RTVSPost2010Prop28
280
     0
102
RTVSPost2010PropOp28
 70
     1
102
RTVSPost2010Prop29
280
     1
102
RTVSPost2010PropOp29
 70
     1
102
RTVSPost2010Prop30
280
     1
102
RTVSPost2010PropOp30
 70
     1
102
RTVSPost2010Prop31
280
     0
102
RTVSPost2010PropOp31
 70
     1
102
RTVSPost2010Prop32
280
     0
102
RTVSPost2010PropOp32
 70
     1
102
RTVSPost2010Prop33
280
     0
102
RTVSPost2010PropOp33
 70
     1
102
RTVSPost2010Prop34
280
     0
102
RTVSPost2010PropOp34
 70
     1
102
RTVSPost2010Prop35
280
     0
102
RTVSPost2010PropOp35
 70
     1
102
RTVSPost2010Prop36
280
     0
102
RTVSPost2010PropOp36
 70
     1
102
RTVSPost2010Prop37
 90
       50
102
RTVSPost2010PropOp37
 70
     1
102
RTVSPost2010Prop38
140
0.0
102
RTVSPost2010PropOp38
 70
     1
102
RTVSPost2010Prop39
140
1.0
102
RTVSPost2010PropOp39
 70
     1
102
RTVSPost2010Prop40
 90
        0
102
RTVSPost2010PropOp40
 70
     1
102
RTVSPost2010Prop41ColorIndex
 90
       18
102
RTVSPost2010Prop41ColorRGB
 90
        0
102
RTVSPost2010PropOp41
 70
     1
102
RTVSPost2010Prop42
 90
       50
102
RTVSPost2010PropOp42
 70
     1
102
RTVSPost2010Prop43
 90
        3
102
RTVSPost2010PropOp43
 70
     1
102
RTVSPost2010Prop44ColorIndex
 90
        5
102
RTVSPost2010Prop44ColorRGB
 90
      255
102
RTVSPost2010PropOp44
 70
     1
102
RTVSPost2010Prop45
280
     0
102
RTVSPost2010PropOp45
 70
     1
102
RTVSPost2010Prop46
 90
       50
102
RTVSPost2010PropOp46
 70
     1
102
RTVSPost2010Prop47
 90
       50
102
RTVSPost2010PropOp47
 70
     1
102
RTVSPost2010Prop48
 90
       50
102
RTVSPost2010PropOp48
 70
     1
102
RTVSPost2010Prop49
280
     0
102
RTVSPost2010PropOp49
 70
     1
102
RTVSPost2010Prop50
 90
       50
102
RTVSPost2010PropOp50
 70
     1
102
RTVSPost2010Prop51ColorIndex
 90
      256
102
RTVSPost2010Prop51ColorRGB
 90
-16777216
102
RTVSPost2010PropOp51
 70
     0
102
RTVSPost2010Prop52
140
1.0
102
RTVSPost2010PropOp52
 70
     0
102
RTVSPost2010Prop53
 90
        2
102
RTVSPost2010PropOp53
 70
     1
102
RTVSPost2010Prop54
  1
strokes_ogs.tif
102
RTVSPost2010PropOp54
 70
     1
102
RTVSPost2010Prop55
280
     0
102
RTVSPost2010PropOp55
 70
     1
102
RTVSPost2010Prop56
140
1.0
102
RTVSPost2010PropOp56
 70
     1
102
RTVSPost2010Prop57
140
1.0
102
RTVSPost2010PropOp57
 70
     1
  0
XRECORD
  5
3F5
102
{ACAD_REACTORS
330
3F4
102
}
330
3F4
100
AcDbXrecord
280
     1
102
RTVSPropertyOp0
 70
     1
102
RTVSPropertyOp1
 70
     1
102
RTVSPropertyOp2
 70
     1
102
RTVSPropertyOp3
 70
     1
102
RTVSPropertyOp4
 70
     1
102
RTVSPropertyOp5
 70
     1
102
RTVSPropertyOp6
 70
     1
102
RTVSPropertyOp7
 70
     1
102
RTVSPropertyOp8
 70
     1
102
RTVSPropertyOp9
 70
     1
102
RTVSPropertyOp10
 70
     1
102
RTVSPropertyOp11
 70
     1
102
RTVSPropertyOp12
 70
     1
102
RTVSPropertyOp13
 70
     1
102
RTVSPropertyOp14
 70
     1
102
RTVSPropertyOp15
 70
     1
102
RTVSPropertyOp16
 70
     1
102
RTVSPropertyOp17
 70
     1
102
RTVSPropertyOp18
 70
     1
102
RTVSPropertyOp19
 70
     1
102
RTVSPropertyOp20
 70
     1
102
RTVSPropertyOp21
 70
     1
102
RTVSPropertyOp22
 70
     1
102
RTVSPropertyOp23
 70
     1
102
RTVSPropertyOp24
 70
     1
102
RTVSPropertyOp25
 70
     1
102
RTVSPropertyOp26
 70
     1
102
RTVSPropertyOp27
 70
     1
102
RTVSPropertyOp28
 70
     1
102
RTVSPropertyOp29
 70
     1
102
RTVSPropertyOp30
 70
     1
102
RTVSPropertyOp31
 70
     1
102
RTVSPropertyOp32
 70
     1
102
RTVSPropertyOp33
 70
     1
102
RTVSPropertyOp34
 70
     1
102
RTVSPropertyOp35
 70
     1
102
RTVSPropertyOp36
 70
     1
102
RTVSPropertyOp37
 70
     1
102
RTVSPropertyOp38
 70
     1
102
RTVSPropertyOp39
 70
     1
102
RTVSPropertyOp40
 70
     1
102
RTVSPropertyOp41
 70
     1
102
RTVSPropertyOp42
 70
     1
102
RTVSPropertyOp43
 70
     1
102
RTVSPropertyOp44
 70
     1
102
RTVSPropertyOp45
 70
     1
102
RTVSPropertyOp46
 70
     1
102
RTVSPropertyOp47
 70
     1
102
RTVSPropertyOp48
 70
     1
102
RTVSPropertyOp49
 70
     1
102
RTVSPropertyOp50
 70
     1
102
RTVSPropertyOp51
 70
     0
102
RTVSPropertyOp52
 70
     0
102
RTVSPropertyOp53
 70
     1
102
RTVSPropertyOp54
 70
     1
102
RTVSPropertyOp55
 70
     1
102
RTVSPropertyOp56
 70
     1
102
RTVSPropertyOp57
 70
     1
102
RTVSPost2010Prop28
280
     0
102
RTVSPost2010PropOp28
 70
     1
102
RTVSPost2010Prop29
280
     1
102
RTVSPost2010PropOp29
 70
     1
102
RTVSPost2010Prop30
280
     1
102
RTVSPost2010PropOp30
 70
     1
102
RTVSPost2010Prop31
280
     0
102
RTVSPost2010PropOp31
 70
     1
102
RTVSPost2010Prop32
280
     0
102
RTVSPost2010PropOp32
 70
     1
102
RTVSPost2010Prop33
280
     0
102
RTVSPost2010PropOp33
 70
     1
102
RTVSPost2010Prop34
280
     0
102
RTVSPost2010PropOp34
 70
     1
102
RTVSPost2010Prop35
280
     0
102
RTVSPost2010PropOp35
 70
     1
102
RTVSPost2010Prop36
280
     0
102
RTVSPost2010PropOp36
 70
     1
102
RTVSPost2010Prop37
 90
       50
102
RTVSPost2010PropOp37
 70
     1
102
RTVSPost2010Prop38
140
0.0
102
RTVSPost2010PropOp38
 70
     1
102
RTVSPost2010Prop39
140
1.0
102
RTVSPost2010PropOp39
 70
     1
102
RTVSPost2010Prop40
 90
        0
102
RTVSPost2010PropOp40
 70
     1
102
RTVSPost2010Prop41ColorIndex
 90
       18
102
RTVSPost2010Prop41ColorRGB
 90
        0
102
RTVSPost2010PropOp41
 70
     1
102
RTVSPost2010Prop42
 90
       50
102
RTVSPost2010PropOp42
 70
     1
102
RTVSPost2010Prop43
 90
        3
102
RTVSPost2010PropOp43
 70
     1
102
RTVSPost2010Prop44ColorIndex
 90
        5
102
RTVSPost2010Prop44ColorRGB
 90
      255
102
RTVSPost2010PropOp44
 70
     1
102
RTVSPost2010Prop45
280
     0
102
RTVSPost2010PropOp45
 70
     1
102
RTVSPost2010Prop46
 90
       50
102
RTVSPost2010PropOp46
 70
     1
102
RTVSPost2010Prop47
 90
       50
102
RTVSPost2010PropOp47
 70
     1
102
RTVSPost2010Prop48
 90
       50
102
RTVSPost2010PropOp48
 70
     1
102
RTVSPost2010Prop49
280
     0
102
RTVSPost2010PropOp49
 70
     1
102
RTVSPost2010Prop50
 90
       50
102
RTVSPost2010PropOp50
 70
     1
102
RTVSPost2010Prop51ColorIndex
 90
      256
102
RTVSPost2010Prop51ColorRGB
 90
-16777216
102
RTVSPost2010PropOp51
 70
     0
102
RTVSPost2010Prop52
140
1.0
102
RTVSPost2010PropOp52
 70
     0
102
RTVSPost2010Prop53
 90
        2
102
RTVSPost2010PropOp53
 70
     1
102
RTVSPost2010Prop54
  1
strokes_ogs.tif
102
RTVSPost2010PropOp54
 70
     1
102
RTVSPost2010Prop55
280
     0
102
RTVSPost2010PropOp55
 70
     1
102
RTVSPost2010Prop56
140
1.0
102
RTVSPost2010PropOp56
 70
     1
102
RTVSPost2010Prop57
140
1.0
102
RTVSPost2010PropOp57
 70
     1
  0
XRECORD
  5
3F7
102
{ACAD_REACTORS
330
3F6
102
}
330
3F6
100
AcDbXrecord
280
     1
102
RTVSPropertyOp0
 70
     0
102
RTVSPropertyOp1
 70
     0
102
RTVSPropertyOp2
 70
     0
102
RTVSPropertyOp3
 70
     0
102
RTVSPropertyOp4
 70
     0
102
RTVSPropertyOp5
 70
     0
102
RTVSPropertyOp6
 70
     0
102
RTVSPropertyOp7
 70
     0
102
RTVSPropertyOp8
 70
     0
102
RTVSPropertyOp9
 70
     0
102
RTVSPropertyOp10
 70
     0
102
RTVSPropertyOp11
 70
     0
102
RTVSPropertyOp12
 70
     0
102
RTVSPropertyOp13
 70
     0
102
RTVSPropertyOp14
 70
     2
102
RTVSPropertyOp15
 70
     0
102
RTVSPropertyOp16
 70
     0
102
RTVSPropertyOp17
 70
     0
102
RTVSPropertyOp18
 70
     0
102
RTVSPropertyOp19
 70
     0
102
RTVSPropertyOp20
 70
     0
102
RTVSPropertyOp21
 70
     0
102
RTVSPropertyOp22
 70
     0
102
RTVSPropertyOp23
 70
     0
102
RTVSPropertyOp24
 70
     0
102
RTVSPropertyOp25
 70
     0
102
RTVSPropertyOp26
 70
     0
102
RTVSPropertyOp27
 70
     0
102
RTVSPropertyOp28
 70
     1
102
RTVSPropertyOp29
 70
     1
102
RTVSPropertyOp30
 70
     1
102
RTVSPropertyOp31
 70
     1
102
RTVSPropertyOp32
 70
     1
102
RTVSPropertyOp33
 70
     1
102
RTVSPropertyOp34
 70
     1
102
RTVSPropertyOp35
 70
     1
102
RTVSPropertyOp36
 70
     1
102
RTVSPropertyOp37
 70
     0
102
RTVSPropertyOp38
 70
     0
102
RTVSPropertyOp39
 70
     0
102
RTVSPropertyOp40
 70
     0
102
RTVSPropertyOp41
 70
     0
102
RTVSPropertyOp42
 70
     0
102
RTVSPropertyOp43
 70
     0
102
RTVSPropertyOp44
 70
     0
102
RTVSPropertyOp45
 70
     1
102
RTVSPropertyOp46
 70
     0
102
RTVSPropertyOp47
 70
     0
102
RTVSPropertyOp48
 70
     0
102
RTVSPropertyOp49
 70
     1
102
RTVSPropertyOp50
 70
     0
102
RTVSPropertyOp51
 70
     0
102
RTVSPropertyOp52
 70
     0
102
RTVSPropertyOp53
 70
     0
102
RTVSPropertyOp54
 70
     0
102
RTVSPropertyOp55
 70
     1
102
RTVSPropertyOp56
 70
     0
102
RTVSPropertyOp57
 70
     0
102
RTVSPost2010Prop28
280
     0
102
RTVSPost2010PropOp28
 70
     1
102
RTVSPost2010Prop29
280
     1
102
RTVSPost2010PropOp29
 70
     1
102
RTVSPost2010Prop30
280
     1
102
RTVSPost2010PropOp30
 70
     1
102
RTVSPost2010Prop31
280
     0
102
RTVSPost2010PropOp31
 70
     1
102
RTVSPost2010Prop32
280
     0
102
RTVSPost2010PropOp32
 70
     1
102
RTVSPost2010Prop33
280
     0
102
RTVSPost2010PropOp33
 70
     1
102
RTVSPost2010Prop34
280
     0
102
RTVSPost2010PropOp34
 70
     1
102
RTVSPost2010Prop35
280
     0
102
RTVSPost2010PropOp35
 70
     1
102
RTVSPost2010Prop36
280
     0
102
RTVSPost2010PropOp36
 70
     1
102
RTVSPost2010Prop37
 90
       50
102
RTVSPost2010PropOp37
 70
     0
102
RTVSPost2010Prop38
140
0.0
102
RTVSPost2010PropOp38
 70
     0
102
RTVSPost2010Prop39
140
1.0
102
RTVSPost2010PropOp39
 70
     0
102
RTVSPost2010Prop40
 90
        0
102
RTVSPost2010PropOp40
 70
     0
102
RTVSPost2010Prop41ColorIndex
 90
       18
102
RTVSPost2010Prop41ColorRGB
 90
        0
102
RTVSPost2010PropOp41
 70
     0
102
RTVSPost2010Prop42
 90
       50
102
RTVSPost2010PropOp42
 70
     0
102
RTVSPost2010Prop43
 90
        3
102
RTVSPost2010PropOp43
 70
     0
102
RTVSPost2010Prop44ColorIndex
 90
        5
102
RTVSPost2010Prop44ColorRGB
 90
      255
102
RTVSPost2010PropOp44
 70
     0
102
RTVSPost2010Prop45
280
     0
102
RTVSPost2010PropOp45
 70
     1
102
RTVSPost2010Prop46
 90
       50
102
RTVSPost2010PropOp46
 70
     0
102
RTVSPost2010Prop47
 90
       50
102
RTVSPost2010PropOp47
 70
     0
102
RTVSPost2010Prop48
 90
       50
102
RTVSPost2010PropOp48
 70
     0
102
RTVSPost2010Prop49
280
     0
102
RTVSPost2010PropOp49
 70
     1
102
RTVSPost2010Prop50
 90
       50
102
RTVSPost2010PropOp50
 70
     0
102
RTVSPost2010Prop51ColorIndex
 90
      256
102
RTVSPost2010Prop51ColorRGB
 90
-16777216
102
RTVSPost2010PropOp51
 70
     0
102
RTVSPost2010Prop52
140
1.0
102
RTVSPost2010PropOp52
 70
     0
102
RTVSPost2010Prop53
 90
        2
102
RTVSPost2010PropOp53
 70
     0
102
RTVSPost2010Prop54
  1
strokes_ogs.tif
102
RTVSPost2010PropOp54
 70
     0
102
RTVSPost2010Prop55
280
     0
102
RTVSPost2010PropOp55
 70
     1
102
RTVSPost2010Prop56
140
1.0
102
RTVSPost2010PropOp56
 70
     0
102
RTVSPost2010Prop57
140
1.0
102
RTVSPost2010PropOp57
 70
     0
  0
XRECORD
  5
3F9
102
{ACAD_REACTORS
330
3F8
102
}
330
3F8
100
AcDbXrecord
280
     1
102
RTVSPropertyOp0
 70
     1
102
RTVSPropertyOp1
 70
     1
102
RTVSPropertyOp2
 70
     1
102
RTVSPropertyOp3
 70
     1
102
RTVSPropertyOp4
 70
     1
102
RTVSPropertyOp5
 70
     1
102
RTVSPropertyOp6
 70
     1
102
RTVSPropertyOp7
 70
     1
102
RTVSPropertyOp8
 70
     1
102
RTVSPropertyOp9
 70
     1
102
RTVSPropertyOp10
 70
     1
102
RTVSPropertyOp11
 70
     1
102
RTVSPropertyOp12
 70
     1
102
RTVSPropertyOp13
 70
     1
102
RTVSPropertyOp14
 70
     1
102
RTVSPropertyOp15
 70
     1
102
RTVSPropertyOp16
 70
     1
102
RTVSPropertyOp17
 70
     1
102
RTVSPropertyOp18
 70
     1
102
RTVSPropertyOp19
 70
     1
102
RTVSPropertyOp20
 70
     1
102
RTVSPropertyOp21
 70
     1
102
RTVSPropertyOp22
 70
     1
102
RTVSPropertyOp23
 70
     1
102
RTVSPropertyOp24
 70
     1
102
RTVSPropertyOp25
 70
     1
102
RTVSPropertyOp26
 70
     1
102
RTVSPropertyOp27
 70
     1
102
RTVSPropertyOp28
 70
     1
102
RTVSPropertyOp29
 70
     1
102
RTVSPropertyOp30
 70
     1
102
RTVSPropertyOp31
 70
     1
102
RTVSPropertyOp32
 70
     1
102
RTVSPropertyOp33
 70
     1
102
RTVSPropertyOp34
 70
     1
102
RTVSPropertyOp35
 70
     1
102
RTVSPropertyOp36
 70
     1
102
RTVSPropertyOp37
 70
     1
102
RTVSPropertyOp38
 70
     1
102
RTVSPropertyOp39
 70
     1
102
RTVSPropertyOp40
 70
     1
102
RTVSPropertyOp41
 70
     1
102
RTVSPropertyOp42
 70
     1
102
RTVSPropertyOp43
 70
     1
102
RTVSPropertyOp44
 70
     1
102
RTVSPropertyOp45
 70
     1
102
RTVSPropertyOp46
 70
     1
102
RTVSPropertyOp47
 70
     1
102
RTVSPropertyOp48
 70
     1
102
RTVSPropertyOp49
 70
     1
102
RTVSPropertyOp50
 70
     1
102
RTVSPropertyOp51
 70
     0
102
RTVSPropertyOp52
 70
     0
102
RTVSPropertyOp53
 70
     1
102
RTVSPropertyOp54
 70
     1
102
RTVSPropertyOp55
 70
     1
102
RTVSPropertyOp56
 70
     1
102
RTVSPropertyOp57
 70
     1
102
RTVSPost2010Prop28
280
     0
102
RTVSPost2010PropOp28
 70
     1
102
RTVSPost2010Prop29
280
     1
102
RTVSPost2010PropOp29
 70
     1
102
RTVSPost2010Prop30
280
     1
102
RTVSPost2010PropOp30
 70
     1
102
RTVSPost2010Prop31
280
     0
102
RTVSPost2010PropOp31
 70
     1
102
RTVSPost2010Prop32
280
     0
102
RTVSPost2010PropOp32
 70
     1
102
RTVSPost2010Prop33
280
     0
102
RTVSPost2010PropOp33
 70
     1
102
RTVSPost2010Prop34
280
     0
102
RTVSPost2010PropOp34
 70
     1
102
RTVSPost2010Prop35
280
     0
102
RTVSPost2010PropOp35
 70
     1
102
RTVSPost2010Prop36
280
     0
102
RTVSPost2010PropOp36
 70
     1
102
RTVSPost2010Prop37
 90
       50
102
RTVSPost2010PropOp37
 70
     1
102
RTVSPost2010Prop38
140
0.0
102
RTVSPost2010PropOp38
 70
     1
102
RTVSPost2010Prop39
140
1.0
102
RTVSPost2010PropOp39
 70
     1
102
RTVSPost2010Prop40
 90
        0
102
RTVSPost2010PropOp40
 70
     1
102
RTVSPost2010Prop41ColorIndex
 90
       18
102
RTVSPost2010Prop41ColorRGB
 90
        0
102
RTVSPost2010PropOp41
 70
     1
102
RTVSPost2010Prop42
 90
       50
102
RTVSPost2010PropOp42
 70
     1
102
RTVSPost2010Prop43
 90
        3
102
RTVSPost2010PropOp43
 70
     1
102
RTVSPost2010Prop44ColorIndex
 90
        5
102
RTVSPost2010Prop44ColorRGB
 90
      255
102
RTVSPost2010PropOp44
 70
     1
102
RTVSPost2010Prop45
280
     0
102
RTVSPost2010PropOp45
 70
     1
102
RTVSPost2010Prop46
 90
       50
102
RTVSPost2010PropOp46
 70
     1
102
RTVSPost2010Prop47
 90
       50
102
RTVSPost2010PropOp47
 70
     1
102
RTVSPost2010Prop48
 90
       50
102
RTVSPost2010PropOp48
 70
     1
102
RTVSPost2010Prop49
280
     0
102
RTVSPost2010PropOp49
 70
     1
102
RTVSPost2010Prop50
 90
       50
102
RTVSPost2010PropOp50
 70
     1
102
RTVSPost2010Prop51ColorIndex
 90
      256
102
RTVSPost2010Prop51ColorRGB
 90
-16777216
102
RTVSPost2010PropOp51
 70
     0
102
RTVSPost2010Prop52
140
1.0
102
RTVSPost2010PropOp52
 70
     0
102
RTVSPost2010Prop53
 90
        2
102
RTVSPost2010PropOp53
 70
     1
102
RTVSPost2010Prop54
  1
strokes_ogs.tif
102
RTVSPost2010PropOp54
 70
     1
102
RTVSPost2010Prop55
280
     0
102
RTVSPost2010PropOp55
 70
     1
102
RTVSPost2010Prop56
140
1.0
102
RTVSPost2010PropOp56
 70
     1
102
RTVSPost2010Prop57
140
1.0
102
RTVSPost2010PropOp57
 70
     1
  0
XRECORD
  5
3FB
102
{ACAD_REACTORS
330
3FA
102
}
330
3FA
100
AcDbXrecord
280
     1
102
RTVSPropertyOp0
 70
     0
102
RTVSPropertyOp1
 70
     0
102
RTVSPropertyOp2
 70
     0
102
RTVSPropertyOp3
 70
     0
102
RTVSPropertyOp4
 70
     0
102
RTVSPropertyOp5
 70
     0
102
RTVSPropertyOp6
 70
     0
102
RTVSPropertyOp7
 70
     0
102
RTVSPropertyOp8
 70
     0
102
RTVSPropertyOp9
 70
     0
102
RTVSPropertyOp10
 70
     0
102
RTVSPropertyOp11
 70
     0
102
RTVSPropertyOp12
 70
     0
102
RTVSPropertyOp13
 70
     0
102
RTVSPropertyOp14
 70
     2
102
RTVSPropertyOp15
 70
     0
102
RTVSPropertyOp16
 70
     0
102
RTVSPropertyOp17
 70
     0
102
RTVSPropertyOp18
 70
     0
102
RTVSPropertyOp19
 70
     0
102
RTVSPropertyOp20
 70
     0
102
RTVSPropertyOp21
 70
     0
102
RTVSPropertyOp22
 70
     0
102
RTVSPropertyOp23
 70
     0
102
RTVSPropertyOp24
 70
     0
102
RTVSPropertyOp25
 70
     0
102
RTVSPropertyOp26
 70
     0
102
RTVSPropertyOp27
 70
     0
102
RTVSPropertyOp28
 70
     1
102
RTVSPropertyOp29
 70
     1
102
RTVSPropertyOp30
 70
     1
102
RTVSPropertyOp31
 70
     1
102
RTVSPropertyOp32
 70
     1
102
RTVSPropertyOp33
 70
     1
102
RTVSPropertyOp34
 70
     1
102
RTVSPropertyOp35
 70
     1
102
RTVSPropertyOp36
 70
     1
102
RTVSPropertyOp37
 70
     0
102
RTVSPropertyOp38
 70
     0
102
RTVSPropertyOp39
 70
     0
102
RTVSPropertyOp40
 70
     0
102
RTVSPropertyOp41
 70
     0
102
RTVSPropertyOp42
 70
     0
102
RTVSPropertyOp43
 70
     0
102
RTVSPropertyOp44
 70
     0
102
RTVSPropertyOp45
 70
     1
102
RTVSPropertyOp46
 70
     0
102
RTVSPropertyOp47
 70
     0
102
RTVSPropertyOp48
 70
     0
102
RTVSPropertyOp49
 70
     1
102
RTVSPropertyOp50
 70
     0
102
RTVSPropertyOp51
 70
     0
102
RTVSPropertyOp52
 70
     0
102
RTVSPropertyOp53
 70
     0
102
RTVSPropertyOp54
 70
     0
102
RTVSPropertyOp55
 70
     1
102
RTVSPropertyOp56
 70
     0
102
RTVSPropertyOp57
 70
     0
102
RTVSPost2010Prop28
280
     0
102
RTVSPost2010PropOp28
 70
     1
102
RTVSPost2010Prop29
280
     1
102
RTVSPost2010PropOp29
 70
     1
102
RTVSPost2010Prop30
280
     1
102
RTVSPost2010PropOp30
 70
     1
102
RTVSPost2010Prop31
280
     0
102
RTVSPost2010PropOp31
 70
     1
102
RTVSPost2010Prop32
280
     0
102
RTVSPost2010PropOp32
 70
     1
102
RTVSPost2010Prop33
280
     0
102
RTVSPost2010PropOp33
 70
     1
102
RTVSPost2010Prop34
280
     0
102
RTVSPost2010PropOp34
 70
     1
102
RTVSPost2010Prop35
280
     0
102
RTVSPost2010PropOp35
 70
     1
102
RTVSPost2010Prop36
280
     0
102
RTVSPost2010PropOp36
 70
     1
102
RTVSPost2010Prop37
 90
       50
102
RTVSPost2010PropOp37
 70
     0
102
RTVSPost2010Prop38
140
0.0
102
RTVSPost2010PropOp38
 70
     0
102
RTVSPost2010Prop39
140
1.0
102
RTVSPost2010PropOp39
 70
     0
102
RTVSPost2010Prop40
 90
        0
102
RTVSPost2010PropOp40
 70
     0
102
RTVSPost2010Prop41ColorIndex
 90
       18
102
RTVSPost2010Prop41ColorRGB
 90
        0
102
RTVSPost2010PropOp41
 70
     0
102
RTVSPost2010Prop42
 90
       50
102
RTVSPost2010PropOp42
 70
     0
102
RTVSPost2010Prop43
 90
        3
102
RTVSPost2010PropOp43
 70
     0
102
RTVSPost2010Prop44ColorIndex
 90
        5
102
RTVSPost2010Prop44ColorRGB
 90
      255
102
RTVSPost2010PropOp44
 70
     0
102
RTVSPost2010Prop45
280
     0
102
RTVSPost2010PropOp45
 70
     1
102
RTVSPost2010Prop46
 90
       50
102
RTVSPost2010PropOp46
 70
     0
102
RTVSPost2010Prop47
 90
       50
102
RTVSPost2010PropOp47
 70
     0
102
RTVSPost2010Prop48
 90
       50
102
RTVSPost2010PropOp48
 70
     0
102
RTVSPost2010Prop49
280
     0
102
RTVSPost2010PropOp49
 70
     1
102
RTVSPost2010Prop50
 90
       50
102
RTVSPost2010PropOp50
 70
     0
102
RTVSPost2010Prop51ColorIndex
 90
      256
102
RTVSPost2010Prop51ColorRGB
 90
-16777216
102
RTVSPost2010PropOp51
 70
     0
102
RTVSPost2010Prop52
140
1.0
102
RTVSPost2010PropOp52
 70
     0
102
RTVSPost2010Prop53
 90
        2
102
RTVSPost2010PropOp53
 70
     0
102
RTVSPost2010Prop54
  1
strokes_ogs.tif
102
RTVSPost2010PropOp54
 70
     0
102
RTVSPost2010Prop55
280
     0
102
RTVSPost2010PropOp55
 70
     1
102
RTVSPost2010Prop56
140
1.0
102
RTVSPost2010PropOp56
 70
     0
102
RTVSPost2010Prop57
140
1.0
102
RTVSPost2010PropOp57
 70
     0
  0
XRECORD
  5
3FD
102
{ACAD_REACTORS
330
3FC
102
}
330
3FC
100
AcDbXrecord
280
     1
102
RTVSPropertyOp0
 70
     1
102
RTVSPropertyOp1
 70
     1
102
RTVSPropertyOp2
 70
     1
102
RTVSPropertyOp3
 70
     1
102
RTVSPropertyOp4
 70
     1
102
RTVSPropertyOp5
 70
     1
102
RTVSPropertyOp6
 70
     1
102
RTVSPropertyOp7
 70
     1
102
RTVSPropertyOp8
 70
     1
102
RTVSPropertyOp9
 70
     1
102
RTVSPropertyOp10
 70
     1
102
RTVSPropertyOp11
 70
     1
102
RTVSPropertyOp12
 70
     1
102
RTVSPropertyOp13
 70
     1
102
RTVSPropertyOp14
 70
     1
102
RTVSPropertyOp15
 70
     1
102
RTVSPropertyOp16
 70
     1
102
RTVSPropertyOp17
 70
     1
102
RTVSPropertyOp18
 70
     1
102
RTVSPropertyOp19
 70
     1
102
RTVSPropertyOp20
 70
     1
102
RTVSPropertyOp21
 70
     1
102
RTVSPropertyOp22
 70
     1
102
RTVSPropertyOp23
 70
     1
102
RTVSPropertyOp24
 70
     1
102
RTVSPropertyOp25
 70
     1
102
RTVSPropertyOp26
 70
     1
102
RTVSPropertyOp27
 70
     1
102
RTVSPropertyOp28
 70
     1
102
RTVSPropertyOp29
 70
     1
102
RTVSPropertyOp30
 70
     1
102
RTVSPropertyOp31
 70
     1
102
RTVSPropertyOp32
 70
     1
102
RTVSPropertyOp33
 70
     1
102
RTVSPropertyOp34
 70
     1
102
RTVSPropertyOp35
 70
     1
102
RTVSPropertyOp36
 70
     1
102
RTVSPropertyOp37
 70
     1
102
RTVSPropertyOp38
 70
     1
102
RTVSPropertyOp39
 70
     1
102
RTVSPropertyOp40
 70
     1
102
RTVSPropertyOp41
 70
     1
102
RTVSPropertyOp42
 70
     1
102
RTVSPropertyOp43
 70
     1
102
RTVSPropertyOp44
 70
     1
102
RTVSPropertyOp45
 70
     1
102
RTVSPropertyOp46
 70
     1
102
RTVSPropertyOp47
 70
     1
102
RTVSPropertyOp48
 70
     1
102
RTVSPropertyOp49
 70
     1
102
RTVSPropertyOp50
 70
     1
102
RTVSPropertyOp51
 70
     0
102
RTVSPropertyOp52
 70
     0
102
RTVSPropertyOp53
 70
     1
102
RTVSPropertyOp54
 70
     1
102
RTVSPropertyOp55
 70
     1
102
RTVSPropertyOp56
 70
     1
102
RTVSPropertyOp57
 70
     1
102
RTVSPost2010Prop28
280
     0
102
RTVSPost2010PropOp28
 70
     1
102
RTVSPost2010Prop29
280
     1
102
RTVSPost2010PropOp29
 70
     1
102
RTVSPost2010Prop30
280
     1
102
RTVSPost2010PropOp30
 70
     1
102
RTVSPost2010Prop31
280
     0
102
RTVSPost2010PropOp31
 70
     1
102
RTVSPost2010Prop32
280
     0
102
RTVSPost2010PropOp32
 70
     1
102
RTVSPost2010Prop33
280
     0
102
RTVSPost2010PropOp33
 70
     1
102
RTVSPost2010Prop34
280
     0
102
RTVSPost2010PropOp34
 70
     1
102
RTVSPost2010Prop35
280
     0
102
RTVSPost2010PropOp35
 70
     1
102
RTVSPost2010Prop36
280
     0
102
RTVSPost2010PropOp36
 70
     1
102
RTVSPost2010Prop37
 90
       50
102
RTVSPost2010PropOp37
 70
     1
102
RTVSPost2010Prop38
140
0.0
102
RTVSPost2010PropOp38
 70
     1
102
RTVSPost2010Prop39
140
1.0
102
RTVSPost2010PropOp39
 70
     1
102
RTVSPost2010Prop40
 90
        0
102
RTVSPost2010PropOp40
 70
     1
102
RTVSPost2010Prop41ColorIndex
 90
       18
102
RTVSPost2010Prop41ColorRGB
 90
        0
102
RTVSPost2010PropOp41
 70
     1
102
RTVSPost2010Prop42
 90
       50
102
RTVSPost2010PropOp42
 70
     1
102
RTVSPost2010Prop43
 90
        3
102
RTVSPost2010PropOp43
 70
     1
102
RTVSPost2010Prop44ColorIndex
 90
        5
102
RTVSPost2010Prop44ColorRGB
 90
      255
102
RTVSPost2010PropOp44
 70
     1
102
RTVSPost2010Prop45
280
     0
102
RTVSPost2010PropOp45
 70
     1
102
RTVSPost2010Prop46
 90
       50
102
RTVSPost2010PropOp46
 70
     1
102
RTVSPost2010Prop47
 90
       50
102
RTVSPost2010PropOp47
 70
     1
102
RTVSPost2010Prop48
 90
       50
102
RTVSPost2010PropOp48
 70
     1
102
RTVSPost2010Prop49
280
     0
102
RTVSPost2010PropOp49
 70
     1
102
RTVSPost2010Prop50
 90
       50
102
RTVSPost2010PropOp50
 70
     1
102
RTVSPost2010Prop51ColorIndex
 90
      256
102
RTVSPost2010Prop51ColorRGB
 90
-16777216
102
RTVSPost2010PropOp51
 70
     0
102
RTVSPost2010Prop52
140
1.0
102
RTVSPost2010PropOp52
 70
     0
102
RTVSPost2010Prop53
 90
        2
102
RTVSPost2010PropOp53
 70
     1
102
RTVSPost2010Prop54
  1
strokes_ogs.tif
102
RTVSPost2010PropOp54
 70
     1
102
RTVSPost2010Prop55
280
     0
102
RTVSPost2010PropOp55
 70
     1
102
RTVSPost2010Prop56
140
1.0
102
RTVSPost2010PropOp56
 70
     1
102
RTVSPost2010Prop57
140
1.0
102
RTVSPost2010PropOp57
 70
     1
  0
XRECORD
  5
3FF
102
{ACAD_REACTORS
330
3FE
102
}
330
3FE
100
AcDbXrecord
280
     1
102
RTVSPropertyOp0
 70
     1
102
RTVSPropertyOp1
 70
     1
102
RTVSPropertyOp2
 70
     1
102
RTVSPropertyOp3
 70
     1
102
RTVSPropertyOp4
 70
     1
102
RTVSPropertyOp5
 70
     1
102
RTVSPropertyOp6
 70
     1
102
RTVSPropertyOp7
 70
     1
102
RTVSPropertyOp8
 70
     1
102
RTVSPropertyOp9
 70
     1
102
RTVSPropertyOp10
 70
     1
102
RTVSPropertyOp11
 70
     1
102
RTVSPropertyOp12
 70
     1
102
RTVSPropertyOp13
 70
     1
102
RTVSPropertyOp14
 70
     1
102
RTVSPropertyOp15
 70
     1
102
RTVSPropertyOp16
 70
     1
102
RTVSPropertyOp17
 70
     1
102
RTVSPropertyOp18
 70
     1
102
RTVSPropertyOp19
 70
     1
102
RTVSPropertyOp20
 70
     1
102
RTVSPropertyOp21
 70
     1
102
RTVSPropertyOp22
 70
     1
102
RTVSPropertyOp23
 70
     1
102
RTVSPropertyOp24
 70
     1
102
RTVSPropertyOp25
 70
     1
102
RTVSPropertyOp26
 70
     1
102
RTVSPropertyOp27
 70
     1
102
RTVSPropertyOp28
 70
     1
102
RTVSPropertyOp29
 70
     1
102
RTVSPropertyOp30
 70
     1
102
RTVSPropertyOp31
 70
     1
102
RTVSPropertyOp32
 70
     1
102
RTVSPropertyOp33
 70
     1
102
RTVSPropertyOp34
 70
     1
102
RTVSPropertyOp35
 70
     1
102
RTVSPropertyOp36
 70
     1
102
RTVSPropertyOp37
 70
     1
102
RTVSPropertyOp38
 70
     1
102
RTVSPropertyOp39
 70
     1
102
RTVSPropertyOp40
 70
     1
102
RTVSPropertyOp41
 70
     1
102
RTVSPropertyOp42
 70
     1
102
RTVSPropertyOp43
 70
     1
102
RTVSPropertyOp44
 70
     1
102
RTVSPropertyOp45
 70
     1
102
RTVSPropertyOp46
 70
     1
102
RTVSPropertyOp47
 70
     1
102
RTVSPropertyOp48
 70
     1
102
RTVSPropertyOp49
 70
     1
102
RTVSPropertyOp50
 70
     1
102
RTVSPropertyOp51
 70
     0
102
RTVSPropertyOp52
 70
     0
102
RTVSPropertyOp53
 70
     1
102
RTVSPropertyOp54
 70
     1
102
RTVSPropertyOp55
 70
     1
102
RTVSPropertyOp56
 70
     1
102
RTVSPropertyOp57
 70
     1
102
RTVSPost2010Prop28
280
     0
102
RTVSPost2010PropOp28
 70
     1
102
RTVSPost2010Prop29
280
     1
102
RTVSPost2010PropOp29
 70
     1
102
RTVSPost2010Prop30
280
     1
102
RTVSPost2010PropOp30
 70
     1
102
RTVSPost2010Prop31
280
     0
102
RTVSPost2010PropOp31
 70
     1
102
RTVSPost2010Prop32
280
     0
102
RTVSPost2010PropOp32
 70
     1
102
RTVSPost2010Prop33
280
     0
102
RTVSPost2010PropOp33
 70
     1
102
RTVSPost2010Prop34
280
     0
102
RTVSPost2010PropOp34
 70
     1
102
RTVSPost2010Prop35
280
     0
102
RTVSPost2010PropOp35
 70
     1
102
RTVSPost2010Prop36
280
     0
102
RTVSPost2010PropOp36
 70
     1
102
RTVSPost2010Prop37
 90
       50
102
RTVSPost2010PropOp37
 70
     1
102
RTVSPost2010Prop38
140
0.0
102
RTVSPost2010PropOp38
 70
     1
102
RTVSPost2010Prop39
140
1.0
102
RTVSPost2010PropOp39
 70
     1
102
RTVSPost2010Prop40
 90
        0
102
RTVSPost2010PropOp40
 70
     1
102
RTVSPost2010Prop41ColorIndex
 90
       18
102
RTVSPost2010Prop41ColorRGB
 90
        0
102
RTVSPost2010PropOp41
 70
     1
102
RTVSPost2010Prop42
 90
       50
102
RTVSPost2010PropOp42
 70
     1
102
RTVSPost2010Prop43
 90
        3
102
RTVSPost2010PropOp43
 70
     1
102
RTVSPost2010Prop44ColorIndex
 90
        5
102
RTVSPost2010Prop44ColorRGB
 90
      255
102
RTVSPost2010PropOp44
 70
     1
102
RTVSPost2010Prop45
280
     0
102
RTVSPost2010PropOp45
 70
     1
102
RTVSPost2010Prop46
 90
       50
102
RTVSPost2010PropOp46
 70
     1
102
RTVSPost2010Prop47
 90
       50
102
RTVSPost2010PropOp47
 70
     1
102
RTVSPost2010Prop48
 90
       50
102
RTVSPost2010PropOp48
 70
     1
102
RTVSPost2010Prop49
280
     0
102
RTVSPost2010PropOp49
 70
     1
102
RTVSPost2010Prop50
 90
       50
102
RTVSPost2010PropOp50
 70
     1
102
RTVSPost2010Prop51ColorIndex
 90
      256
102
RTVSPost2010Prop51ColorRGB
 90
-16777216
102
RTVSPost2010PropOp51
 70
     0
102
RTVSPost2010Prop52
140
1.0
102
RTVSPost2010PropOp52
 70
     0
102
RTVSPost2010Prop53
 90
        2
102
RTVSPost2010PropOp53
 70
     1
102
RTVSPost2010Prop54
  1
strokes_ogs.tif
102
RTVSPost2010PropOp54
 70
     1
102
RTVSPost2010Prop55
280
     0
102
RTVSPost2010PropOp55
 70
     1
102
RTVSPost2010Prop56
140
1.0
102
RTVSPost2010PropOp56
 70
     1
102
RTVSPost2010Prop57
140
1.0
102
RTVSPost2010PropOp57
 70
     1
  0
XRECORD
  5
401
102
{ACAD_REACTORS
330
400
102
}
330
400
100
AcDbXrecord
280
     1
102
RTVSPropertyOp0
 70
     1
102
RTVSPropertyOp1
 70
     1
102
RTVSPropertyOp2
 70
     1
102
RTVSPropertyOp3
 70
     1
102
RTVSPropertyOp4
 70
     1
102
RTVSPropertyOp5
 70
     1
102
RTVSPropertyOp6
 70
     1
102
RTVSPropertyOp7
 70
     1
102
RTVSPropertyOp8
 70
     1
102
RTVSPropertyOp9
 70
     1
102
RTVSPropertyOp10
 70
     1
102
RTVSPropertyOp11
 70
     1
102
RTVSPropertyOp12
 70
     1
102
RTVSPropertyOp13
 70
     1
102
RTVSPropertyOp14
 70
     1
102
RTVSPropertyOp15
 70
     1
102
RTVSPropertyOp16
 70
     1
102
RTVSPropertyOp17
 70
     1
102
RTVSPropertyOp18
 70
     1
102
RTVSPropertyOp19
 70
     1
102
RTVSPropertyOp20
 70
     1
102
RTVSPropertyOp21
 70
     1
102
RTVSPropertyOp22
 70
     1
102
RTVSPropertyOp23
 70
     1
102
RTVSPropertyOp24
 70
     1
102
RTVSPropertyOp25
 70
     1
102
RTVSPropertyOp26
 70
     1
102
RTVSPropertyOp27
 70
     1
102
RTVSPropertyOp28
 70
     1
102
RTVSPropertyOp29
 70
     1
102
RTVSPropertyOp30
 70
     1
102
RTVSPropertyOp31
 70
     1
102
RTVSPropertyOp32
 70
     1
102
RTVSPropertyOp33
 70
     1
102
RTVSPropertyOp34
 70
     1
102
RTVSPropertyOp35
 70
     1
102
RTVSPropertyOp36
 70
     1
102
RTVSPropertyOp37
 70
     1
102
RTVSPropertyOp38
 70
     1
102
RTVSPropertyOp39
 70
     1
102
RTVSPropertyOp40
 70
     1
102
RTVSPropertyOp41
 70
     1
102
RTVSPropertyOp42
 70
     1
102
RTVSPropertyOp43
 70
     1
102
RTVSPropertyOp44
 70
     1
102
RTVSPropertyOp45
 70
     1
102
RTVSPropertyOp46
 70
     1
102
RTVSPropertyOp47
 70
     1
102
RTVSPropertyOp48
 70
     1
102
RTVSPropertyOp49
 70
     1
102
RTVSPropertyOp50
 70
     1
102
RTVSPropertyOp51
 70
     0
102
RTVSPropertyOp52
 70
     0
102
RTVSPropertyOp53
 70
     1
102
RTVSPropertyOp54
 70
     1
102
RTVSPropertyOp55
 70
     1
102
RTVSPropertyOp56
 70
     1
102
RTVSPropertyOp57
 70
     1
102
RTVSPost2010Prop28
280
     0
102
RTVSPost2010PropOp28
 70
     1
102
RTVSPost2010Prop29
280
     1
102
RTVSPost2010PropOp29
 70
     1
102
RTVSPost2010Prop30
280
     1
102
RTVSPost2010PropOp30
 70
     1
102
RTVSPost2010Prop31
280
     0
102
RTVSPost2010PropOp31
 70
     1
102
RTVSPost2010Prop32
280
     0
102
RTVSPost2010PropOp32
 70
     1
102
RTVSPost2010Prop33
280
     0
102
RTVSPost2010PropOp33
 70
     1
102
RTVSPost2010Prop34
280
     0
102
RTVSPost2010PropOp34
 70
     1
102
RTVSPost2010Prop35
280
     0
102
RTVSPost2010PropOp35
 70
     1
102
RTVSPost2010Prop36
280
     0
102
RTVSPost2010PropOp36
 70
     1
102
RTVSPost2010Prop37
 90
       50
102
RTVSPost2010PropOp37
 70
     1
102
RTVSPost2010Prop38
140
0.0
102
RTVSPost2010PropOp38
 70
     1
102
RTVSPost2010Prop39
140
1.0
102
RTVSPost2010PropOp39
 70
     1
102
RTVSPost2010Prop40
 90
        0
102
RTVSPost2010PropOp40
 70
     1
102
RTVSPost2010Prop41ColorIndex
 90
       18
102
RTVSPost2010Prop41ColorRGB
 90
        0
102
RTVSPost2010PropOp41
 70
     1
102
RTVSPost2010Prop42
 90
       50
102
RTVSPost2010PropOp42
 70
     1
102
RTVSPost2010Prop43
 90
        3
102
RTVSPost2010PropOp43
 70
     1
102
RTVSPost2010Prop44ColorIndex
 90
        5
102
RTVSPost2010Prop44ColorRGB
 90
      255
102
RTVSPost2010PropOp44
 70
     1
102
RTVSPost2010Prop45
280
     0
102
RTVSPost2010PropOp45
 70
     1
102
RTVSPost2010Prop46
 90
       50
102
RTVSPost2010PropOp46
 70
     1
102
RTVSPost2010Prop47
 90
       50
102
RTVSPost2010PropOp47
 70
     1
102
RTVSPost2010Prop48
 90
       50
102
RTVSPost2010PropOp48
 70
     1
102
RTVSPost2010Prop49
280
     0
102
RTVSPost2010PropOp49
 70
     1
102
RTVSPost2010Prop50
 90
       50
102
RTVSPost2010PropOp50
 70
     1
102
RTVSPost2010Prop51ColorIndex
 90
      256
102
RTVSPost2010Prop51ColorRGB
 90
-16777216
102
RTVSPost2010PropOp51
 70
     0
102
RTVSPost2010Prop52
140
1.0
102
RTVSPost2010PropOp52
 70
     0
102
RTVSPost2010Prop53
 90
        2
102
RTVSPost2010PropOp53
 70
     1
102
RTVSPost2010Prop54
  1
strokes_ogs.tif
102
RTVSPost2010PropOp54
 70
     1
102
RTVSPost2010Prop55
280
     0
102
RTVSPost2010PropOp55
 70
     1
102
RTVSPost2010Prop56
140
1.0
102
RTVSPost2010PropOp56
 70
     1
102
RTVSPost2010Prop57
140
1.0
102
RTVSPost2010PropOp57
 70
     1
  0
XRECORD
  5
403
102
{ACAD_REACTORS
330
402
102
}
330
402
100
AcDbXrecord
280
     1
102
RTVSPropertyOp0
 70
     1
102
RTVSPropertyOp1
 70
     1
102
RTVSPropertyOp2
 70
     1
102
RTVSPropertyOp3
 70
     1
102
RTVSPropertyOp4
 70
     1
102
RTVSPropertyOp5
 70
     1
102
RTVSPropertyOp6
 70
     1
102
RTVSPropertyOp7
 70
     1
102
RTVSPropertyOp8
 70
     1
102
RTVSPropertyOp9
 70
     1
102
RTVSPropertyOp10
 70
     1
102
RTVSPropertyOp11
 70
     1
102
RTVSPropertyOp12
 70
     1
102
RTVSPropertyOp13
 70
     1
102
RTVSPropertyOp14
 70
     1
102
RTVSPropertyOp15
 70
     1
102
RTVSPropertyOp16
 70
     1
102
RTVSPropertyOp17
 70
     1
102
RTVSPropertyOp18
 70
     1
102
RTVSPropertyOp19
 70
     1
102
RTVSPropertyOp20
 70
     1
102
RTVSPropertyOp21
 70
     1
102
RTVSPropertyOp22
 70
     1
102
RTVSPropertyOp23
 70
     1
102
RTVSPropertyOp24
 70
     1
102
RTVSPropertyOp25
 70
     1
102
RTVSPropertyOp26
 70
     1
102
RTVSPropertyOp27
 70
     1
102
RTVSPropertyOp28
 70
     1
102
RTVSPropertyOp29
 70
     1
102
RTVSPropertyOp30
 70
     1
102
RTVSPropertyOp31
 70
     1
102
RTVSPropertyOp32
 70
     1
102
RTVSPropertyOp33
 70
     1
102
RTVSPropertyOp34
 70
     1
102
RTVSPropertyOp35
 70
     1
102
RTVSPropertyOp36
 70
     1
102
RTVSPropertyOp37
 70
     1
102
RTVSPropertyOp38
 70
     1
102
RTVSPropertyOp39
 70
     1
102
RTVSPropertyOp40
 70
     1
102
RTVSPropertyOp41
 70
     1
102
RTVSPropertyOp42
 70
     1
102
RTVSPropertyOp43
 70
     1
102
RTVSPropertyOp44
 70
     1
102
RTVSPropertyOp45
 70
     1
102
RTVSPropertyOp46
 70
     1
102
RTVSPropertyOp47
 70
     1
102
RTVSPropertyOp48
 70
     1
102
RTVSPropertyOp49
 70
     1
102
RTVSPropertyOp50
 70
     1
102
RTVSPropertyOp51
 70
     0
102
RTVSPropertyOp52
 70
     0
102
RTVSPropertyOp53
 70
     1
102
RTVSPropertyOp54
 70
     1
102
RTVSPropertyOp55
 70
     1
102
RTVSPropertyOp56
 70
     1
102
RTVSPropertyOp57
 70
     1
102
RTVSPost2010Prop28
280
     0
102
RTVSPost2010PropOp28
 70
     1
102
RTVSPost2010Prop29
280
     1
102
RTVSPost2010PropOp29
 70
     1
102
RTVSPost2010Prop30
280
     1
102
RTVSPost2010PropOp30
 70
     1
102
RTVSPost2010Prop31
280
     0
102
RTVSPost2010PropOp31
 70
     1
102
RTVSPost2010Prop32
280
     0
102
RTVSPost2010PropOp32
 70
     1
102
RTVSPost2010Prop33
280
     0
102
RTVSPost2010PropOp33
 70
     1
102
RTVSPost2010Prop34
280
     0
102
RTVSPost2010PropOp34
 70
     1
102
RTVSPost2010Prop35
280
     0
102
RTVSPost2010PropOp35
 70
     1
102
RTVSPost2010Prop36
280
     0
102
RTVSPost2010PropOp36
 70
     1
102
RTVSPost2010Prop37
 90
       50
102
RTVSPost2010PropOp37
 70
     1
102
RTVSPost2010Prop38
140
0.0
102
RTVSPost2010PropOp38
 70
     1
102
RTVSPost2010Prop39
140
1.0
102
RTVSPost2010PropOp39
 70
     1
102
RTVSPost2010Prop40
 90
        0
102
RTVSPost2010PropOp40
 70
     1
102
RTVSPost2010Prop41ColorIndex
 90
       18
102
RTVSPost2010Prop41ColorRGB
 90
        0
102
RTVSPost2010PropOp41
 70
     1
102
RTVSPost2010Prop42
 90
       50
102
RTVSPost2010PropOp42
 70
     1
102
RTVSPost2010Prop43
 90
        3
102
RTVSPost2010PropOp43
 70
     1
102
RTVSPost2010Prop44ColorIndex
 90
        5
102
RTVSPost2010Prop44ColorRGB
 90
      255
102
RTVSPost2010PropOp44
 70
     1
102
RTVSPost2010Prop45
280
     0
102
RTVSPost2010PropOp45
 70
     1
102
RTVSPost2010Prop46
 90
       50
102
RTVSPost2010PropOp46
 70
     1
102
RTVSPost2010Prop47
 90
       50
102
RTVSPost2010PropOp47
 70
     1
102
RTVSPost2010Prop48
 90
       50
102
RTVSPost2010PropOp48
 70
     1
102
RTVSPost2010Prop49
280
     0
102
RTVSPost2010PropOp49
 70
     1
102
RTVSPost2010Prop50
 90
       50
102
RTVSPost2010PropOp50
 70
     1
102
RTVSPost2010Prop51ColorIndex
 90
      256
102
RTVSPost2010Prop51ColorRGB
 90
-16777216
102
RTVSPost2010PropOp51
 70
     0
102
RTVSPost2010Prop52
140
1.0
102
RTVSPost2010PropOp52
 70
     0
102
RTVSPost2010Prop53
 90
        2
102
RTVSPost2010PropOp53
 70
     1
102
RTVSPost2010Prop54
  1
strokes_ogs.tif
102
RTVSPost2010PropOp54
 70
     1
102
RTVSPost2010Prop55
280
     0
102
RTVSPost2010PropOp55
 70
     1
102
RTVSPost2010Prop56
140
1.0
102
RTVSPost2010PropOp56
 70
     1
102
RTVSPost2010Prop57
140
1.0
102
RTVSPost2010PropOp57
 70
     1
  0
XRECORD
  5
405
102
{ACAD_REACTORS
330
404
102
}
330
404
100
AcDbXrecord
280
     1
102
RTVSPropertyOp0
 70
     1
102
RTVSPropertyOp1
 70
     1
102
RTVSPropertyOp2
 70
     1
102
RTVSPropertyOp3
 70
     1
102
RTVSPropertyOp4
 70
     1
102
RTVSPropertyOp5
 70
     1
102
RTVSPropertyOp6
 70
     1
102
RTVSPropertyOp7
 70
     1
102
RTVSPropertyOp8
 70
     1
102
RTVSPropertyOp9
 70
     1
102
RTVSPropertyOp10
 70
     1
102
RTVSPropertyOp11
 70
     1
102
RTVSPropertyOp12
 70
     1
102
RTVSPropertyOp13
 70
     1
102
RTVSPropertyOp14
 70
     1
102
RTVSPropertyOp15
 70
     1
102
RTVSPropertyOp16
 70
     1
102
RTVSPropertyOp17
 70
     1
102
RTVSPropertyOp18
 70
     1
102
RTVSPropertyOp19
 70
     1
102
RTVSPropertyOp20
 70
     1
102
RTVSPropertyOp21
 70
     1
102
RTVSPropertyOp22
 70
     1
102
RTVSPropertyOp23
 70
     1
102
RTVSPropertyOp24
 70
     1
102
RTVSPropertyOp25
 70
     1
102
RTVSPropertyOp26
 70
     1
102
RTVSPropertyOp27
 70
     1
102
RTVSPropertyOp28
 70
     1
102
RTVSPropertyOp29
 70
     1
102
RTVSPropertyOp30
 70
     1
102
RTVSPropertyOp31
 70
     1
102
RTVSPropertyOp32
 70
     1
102
RTVSPropertyOp33
 70
     1
102
RTVSPropertyOp34
 70
     1
102
RTVSPropertyOp35
 70
     1
102
RTVSPropertyOp36
 70
     1
102
RTVSPropertyOp37
 70
     1
102
RTVSPropertyOp38
 70
     1
102
RTVSPropertyOp39
 70
     1
102
RTVSPropertyOp40
 70
     1
102
RTVSPropertyOp41
 70
     1
102
RTVSPropertyOp42
 70
     1
102
RTVSPropertyOp43
 70
     1
102
RTVSPropertyOp44
 70
     1
102
RTVSPropertyOp45
 70
     1
102
RTVSPropertyOp46
 70
     1
102
RTVSPropertyOp47
 70
     1
102
RTVSPropertyOp48
 70
     1
102
RTVSPropertyOp49
 70
     1
102
RTVSPropertyOp50
 70
     1
102
RTVSPropertyOp51
 70
     0
102
RTVSPropertyOp52
 70
     0
102
RTVSPropertyOp53
 70
     1
102
RTVSPropertyOp54
 70
     1
102
RTVSPropertyOp55
 70
     1
102
RTVSPropertyOp56
 70
     1
102
RTVSPropertyOp57
 70
     1
102
RTVSPost2010Prop28
280
     0
102
RTVSPost2010PropOp28
 70
     1
102
RTVSPost2010Prop29
280
     1
102
RTVSPost2010PropOp29
 70
     1
102
RTVSPost2010Prop30
280
     1
102
RTVSPost2010PropOp30
 70
     1
102
RTVSPost2010Prop31
280
     0
102
RTVSPost2010PropOp31
 70
     1
102
RTVSPost2010Prop32
280
     0
102
RTVSPost2010PropOp32
 70
     1
102
RTVSPost2010Prop33
280
     0
102
RTVSPost2010PropOp33
 70
     1
102
RTVSPost2010Prop34
280
     0
102
RTVSPost2010PropOp34
 70
     1
102
RTVSPost2010Prop35
280
     0
102
RTVSPost2010PropOp35
 70
     1
102
RTVSPost2010Prop36
280
     0
102
RTVSPost2010PropOp36
 70
     1
102
RTVSPost2010Prop37
 90
       50
102
RTVSPost2010PropOp37
 70
     1
102
RTVSPost2010Prop38
140
0.0
102
RTVSPost2010PropOp38
 70
     1
102
RTVSPost2010Prop39
140
1.0
102
RTVSPost2010PropOp39
 70
     1
102
RTVSPost2010Prop40
 90
        0
102
RTVSPost2010PropOp40
 70
     1
102
RTVSPost2010Prop41ColorIndex
 90
       18
102
RTVSPost2010Prop41ColorRGB
 90
        0
102
RTVSPost2010PropOp41
 70
     1
102
RTVSPost2010Prop42
 90
       50
102
RTVSPost2010PropOp42
 70
     1
102
RTVSPost2010Prop43
 90
        3
102
RTVSPost2010PropOp43
 70
     1
102
RTVSPost2010Prop44ColorIndex
 90
        5
102
RTVSPost2010Prop44ColorRGB
 90
      255
102
RTVSPost2010PropOp44
 70
     1
102
RTVSPost2010Prop45
280
     0
102
RTVSPost2010PropOp45
 70
     1
102
RTVSPost2010Prop46
 90
       50
102
RTVSPost2010PropOp46
 70
     1
102
RTVSPost2010Prop47
 90
       50
102
RTVSPost2010PropOp47
 70
     1
102
RTVSPost2010Prop48
 90
       50
102
RTVSPost2010PropOp48
 70
     1
102
RTVSPost2010Prop49
280
     0
102
RTVSPost2010PropOp49
 70
     1
102
RTVSPost2010Prop50
 90
       50
102
RTVSPost2010PropOp50
 70
     1
102
RTVSPost2010Prop51ColorIndex
 90
      256
102
RTVSPost2010Prop51ColorRGB
 90
-16777216
102
RTVSPost2010PropOp51
 70
     0
102
RTVSPost2010Prop52
140
1.0
102
RTVSPost2010PropOp52
 70
     0
102
RTVSPost2010Prop53
 90
        2
102
RTVSPost2010PropOp53
 70
     1
102
RTVSPost2010Prop54
  1
strokes_ogs.tif
102
RTVSPost2010PropOp54
 70
     1
102
RTVSPost2010Prop55
280
     0
102
RTVSPost2010PropOp55
 70
     1
102
RTVSPost2010Prop56
140
1.0
102
RTVSPost2010PropOp56
 70
     1
102
RTVSPost2010Prop57
140
1.0
102
RTVSPost2010PropOp57
 70
     1
  0
XRECORD
  5
407
102
{ACAD_REACTORS
330
406
102
}
330
406
100
AcDbXrecord
280
     1
102
RTVSPropertyOp0
 70
     1
102
RTVSPropertyOp1
 70
     1
102
RTVSPropertyOp2
 70
     1
102
RTVSPropertyOp3
 70
     1
102
RTVSPropertyOp4
 70
     1
102
RTVSPropertyOp5
 70
     1
102
RTVSPropertyOp6
 70
     1
102
RTVSPropertyOp7
 70
     1
102
RTVSPropertyOp8
 70
     1
102
RTVSPropertyOp9
 70
     1
102
RTVSPropertyOp10
 70
     1
102
RTVSPropertyOp11
 70
     1
102
RTVSPropertyOp12
 70
     1
102
RTVSPropertyOp13
 70
     1
102
RTVSPropertyOp14
 70
     1
102
RTVSPropertyOp15
 70
     1
102
RTVSPropertyOp16
 70
     1
102
RTVSPropertyOp17
 70
     1
102
RTVSPropertyOp18
 70
     1
102
RTVSPropertyOp19
 70
     1
102
RTVSPropertyOp20
 70
     1
102
RTVSPropertyOp21
 70
     1
102
RTVSPropertyOp22
 70
     1
102
RTVSPropertyOp23
 70
     1
102
RTVSPropertyOp24
 70
     1
102
RTVSPropertyOp25
 70
     1
102
RTVSPropertyOp26
 70
     1
102
RTVSPropertyOp27
 70
     1
102
RTVSPropertyOp28
 70
     1
102
RTVSPropertyOp29
 70
     1
102
RTVSPropertyOp30
 70
     1
102
RTVSPropertyOp31
 70
     1
102
RTVSPropertyOp32
 70
     1
102
RTVSPropertyOp33
 70
     1
102
RTVSPropertyOp34
 70
     1
102
RTVSPropertyOp35
 70
     1
102
RTVSPropertyOp36
 70
     1
102
RTVSPropertyOp37
 70
     1
102
RTVSPropertyOp38
 70
     1
102
RTVSPropertyOp39
 70
     1
102
RTVSPropertyOp40
 70
     1
102
RTVSPropertyOp41
 70
     1
102
RTVSPropertyOp42
 70
     1
102
RTVSPropertyOp43
 70
     1
102
RTVSPropertyOp44
 70
     1
102
RTVSPropertyOp45
 70
     1
102
RTVSPropertyOp46
 70
     1
102
RTVSPropertyOp47
 70
     1
102
RTVSPropertyOp48
 70
     1
102
RTVSPropertyOp49
 70
     1
102
RTVSPropertyOp50
 70
     1
102
RTVSPropertyOp51
 70
     0
102
RTVSPropertyOp52
 70
     0
102
RTVSPropertyOp53
 70
     1
102
RTVSPropertyOp54
 70
     1
102
RTVSPropertyOp55
 70
     1
102
RTVSPropertyOp56
 70
     1
102
RTVSPropertyOp57
 70
     1
102
RTVSPost2010Prop28
280
     0
102
RTVSPost2010PropOp28
 70
     1
102
RTVSPost2010Prop29
280
     1
102
RTVSPost2010PropOp29
 70
     1
102
RTVSPost2010Prop30
280
     1
102
RTVSPost2010PropOp30
 70
     1
102
RTVSPost2010Prop31
280
     0
102
RTVSPost2010PropOp31
 70
     1
102
RTVSPost2010Prop32
280
     0
102
RTVSPost2010PropOp32
 70
     1
102
RTVSPost2010Prop33
280
     0
102
RTVSPost2010PropOp33
 70
     1
102
RTVSPost2010Prop34
280
     0
102
RTVSPost2010PropOp34
 70
     1
102
RTVSPost2010Prop35
280
     0
102
RTVSPost2010PropOp35
 70
     1
102
RTVSPost2010Prop36
280
     0
102
RTVSPost2010PropOp36
 70
     1
102
RTVSPost2010Prop37
 90
       50
102
RTVSPost2010PropOp37
 70
     1
102
RTVSPost2010Prop38
140
0.0
102
RTVSPost2010PropOp38
 70
     1
102
RTVSPost2010Prop39
140
1.0
102
RTVSPost2010PropOp39
 70
     1
102
RTVSPost2010Prop40
 90
        0
102
RTVSPost2010PropOp40
 70
     1
102
RTVSPost2010Prop41ColorIndex
 90
       18
102
RTVSPost2010Prop41ColorRGB
 90
        0
102
RTVSPost2010PropOp41
 70
     1
102
RTVSPost2010Prop42
 90
       50
102
RTVSPost2010PropOp42
 70
     1
102
RTVSPost2010Prop43
 90
        3
102
RTVSPost2010PropOp43
 70
     1
102
RTVSPost2010Prop44ColorIndex
 90
        5
102
RTVSPost2010Prop44ColorRGB
 90
      255
102
RTVSPost2010PropOp44
 70
     1
102
RTVSPost2010Prop45
280
     0
102
RTVSPost2010PropOp45
 70
     1
102
RTVSPost2010Prop46
 90
       50
102
RTVSPost2010PropOp46
 70
     1
102
RTVSPost2010Prop47
 90
       50
102
RTVSPost2010PropOp47
 70
     1
102
RTVSPost2010Prop48
 90
       50
102
RTVSPost2010PropOp48
 70
     1
102
RTVSPost2010Prop49
280
     0
102
RTVSPost2010PropOp49
 70
     1
102
RTVSPost2010Prop50
 90
       50
102
RTVSPost2010PropOp50
 70
     1
102
RTVSPost2010Prop51ColorIndex
 90
      256
102
RTVSPost2010Prop51ColorRGB
 90
-16777216
102
RTVSPost2010PropOp51
 70
     0
102
RTVSPost2010Prop52
140
1.0
102
RTVSPost2010PropOp52
 70
     0
102
RTVSPost2010Prop53
 90
        2
102
RTVSPost2010PropOp53
 70
     1
102
RTVSPost2010Prop54
  1
strokes_ogs.tif
102
RTVSPost2010PropOp54
 70
     1
102
RTVSPost2010Prop55
280
     0
102
RTVSPost2010PropOp55
 70
     1
102
RTVSPost2010Prop56
140
1.0
102
RTVSPost2010PropOp56
 70
     1
102
RTVSPost2010Prop57
140
1.0
102
RTVSPost2010PropOp57
 70
     1
  0
XRECORD
  5
409
102
{ACAD_REACTORS
330
408
102
}
330
408
100
AcDbXrecord
280
     1
102
RTVSPropertyOp0
 70
     1
102
RTVSPropertyOp1
 70
     1
102
RTVSPropertyOp2
 70
     1
102
RTVSPropertyOp3
 70
     1
102
RTVSPropertyOp4
 70
     1
102
RTVSPropertyOp5
 70
     1
102
RTVSPropertyOp6
 70
     1
102
RTVSPropertyOp7
 70
     1
102
RTVSPropertyOp8
 70
     1
102
RTVSPropertyOp9
 70
     1
102
RTVSPropertyOp10
 70
     1
102
RTVSPropertyOp11
 70
     1
102
RTVSPropertyOp12
 70
     1
102
RTVSPropertyOp13
 70
     1
102
RTVSPropertyOp14
 70
     1
102
RTVSPropertyOp15
 70
     1
102
RTVSPropertyOp16
 70
     1
102
RTVSPropertyOp17
 70
     1
102
RTVSPropertyOp18
 70
     1
102
RTVSPropertyOp19
 70
     1
102
RTVSPropertyOp20
 70
     1
102
RTVSPropertyOp21
 70
     1
102
RTVSPropertyOp22
 70
     1
102
RTVSPropertyOp23
 70
     1
102
RTVSPropertyOp24
 70
     1
102
RTVSPropertyOp25
 70
     1
102
RTVSPropertyOp26
 70
     1
102
RTVSPropertyOp27
 70
     1
102
RTVSPropertyOp28
 70
     1
102
RTVSPropertyOp29
 70
     1
102
RTVSPropertyOp30
 70
     1
102
RTVSPropertyOp31
 70
     1
102
RTVSPropertyOp32
 70
     1
102
RTVSPropertyOp33
 70
     1
102
RTVSPropertyOp34
 70
     1
102
RTVSPropertyOp35
 70
     1
102
RTVSPropertyOp36
 70
     1
102
RTVSPropertyOp37
 70
     1
102
RTVSPropertyOp38
 70
     1
102
RTVSPropertyOp39
 70
     1
102
RTVSPropertyOp40
 70
     1
102
RTVSPropertyOp41
 70
     1
102
RTVSPropertyOp42
 70
     1
102
RTVSPropertyOp43
 70
     1
102
RTVSPropertyOp44
 70
     1
102
RTVSPropertyOp45
 70
     1
102
RTVSPropertyOp46
 70
     1
102
RTVSPropertyOp47
 70
     1
102
RTVSPropertyOp48
 70
     1
102
RTVSPropertyOp49
 70
     1
102
RTVSPropertyOp50
 70
     1
102
RTVSPropertyOp51
 70
     0
102
RTVSPropertyOp52
 70
     0
102
RTVSPropertyOp53
 70
     1
102
RTVSPropertyOp54
 70
     1
102
RTVSPropertyOp55
 70
     1
102
RTVSPropertyOp56
 70
     1
102
RTVSPropertyOp57
 70
     1
102
RTVSPost2010Prop28
280
     0
102
RTVSPost2010PropOp28
 70
     1
102
RTVSPost2010Prop29
280
     1
102
RTVSPost2010PropOp29
 70
     1
102
RTVSPost2010Prop30
280
     1
102
RTVSPost2010PropOp30
 70
     1
102
RTVSPost2010Prop31
280
     0
102
RTVSPost2010PropOp31
 70
     1
102
RTVSPost2010Prop32
280
     0
102
RTVSPost2010PropOp32
 70
     1
102
RTVSPost2010Prop33
280
     0
102
RTVSPost2010PropOp33
 70
     1
102
RTVSPost2010Prop34
280
     0
102
RTVSPost2010PropOp34
 70
     1
102
RTVSPost2010Prop35
280
     0
102
RTVSPost2010PropOp35
 70
     1
102
RTVSPost2010Prop36
280
     0
102
RTVSPost2010PropOp36
 70
     1
102
RTVSPost2010Prop37
 90
       50
102
RTVSPost2010PropOp37
 70
     1
102
RTVSPost2010Prop38
140
0.0
102
RTVSPost2010PropOp38
 70
     1
102
RTVSPost2010Prop39
140
1.0
102
RTVSPost2010PropOp39
 70
     1
102
RTVSPost2010Prop40
 90
        0
102
RTVSPost2010PropOp40
 70
     1
102
RTVSPost2010Prop41ColorIndex
 90
       18
102
RTVSPost2010Prop41ColorRGB
 90
        0
102
RTVSPost2010PropOp41
 70
     1
102
RTVSPost2010Prop42
 90
       50
102
RTVSPost2010PropOp42
 70
     1
102
RTVSPost2010Prop43
 90
        3
102
RTVSPost2010PropOp43
 70
     1
102
RTVSPost2010Prop44ColorIndex
 90
        5
102
RTVSPost2010Prop44ColorRGB
 90
      255
102
RTVSPost2010PropOp44
 70
     1
102
RTVSPost2010Prop45
280
     0
102
RTVSPost2010PropOp45
 70
     1
102
RTVSPost2010Prop46
 90
       50
102
RTVSPost2010PropOp46
 70
     1
102
RTVSPost2010Prop47
 90
       50
102
RTVSPost2010PropOp47
 70
     1
102
RTVSPost2010Prop48
 90
       50
102
RTVSPost2010PropOp48
 70
     1
102
RTVSPost2010Prop49
280
     0
102
RTVSPost2010PropOp49
 70
     1
102
RTVSPost2010Prop50
 90
       50
102
RTVSPost2010PropOp50
 70
     1
102
RTVSPost2010Prop51ColorIndex
 90
      256
102
RTVSPost2010Prop51ColorRGB
 90
-16777216
102
RTVSPost2010PropOp51
 70
     0
102
RTVSPost2010Prop52
140
1.0
102
RTVSPost2010PropOp52
 70
     0
102
RTVSPost2010Prop53
 90
        2
102
RTVSPost2010PropOp53
 70
     1
102
RTVSPost2010Prop54
  1
strokes_ogs.tif
102
RTVSPost2010PropOp54
 70
     1
102
RTVSPost2010Prop55
280
     0
102
RTVSPost2010PropOp55
 70
     1
102
RTVSPost2010Prop56
140
1.0
102
RTVSPost2010PropOp56
 70
     1
102
RTVSPost2010Prop57
140
1.0
102
RTVSPost2010PropOp57
 70
     1
  0
XRECORD
  5
40B
102
{ACAD_REACTORS
330
40A
102
}
330
40A
100
AcDbXrecord
280
     1
102
RTVSPropertyOp0
 70
     1
102
RTVSPropertyOp1
 70
     1
102
RTVSPropertyOp2
 70
     1
102
RTVSPropertyOp3
 70
     1
102
RTVSPropertyOp4
 70
     1
102
RTVSPropertyOp5
 70
     1
102
RTVSPropertyOp6
 70
     1
102
RTVSPropertyOp7
 70
     1
102
RTVSPropertyOp8
 70
     1
102
RTVSPropertyOp9
 70
     1
102
RTVSPropertyOp10
 70
     1
102
RTVSPropertyOp11
 70
     1
102
RTVSPropertyOp12
 70
     1
102
RTVSPropertyOp13
 70
     1
102
RTVSPropertyOp14
 70
     1
102
RTVSPropertyOp15
 70
     1
102
RTVSPropertyOp16
 70
     1
102
RTVSPropertyOp17
 70
     1
102
RTVSPropertyOp18
 70
     1
102
RTVSPropertyOp19
 70
     1
102
RTVSPropertyOp20
 70
     1
102
RTVSPropertyOp21
 70
     1
102
RTVSPropertyOp22
 70
     1
102
RTVSPropertyOp23
 70
     1
102
RTVSPropertyOp24
 70
     1
102
RTVSPropertyOp25
 70
     1
102
RTVSPropertyOp26
 70
     1
102
RTVSPropertyOp27
 70
     1
102
RTVSPropertyOp28
 70
     1
102
RTVSPropertyOp29
 70
     1
102
RTVSPropertyOp30
 70
     1
102
RTVSPropertyOp31
 70
     1
102
RTVSPropertyOp32
 70
     1
102
RTVSPropertyOp33
 70
     1
102
RTVSPropertyOp34
 70
     1
102
RTVSPropertyOp35
 70
     1
102
RTVSPropertyOp36
 70
     1
102
RTVSPropertyOp37
 70
     1
102
RTVSPropertyOp38
 70
     1
102
RTVSPropertyOp39
 70
     1
102
RTVSPropertyOp40
 70
     1
102
RTVSPropertyOp41
 70
     1
102
RTVSPropertyOp42
 70
     1
102
RTVSPropertyOp43
 70
     1
102
RTVSPropertyOp44
 70
     1
102
RTVSPropertyOp45
 70
     1
102
RTVSPropertyOp46
 70
     1
102
RTVSPropertyOp47
 70
     1
102
RTVSPropertyOp48
 70
     1
102
RTVSPropertyOp49
 70
     1
102
RTVSPropertyOp50
 70
     1
102
RTVSPropertyOp51
 70
     0
102
RTVSPropertyOp52
 70
     0
102
RTVSPropertyOp53
 70
     1
102
RTVSPropertyOp54
 70
     1
102
RTVSPropertyOp55
 70
     1
102
RTVSPropertyOp56
 70
     1
102
RTVSPropertyOp57
 70
     1
102
RTVSPost2010Prop28
280
     0
102
RTVSPost2010PropOp28
 70
     1
102
RTVSPost2010Prop29
280
     1
102
RTVSPost2010PropOp29
 70
     1
102
RTVSPost2010Prop30
280
     1
102
RTVSPost2010PropOp30
 70
     1
102
RTVSPost2010Prop31
280
     0
102
RTVSPost2010PropOp31
 70
     1
102
RTVSPost2010Prop32
280
     0
102
RTVSPost2010PropOp32
 70
     1
102
RTVSPost2010Prop33
280
     0
102
RTVSPost2010PropOp33
 70
     1
102
RTVSPost2010Prop34
280
     0
102
RTVSPost2010PropOp34
 70
     1
102
RTVSPost2010Prop35
280
     0
102
RTVSPost2010PropOp35
 70
     1
102
RTVSPost2010Prop36
280
     0
102
RTVSPost2010PropOp36
 70
     1
102
RTVSPost2010Prop37
 90
       50
102
RTVSPost2010PropOp37
 70
     1
102
RTVSPost2010Prop38
140
0.0
102
RTVSPost2010PropOp38
 70
     1
102
RTVSPost2010Prop39
140
1.0
102
RTVSPost2010PropOp39
 70
     1
102
RTVSPost2010Prop40
 90
        0
102
RTVSPost2010PropOp40
 70
     1
102
RTVSPost2010Prop41ColorIndex
 90
       18
102
RTVSPost2010Prop41ColorRGB
 90
        0
102
RTVSPost2010PropOp41
 70
     1
102
RTVSPost2010Prop42
 90
       50
102
RTVSPost2010PropOp42
 70
     1
102
RTVSPost2010Prop43
 90
        3
102
RTVSPost2010PropOp43
 70
     1
102
RTVSPost2010Prop44ColorIndex
 90
        5
102
RTVSPost2010Prop44ColorRGB
 90
      255
102
RTVSPost2010PropOp44
 70
     1
102
RTVSPost2010Prop45
280
     0
102
RTVSPost2010PropOp45
 70
     1
102
RTVSPost2010Prop46
 90
       50
102
RTVSPost2010PropOp46
 70
     1
102
RTVSPost2010Prop47
 90
       50
102
RTVSPost2010PropOp47
 70
     1
102
RTVSPost2010Prop48
 90
       50
102
RTVSPost2010PropOp48
 70
     1
102
RTVSPost2010Prop49
280
     0
102
RTVSPost2010PropOp49
 70
     1
102
RTVSPost2010Prop50
 90
       50
102
RTVSPost2010PropOp50
 70
     1
102
RTVSPost2010Prop51ColorIndex
 90
      256
102
RTVSPost2010Prop51ColorRGB
 90
-16777216
102
RTVSPost2010PropOp51
 70
     0
102
RTVSPost2010Prop52
140
1.0
102
RTVSPost2010PropOp52
 70
     0
102
RTVSPost2010Prop53
 90
        2
102
RTVSPost2010PropOp53
 70
     1
102
RTVSPost2010Prop54
  1
strokes_ogs.tif
102
RTVSPost2010PropOp54
 70
     1
102
RTVSPost2010Prop55
280
     0
102
RTVSPost2010PropOp55
 70
     1
102
RTVSPost2010Prop56
140
1.0
102
RTVSPost2010PropOp56
 70
     1
102
RTVSPost2010Prop57
140
1.0
102
RTVSPost2010PropOp57
 70
     1
  0
ENDSEC
  0
SECTION
  2
THUMBNAILIMAGE
 90
    19832
310
28000000B8000000660000000100080000000000504900000100000001000000000100000000000000000054FFFFFF80000000000000000000000000000000000000000000000000000000000000000000000000330000006600000099000000CC000000FF00000000330000333300006633000099330000CC330000FF3300
310
0000660000336600006666000099660000CC660000FF66000000990000339900006699000099990000CC990000FF99000000CC000033CC000066CC000099CC0000CCCC0000FFCC000000FF000033FF000066FF000099FF0000CCFF0000FFFF000000003300330033006600330099003300CC003300FF003300003333003333
310
33006633330099333300CC333300FF33330000663300336633006666330099663300CC663300FF66330000993300339933006699330099993370CC993330FF99330100CC331233CC335466CC335399CC336FCCCC3374FFCC333000FF333033FF337266FF337099FF3331CCFF3300FFFF330000006600330066006600660099
310
006600CC006600FF00660000336600333366006633660099336600CC336600FF33660000666600336666006666660099666600CC666600FF66660000996600339966006699660099996666CC996652FF99665600CC665033CC667366CC663299CC6631CCCC6650FFCC666F00FF664F33FF663366FF664699FF6666CCFF6652
310
FFFF665600009950330099736600993299009931CC009950FF00996F00339933333399186633990099339900CC339900FF33990000669900336699006666990099669900CC669900FF66990000999900339999006699990399999900CC999954FF99998000CC990033CC990066CC990099CC9900CCCC9900FFCC990000FF99
310
0033FF990066FF990099FF9900CCFF9900FFFF99000000CC003300CC006600CC009900CC00CC00CC00FF00CC000033CC003333CC006633CC009933CC00CC33CC00FF33CC000066CC003366CC006666CC009966CC00CC66CC00FF66CC000099CC003399CC006699CC009999CC00CC99CC00FF99CC0000CCCC0033CCCC0066CC
310
CC0099CCCC00CCCCCC00FFCCCC0000FFCC0033FFCC0066FFCC0099FFCC00CCFFCC00FFFFCC000000FF003300FF006600FF009900FF00CC00FF00FF00FF000033FF003333FF006633FF009933FF00CC33FF00FF33FF000066FF003366FF006666FF009966FF00CC66FF00FF66FF000099FF1C3399FF006699FF1C9999FF00CC
310
99FF1CFF99FF0000CCFF1C33CCFF0066CCFF0099CCFF00CCCCFF00FFCCFF0000FFFF0033FFFF0066FFFF0099FFFF00CCFFFF00FFFFFF41000000410D0D0D001A1A1A3D2828283D3535350043434300505050425D5D5D416B6B6B00787878008686860093939300A1A1A179AEAEAE00BBBBBB00C9C9C900D6D6D600E4E4E400
310
F1F1F11CFFFFFF000000001C00000000000000000000000000000000000000000000000000000000000000000000000000000000000000000000000000000000000000000000000000000000000000000000000000000000000000000000000000000000000000000000000000000000000000000000000000000000000000
310
00000000000000000000F50000000000000000000000000000000000000000000000000000000000000000000000000000000000000000000000000000000000000000000000000000000000000000000000000000000000000000000000000000000000000000000000000000000000000000000000000000000000000000
310
00000000000000000000000000000000000000000000000000000000000000000000000000000000000000000000000000000000000000000000000000000000000000F50000000000000000000000000000000000000000000000000000000000000000000000000000000000000000000000000000000000000000000000
310
00000000000000000000000000000000000000000000000000000000000000000000000000000000000000000000000000000000000000000000000000000000000000000000000000000000000000000000000000000000000000000000000000000000000000000000000000000000000000000000000000000000F50000
310
00000000000000000000000000000000000000000000000000000000000000000000000000000000000000000000000000000000000000000000000000000000000000000000000000000000000000000000000000000000000000000000000000000000000000000000000000000000000000000000000000000000000000
310
000000000000000000000000000000000000000000000000000000000000000000000000000000000000000000000000000000000000F5000000000000000000000000000000000000000000000000000000000000000000000000000000000000000000000000000000000000000000000000000000000000000000000000
310
000000000000000000000000000000000000000000000000000000000000000000000000000000000000000000000000000000000000000000000000000000000000000000000000000000000000000000000000000000000000000000000000000000000000000000000000000000F5000000000000000000000000000000
310
00000000000000000000000000000000000000000000000000000000000000000000000000000000000000000000000000000000000000000000000000000000000000000000000000000000000000000000000000000000000000000000000000000000000000000000000000000000000000000000000000000000000000
310
0000000000000000000000000000000000000000000000000000000000000000000000000000000000F500000000000000000000000000000000000000000000000000000000000000000000000000000000000000000000000000000000000000000000000000000000000000000000000000000000000000000000000000
310
00000000000000000000000000000000000000000000000000000000000000000000000000000000000000000000000000000000000000000000000000000000000000000000F5F5F5F5F5F5F5F5F5F5F5F5F5F5F5F5F5F5F5F5F5F5F5F5F5F5F5F5F5F5F5F5F5F5F5F5F5F5F5F5F5F5F5F5F5F5F5F5F5F5F5F5F5F5F5F5F5
310
F5000000000000000000000000000000000000000000000000000000000000000000000000000000000000000000000000000000000000000000000000000000000000000000000000000000000000000000000000000000000000000000000000000000000000000000000000000000000000000000000000000000000000
310
F5000000000000F5F5000000000000000000000000000000000000000000F5000000000000000000F5F5F5F5F5F5F500000000000000000000F5000000000000000000000000000000000000000000000000000000000000000000000000000000000000000000000000000000000000000000000000000000000000000000
310
000000000000000000000000000000000000000000000000000000000000000000000000000000000000000000000000000000000000000000F50000F5F5F5F5F5F5F5F5F5F5F5F5F5F500000000000000000000000000F5F50000000000000000F5F5F5F5F5F5F500000000000000000000F5000000000000000000000000
310
000000000000000000000000000000000000000000000000000000000000000000000000000000000000000000000000000000000000000000000000000000000000000000000000000000000000000000000000000000000000000000000000000000000000000000000000000000000000F5F500F5F5F5F5F5F5F5F5F5F5
310
F5F5F50000000000000000000000000000F5F5F5F5F5F5F5F5F5F5F5F5F5F5F5F5F5F5F5F5F5F5F5F5F5F5F5F500000000000000000000000000000000000000000000000000000000000000000000000000000000000000000000000000000000000000000000000000000000000000000000000000000000000000000000
310
0000000000000000000000000000000000000000000000000000000000000000000000000000000000000000F5F5F5000000000000000000000000000000000000000000000000000000F50000000000000000000000000000000000000000000000000000F500000000000000000000000000000000000000000000000000
310
0000000000000000000000000000000000000000000000000000000000000000000000000000000000000000000000000000000000000000000000000000000000000000000000000000000000000000000000000000000000000000000000000000000000F5F5F5F5F5F5F5F5F5F5F5F5F5F5F5F5F5F5F5F5F5F5F5F5F5F5
310
F5F5F5F5F5F500000000000000F5F5F5F5F5F5F5F5F5000000000000000000F50000000000000000000000000000000000000000000000000000000000000000000000000000000000000000000000000000000000000000000000000000000000000000000000000000000000000000000000000000000000000000000000
310
00000000000000000000000000000000000000000000000000000000000000F5F5F500F50000F5F50000000000000000F5F5F5F5F500F5F500F5F50000F5F500000000000000F5F5F5F5F5F5F5F5F5000000000000000000F50000000000000000000000000000000000000000000000000000000000000000000000000000
310
00000000000000000000000000000000000000000000000000000000000000000000000000000000000000000000000000000000000000000000000000000000000000000000000000000000000000000000000000000000F5F5F500F50000F5F50000000000000000F5F5F5F5F500F5F500F5F50000F5F5F5F5F5F5F5F5F5
310
F5F5F5F5F5F5F5F5F5F5F5F5F5F5F5F5F5F5F5000000000000000000000000000000000000000000000000000000000000000000000000000000000000000000000000000000000000000000000000000000000000000000000000000000000000000000000000000000000000000000000000000000000000000000000000
310
000000000000000000000000000000000000F5F5F500F5F50000000000000000000000F5F500000000F5F5F500000000F50000000000000000000000000000000000000000000000000000F5000000000000000000000000000000000000000000000000000000000000000000000000000000000000000000000000000000
310
000000000000000000000000000000000000000000000000000000000000000000000000000000000000000000000000000000000000000000000000000000000000000000000000000000F5F5F5F5F5F5F5F5F5F5F5F5F5F5F5F5F5F5F5F5F5F5F5F5F5F5F5F5F5F5F5000000000000000000000000000000000000000000
310
0000000000F500000000000000000000000000000000000000000000000000000000000000000000000000000000000000000000000000000000000000000000000000000000000000000000000000000000000000000000000000000000000000000000000000000000000000000000000000000000000000000000000000
310
0000000000F500000000000000000000000000000000F50000000000F5000000000000F5F5F5F5F5F5F5F5F5F50000000000000000000000000000000000F500000000000000000000000000000000000000000000000000000000000000000000000000000000000000000000000000000000000000000000000000000000
310
0000000000000000000000000000000000000000000000000000000000000000000000000000000000000000000000000000000000000000000000000000F50000F5F5F5F500F5F5F5F5F5F5F5F500F500F5F5F5F5F500F5F5000000F500F5F5F5F5F5F5F5F50000000000000000000000000000000000F500000000000000
310
0000000000000000000000000000000000000000000000000000000000000000000000000000000000000000000000000000000000000000000000000000000000000000000000000000000000000000000000000000000000000000000000000000000000000000000000000000000000000000000000F50000F5F5F5F5F5
310
F5F5F5F5F5F5F5F500F5F5F5F5F5F5F5F5F500000000F5F500000000000000000000000000000000000000000000000000F50000000000000000000000000000000000000000000000000000000000000000000000000000000000000000000000000000000000000000000000000000000000000000000000000000000000
310
00000000000000000000000000000000000000000000000000000000000000000000000000000000000000000000000000F500000000000000000000000000000000F500F5000000F5F5F500000000F5F500000000000000000000000000000000000000000000000000F50000000000000000000000000000000000000000
310
00000000000000000000000000000000000000000000000000000000000000000000000000000000000000000000000000000000000000000000000000000000000000000000000000000000000000000000000000000000000000000000000000000000000000000000F5F5F5F5F5F5F5F5F5F5F5F5F5F5F5F5F5F5F5F5F5
310
F5F5F5F5F5F5F5F5F5F5F5F5F5F5F5F5F5F5F5F5F5F5F5F5F5F5F5F5F5F5F5F5F5F5F5F5F5000000000000000000000000000000000000000000000000000000000000000000000000000000000000000000000000000000000000000000000000000000000000000000000000000000000000000000000000000000000000
310
000000000000000000000000000000000000000000000000000000000000000000000000F5F5F5F5F5F500F5F5F5F5F5F5F5F5000000000000000000000000000000000000000000000000000000000000000000000000000000000000F5000000000000000000000000000000000000000000000000000000000000000000
310
000000000000000000000000000000000000000000000000000000000000000000000000000000000000000000000000000000000000000000000000000000000000000000000000000000000000000000000000000000000000000000F5F5F5F5F5F5F5F5F5F5F5F5F5F5F500000000000000000000000000000000000000
310
0000000000000000000000000000000000000000000000F500000000000000000000000000000000000000000000000000000000000000000000000000000000000000000000000000000000000000000000000000000000000000000000000000000000000000000000000000000000000000000000000000000000000000
310
0000000000000000000000000000000000000000000000F50000000000000000000000000000000000000000000000000000000000000000000000000000000000000000000000000000000000000000F500000000000000000000000000000000000000000000000000000000000000000000000000000000000000000000
310
0000000000000000000000000000000000000000000000000000000000000000000000000000000000000000000000000000000000000000000000000000000000000000000000000000000000000000F500000000000000000000000000000000000000000000000000000000000000000000000000000000000000000000
310
00000000000000000000F50000000000000000000000000000000000000000000000000000000000000000000000000000000000000000000000000000000000000000000000000000000000000000000000000000000000000000000000000000000000000000000000000000000000000000000000000000000000000000
310
00000000000000000000F50000000000000000000000000000000000000000000000000000000000000000000000000000000000000000000000000000000000000000F50000000000000000000000000000000000000000000000000000000000000000000000000000000000000000000000000000000000000000000000
310
00000000000000000000000000000000000000000000000000000000000000000000000000000000000000000000000000000000000000000000000000000000000000F50000000000000000000000000000000000000000000000000000000000000000000000000000000000000000000000000000000000000000F50000
310
00000000000000000000000000000000000000000000000000000000000000000000000000000000000000000000000000000000000000000000000000000000000000000000000000000000000000000000000000000000000000000000000000000000000000000000000000000000000000000000000000000000F50000
310
000000000000000000000000000000000000000000000000000000000000000000000000000000000000000000000000000000000000F5000000000000000000000000000000000000000000000000000000000000000000000000000000000000000000000000000000000000000000000000000000000000000000000000
310
000000000000000000000000000000000000000000000000000000000000000000000000000000000000000000000000000000000000F50000000000000000000000000000000000000000000000000000000000000000000000000000000000000000000000000000000000000000F5000000000000000000000000000000
310
000000000000000000000000000000000000000000000000000000000000000000000000000000000000000000000000000000000000000000000000000000000000000000000000000000000000000000000000000000000000000000000000000000000000000000000000000000F5000000000000000000000000000000
310
0000000000000000000000000000000000000000000000000000000000000000000000000000000000F500000000000000000000000000000000000000000000000000000000000000000000000000000000000000000000000000000000000000000000000000000000000000000000000000000000000000000000000000
310
0000000000000000000000000000000000000000000000000000000000000000000000000000000000F50000000000000000000000000000000000000000000000000000000000000000000000000000000000000000000000000000000000000000F500000000000000000000000000000000000000000000000000000000
310
0000000000000000000000000000000000000000000000000000000000000000000000000000000000000000000000000000000000000000000000000000000000000000000000000000000000000000000000000000000000000000000000000000F500000000000000000000000000000000000000000000000000000000
310
00000000000000000000000000000000000000000000000000000000F50000000000000000000000000000000000000000000000000000000000000000000000000000000000000000000000000000000000000000000000000000000000000000000000000000000000000000000000000000000000000000000000000000
310
00000000000000000000000000000000000000000000000000000000F50000000000000000000000000000000000000000000000000000000000000000000000000000000000000000000000000000000000000000F50000000000000000000000000000000000000000000000000000000000000000000000000000000000
310
00000000000000000000000000000000000000000000000000000000000000000000000000000000000000000000000000000000000000000000000000000000000000000000000000000000000000000000000000F50000000000000000000000000000000000000000000000000000000000000000000000000000000000
310
000000000000000000000000000000F5000000000000000000000000000000000000000000000000000000000000000000000000000000000000000000000000000000000000000000000000000000000000000000000000000000000000000000000000000000000000000000000000000000000000000000000000000000
310
000000000000000000000000000000F50000000000000000000000000000000000000000000000000000000000000000000000000000000000000000000000000000000000000000F5000000000000000000000000000000000000000000000000000000000000000000000000000000000000000000000000000000000000
310
000000000000000000000000000000000000000000000000000000000000000000000000000000000000000000000000000000000000000000000000000000000000000000000000F500000000F5000000F5F50000000000000000000000F5F500000000000000000000000000000000000000000000000000000000000000
310
0000F500000000000000000000000000000000000000000000000000000000000000000000000000000000000000000000000000000000000000000000000000000000000000000000000000000000000000000000000000000000000000000000000000000000000000000000000000000000000000000000000000000000
310
0000F5000000F5F5000000F5F5F5F5F5F5F5F5F5F5F5F5F5F5F5000000000000000000000000000000000000000000000000000000000000000000F500000000000000000000000000000000000000000000000000000000000000000000000000000000000000000000000000000000000000000000000000000000000000
310
0000000000000000000000000000000000000000000000000000000000000000000000000000000000000000000000000000000000000000000000F5000000F5F5000000F5F500000000F5F5F500000000F5F50000000000000000000000000000F5000000000000000000000000000000000000F500000000000000000000
310
0000000000000000000000000000000000000000000000000000000000000000000000000000000000000000000000000000000000000000000000000000000000000000000000000000000000000000000000000000000000000000000000000000000000000000000000000000000000000000F5000000F5F5000000F5F5
310
0000000000000000000000F5F50000000000000000000000000000F5000000000000000000000000000000000000F50000000000000000000000000000000000000000000000000000000000000000000000000000000000000000000000000000000000000000000000000000000000000000000000000000000000000000
310
00000000000000000000000000000000000000000000000000000000000000000000000000000000000000000000F500000000F5F5F5F5F5F5F5F5F5F5F5F5F5F5F5F5F5F5F5F5F5F500000000000000F5000000F5F50000000000000000000000000000000000F50000000000000000000000000000000000000000000000
310
00000000000000000000000000000000000000000000000000000000000000000000000000000000000000000000000000000000000000000000000000000000000000000000000000000000000000000000000000000000000000000000000000000000000000F500000000F5000000F5F5F500000000F50000000000F5F5
310
000000000000000000F5F5F50000F5F5F500F5F500000000000000000000000000F5000000000000000000000000000000000000000000000000000000000000000000000000000000000000000000000000000000000000000000000000000000000000000000000000000000000000000000000000000000000000000000
310
000000000000000000000000000000000000000000000000000000000000000000F500000000F5F5F5F5F5F5F5F5F5F5F5F5F5F5F5F5F5F5F5F5F5F5000000000000F5F5F5F5F5F5F5F5F5F5F5F5F5F5F5000000000000000000F5000000000000000000000000000000000000000000000000000000000000000000000000
310
000000000000000000000000000000000000000000000000000000000000000000000000000000000000000000000000000000000000000000000000000000000000000000000000000000000000000000000000000000000000F5000000F5F5000000F50000000000F5F500F500000000F5000000000000000000F5F5F5F5
310
F5F5F5F5F5F5F5F5F5F5F5F50000000000000000F500000000000000000000000000000000000000000000000000000000000000000000000000000000000000000000000000000000000000000000000000000000000000000000000000000000000000000000000000000000000000000000000000000000000000000000
310
0000000000000000000000000000000000000000F5000000F5F50000F50000000000F5F5F5F500F500000000F500000000000000F5F500000000F5F5F500F5F5F5F5F5F5F50000000000000000F500000000000000000000000000000000000000000000000000000000000000000000000000000000000000000000000000
310
0000000000000000000000000000000000000000000000000000000000000000000000000000000000000000000000000000000000000000000000000000000000000000000000000000000000F500000000F5F5F5F5F5F5F5F5F5F5F5F5F5F5F5F5F5F5F5F500000000000000F5F5F5F5F5F5F5F5F5F5F5F5F5F5F5F5F5F5
310
00000000000000F50000000000000000000000000000000000000000000000000000000000000000000000000000000000000000000000000000000000000000000000000000000000000000000000000000000000000000000000000000000000000000000000000000000000000000000000000000000000000000000000
310
00000000000000F5000000000000000000000000000000F50000000000000000000000000000000000000000000000F500F5F50000F5F500F500000000000000F50000000000000000000000000000000000000000000000000000000000000000000000000000000000000000000000000000000000000000000000000000
310
00000000000000000000000000000000000000000000000000000000000000000000000000000000000000000000000000000000000000000000000000000000F5000000000000000000000000000000000000000000000000000000000000000000000000000000000000F50000F5F5F5F500000000000000F50000000000
310
00000000000000000000000000000000000000000000000000000000000000000000000000000000000000000000000000000000000000000000000000000000000000000000000000000000000000000000000000000000000000000000000000000000000000000000000000000000000000000000000000F50000000000
310
00000000000000000000000000000000000000000000000000000000000000000000000000000000F5F5F5F500000000000000F5000000000000000000000000000000000000000000000000000000000000000000000000000000000000000000000000000000000000000000000000000000000000000000000000000000
310
000000000000000000000000000000000000000000000000000000000000000000000000000000000000000000000000000000F500000000000000000000000000000000000000000000000000000000000000000000000000000000000000000000F5F50000000000000000F5000000000000000000000000000000000000
310
000000000000000000000000000000000000000000000000000000000000000000000000000000000000000000000000000000000000000000000000000000000000000000000000000000000000000000000000000000000000000000000000000000000000000000000000F5000000000000000000000000000000000000
310
0000000000000000000000000000000000000000000000000000000000000000000000000000F500000000000000000000000000000000000000000000000000000000000000000000000000000000000000000000000000000000000000000000000000000000000000000000000000000000000000000000000000000000
310
00000000000000000000000000000000000000000000000000000000000000F5F5F5F5F5F5F5F50000000000000000000000000000000000000000000000000000000000000000000000000000000000000000000000000000000000000000F5F5F5F5F5F5F5F5000000000000000000000000000000000000000000000000
310
0000000000000000000000000000000000000000000000000000000000000000000000000000000000000000000000000000000000000000000000000000000000000000000000000000000000000000000000000000000000000000000000F500000000000000000000000000000000000000000000000000000000000000
310
00000000000000000000000000000000000000000000000000F50000000000000000000000000000000000000000000000000000000000000000000000000000000000000000000000000000000000000000000000000000000000000000000000000000000000000000000000000000000000000000000000000000000000
310
00000000000000000000000000000000000000000000000000F50000000000000000000000000000000000000000000000000000000000000000000000000000000000000000000000000000000000000000F50000000000000000000000000000000000000000000000000000000000000000000000000000000000000000
310
00000000000000000000000000000000000000000000000000000000000000000000000000000000000000000000000000000000000000000000000000000000000000000000000000000000000000000000F50000000000000000000000000000000000000000000000000000000000000000000000000000000000000000
310
000000000000000000000000F5000000000000000000000000000000000000000000000000000000000000000000000000000000000000000000000000000000000000000000000000000000000000000000000000000000000000000000000000000000000000000000000000000000000000000000000000000000000000
310
000000000000000000000000F50000000000000000000000000000000000000000000000000000000000000000000000000000000000000000000000000000000000000000F5000000000000000000000000000000000000000000000000000000000000000000000000000000000000000000000000000000000000000000
310
000000000000000000000000000000000000000000000000000000000000000000000000000000000000000000000000000000000000000000000000000000000000000000F50000000000000000000000000000000000000000000000000000000000000000000000000000000000000000000000000000000000000000F5
310
000000000000000000000000000000000000000000000000000000000000000000000000000000000000000000000000000000000000000000000000000000000000000000000000000000000000000000000000000000000000000000000000000000000000000000000000000000000000000000000000000000000000F5
310
00000000000000F5F5F5F5F5F5F5F5F5F5F5F5F5F5F5F5F50000000000000000000000000000000000000000000000000000000000000000F500000000000000000000000000000000000000000000000000000000000000000000000000000000000000000000000000000000000000000000000000000000000000000000
310
0000000000000000000000000000000000000000000000000000000000000000000000000000000000000000000000000000000000000000F500000000000000F5000000000000F5F5F5000000000000F5000000000000000000000000F5F5F5F5F5F5F5F5F5F500000000000000000000F500000000000000000000000000
310
0000000000000000000000000000000000000000000000000000000000000000000000000000000000000000000000000000000000000000000000000000000000000000000000000000000000000000000000000000000000000000000000000000000000000000000000000000000000F500000000000000F5F5F5F5F5F5
310
F5F5F5F5F5F5F5F5F5F5F500000000000000000000F5F5F5F5F5F5F5F5F5F5F50000000000000000000000F50000000000000000000000000000000000000000000000000000000000000000000000000000000000000000000000000000000000000000000000000000000000000000000000000000000000000000000000
310
00000000000000000000000000000000000000000000000000000000000000000000000000000000000000F500000000000000F5000000000000F5F5F5000000000000F500000000000000000000F5F5F5F5F5F5F5F5F5F5000000000000000000000000F50000000000000000000000000000000000000000000000000000
310
00000000000000000000000000000000000000000000000000000000000000000000000000000000000000000000000000000000000000000000000000000000000000000000000000000000000000000000000000000000000000000000000000000000F500000000000000F5000000000000F5F5F5000000000000F50000
310
0000000000000000F5F5F5F5F5F5F5F50000000000000000000000000000F5000000000000000000000000000000000000000000000000000000000000000000000000000000000000000000000000000000000000000000000000000000000000000000000000000000000000000000000000000000000000000000000000
310
000000000000000000000000000000000000000000000000000000000000F500000000000000F5000000000000F5F500000000000000F500000000000000000000000000F5F5F5F5F5F5F5000000000000000000000000F5000000000000000000000000000000000000000000000000000000000000000000000000000000
310
000000000000000000000000000000000000000000000000000000000000000000000000000000000000000000000000000000000000000000000000000000000000000000000000000000000000000000000000000000F500000000000000F500000000F5F5F5F5F5F5F500000000F500000000000000000000000000F5F5
310
F5F5F5F5F5000000000000000000000000F500000000000000000000000000000000000000000000000000000000000000000000000000000000000000000000000000000000000000000000000000000000000000000000000000000000000000000000000000000000000000000000000000000000000000000000000000
310
0000000000000000000000000000000000F500000000000000F50000F5F5F5F500F5F5F5F5F5000000F50000000000000000000000000000000000000000000000000000000000000000F500000000000000000000000000000000000000000000000000000000000000000000000000000000000000000000000000000000
310
0000000000000000000000000000000000000000000000000000000000000000000000000000000000000000000000000000000000000000000000000000000000000000000000000000F500000000000000F500F5F5F5000000F5000000F5F5F500F500000000000000000000F5F5F5F5F5F5F5F5F5F5F5F50000F5F5F5F5
310
00000000F50000000000000000000000000000000000000000000000000000000000000000000000000000000000000000000000000000000000000000000000000000000000000000000000000000000000000000000000000000000000000000000000000000000000000000000000000000000000000000000000000000
310
00000000F500000000000000F500F50000000000F50000000000F5F5F500000000000000000000F500F50000F50000F50000F500F5F5F5F50000000000F50000000000000000000000000000000000000000000000000000000000000000000000000000000000000000000000000000000000000000000000000000000000
310
00000000000000000000000000000000000000000000000000000000000000000000000000000000000000000000000000000000000000000000000000F500000000000000F5F5000000000000F5000000000000F5F500000000000000000000F500F5F5F5F50000F50000F5F500F5F5F50000000000F50000000000000000
310
00000000000000000000000000000000000000000000000000000000000000000000000000000000000000000000000000000000000000000000000000000000000000000000000000000000000000000000000000000000000000000000000000000000000000000000000000000000000000000000F500000000000000F5
310
00000000000000F500F5F5F5000000F500000000000000F5F5F5F500F5F5F5F5F5F5F50000F5F5F5F500000000000000F5000000000000000000000000000000000000000000000000000000000000000000000000000000000000000000000000000000000000000000000000000000000000000000000000000000000000
310
000000000000000000000000000000000000000000000000000000000000000000000000000000000000000000000000F500000000000000F500000000000000F5F5F5F5F5000000F500000000000000F5F500F5F5F500F5F5F5F500F500F500F5F500000000000000F5000000000000000000000000000000000000000000
310
000000000000000000000000000000000000000000000000000000000000000000000000000000000000000000000000000000000000000000000000000000000000000000000000000000000000000000000000000000000000000000000000000000000000000000F500000000000000F5F5F5F5F5F5F5F5F5F5F5F5F5F5
310
F5F5F5F5000000000000F5F5F5F5F5F5F5F5F5F5F5F5F5F5F5F5F5F5F5F5F5F5000000F500000000000000000000000000000000000000000000000000000000000000000000000000000000000000000000000000000000000000000000000000000000000000000000000000000000000000000000000000000000000000
310
0000000000000000000000000000000000000000000000000000000000000000000000F500000000000000F5000000000000F5F500000000000000F5000000000000000000F5F5F5F5F5F5F5F5F500F500F5F500F5F5F5F500000000F500000000000000000000000000000000000000000000000000000000000000000000
310
0000000000000000000000000000000000000000000000000000000000000000000000000000000000000000000000000000000000000000000000000000000000000000000000000000000000000000000000000000000000000000F500000000000000F500000000000000F500000000000000F500000000000000000000
310
F500F5F5F5F5F5F500F5F5F50000F5F5F5F500000000F50000000000000000000000000000000000000000000000000000000000000000000000000000000000000000000000000000000000000000000000000000000000000000000000000000000000000000000000000000000000000000000000000000000000000000
310
00000000000000000000000000000000000000000000F50000000000000000F5000000000000F5000000000000F5000000000000000000000000F500F5F5F5F5F5F5F5F50000000000000000000000F50000000000000000000000000000000000000000000000000000000000000000000000000000000000000000000000
310
00000000000000000000000000000000000000000000000000000000000000000000000000000000000000000000000000000000000000000000000000000000000000000000000000000000000000F5000000000000000000F50000F5F5F5F5000000000000F500000000000000000000F5F5F5F500F5F50000F5F5F5F500
310
000000000000000000F5000000000000000000000000000000000000000000000000000000000000000000000000000000000000000000000000000000000000000000000000000000000000000000000000000000000000000000000000000000000000000000000000000000000000000000000000000000000000000000
310
000000000000000000F5000000000000000000F5F500F5F5F5F5F5F5F5F5F5F5F5F5F50000000000000000F5F5F5F5F5F5F500F5F5F5F5F5F5000000000000000000F5000000000000000000000000000000000000000000000000000000000000000000000000000000000000000000000000000000000000000000000000
310
000000000000000000000000000000000000000000000000000000000000000000000000000000000000000000000000000000000000000000000000000000000000F500000000000000000000F5F5F50000F5F5F5F5F5F500F5F5F50000000000000000F5000000F5F5F5F500000000F5F5000000000000000000F5000000
310
000000000000000000000000000000000000000000000000000000000000000000000000000000000000000000000000000000000000000000000000000000000000000000000000000000000000000000000000000000000000000000000000000000000000000000000000000000000000000000000000000000F5000000
310
0000000000000000F5F5F5F5F5F5F5F5000000F5F5F50000000000000000000000000000F500000000000000000000000000000000F500000000000000000000000000000000000000000000000000000000000000000000000000000000000000000000000000000000000000000000000000000000000000000000000000
310
0000000000000000000000000000000000000000000000000000000000000000000000000000000000000000000000000000000000F500000000000000000000000000F5F5F5F5F5F5F5F5F5F5F5F50000000000000000000000000000F500000000000000000000000000000000F500000000000000000000000000000000
310
0000000000000000000000000000000000000000000000000000000000000000000000000000000000000000000000000000000000000000000000000000000000000000000000000000000000000000000000000000000000000000000000000000000000000000000000000000F500000000000000000000000000000000
310
00000000000000000000000000000000000000000000000000000000000000000000000000000000F50000000000000000000000000000000000000000000000000000000000000000000000000000000000000000000000000000000000000000000000000000000000000000000000000000000000000000000000000000
310
00000000000000000000000000000000000000000000000000000000000000000000000000000000F50000000000000000000000000000000000000000000000000000000000000000000000000000000000000000000000000000000000000000F50000000000000000000000000000000000000000000000000000000000
310
00000000000000000000000000000000000000000000000000000000000000000000000000000000000000000000000000000000000000000000000000000000000000000000000000000000000000000000000000000000000000000000000000F50000000000000000000000000000000000000000000000000000000000
310
000000000000000000000000000000000000000000000000000000F5000000000000000000000000000000000000000000000000000000000000000000000000000000000000000000000000000000000000000000000000000000000000000000000000000000000000000000000000000000000000000000000000000000
310
000000000000000000000000000000000000000000000000000000F50000000000000000000000000000000000000000000000000000000000000000000000000000000000000000000000000000000000000000F5000000000000000000000000000000000000000000000000000000000000000000000000000000000000
310
000000000000000000000000000000000000000000000000000000000000000000000000000000000000000000000000000000000000000000000000000000000000000000000000000000000000000000000000F5000000000000000000000000000000000000000000000000000000000000000000000000000000000000
310
0000000000000000000000000000F500000000000000000000000000000000000000000000000000000000000000000000000000000000000000000000000000000000000000000000000000000000000000000000000000000000000000000000000000000000000000000000000000000000000000000000000000000000
310
0000000000000000000000000000F50000000000000000000000000000000000000000000000000000000000000000000000000000000000000000000000000000000000000000F500000000000000000000000000000000000000000000000000000000000000000000000000000000000000000000000000000000000000
310
0000000000000000000000000000000000000000000000000000000000000000000000000000000000000000000000000000000000000000000000000000000000000000000000F500000000000000000000000000000000000000000000000000000000000000000000000000000000000000000000000000000000000000
310
00F50000000000000000000000000000000000000000000000000000000000000000000000000000000000000000000000000000000000000000000000000000000000000000000000000000000000000000000000000000000000000000000000000000000000000000000000000000000000000000000000000000000000
310
00F50000000000000000000000000000000000000000000000000000000000000000000000000000000000000000000000000000000000000000F50000000000000000000000000000000000000000000000000000000000000000000000000000000000000000000000000000000000000000000000000000000000000000
310
00000000000000000000000000000000000000000000000000000000000000000000000000000000000000000000000000000000000000000000F50000000000000000000000000000000000000000000000000000000000000000000000000000000000000000000000000000000000000000F50000000000000000000000
310
00000000000000000000000000000000000000000000000000000000000000000000000000000000000000000000000000000000000000000000000000000000000000000000000000000000000000000000000000000000000000000000000000000000000000000000000000000000000000F50000000000000000000000
310
000000000000000000000000000000000000000000000000000000000000000000000000000000000000000000F5000000000000000000000000000000000000000000000000000000000000000000000000000000000000000000000000000000000000000000000000000000000000000000000000000000000000000000
310
000000000000000000000000000000000000000000000000000000000000000000000000000000000000000000F50000000000000000000000000000000000000000000000000000000000000000000000000000000000000000000000000000000000000000F5000000000000000000000000000000000000000000000000
310
000000000000000000000000000000000000000000000000000000000000000000000000000000000000000000000000000000000000000000000000000000000000000000000000000000000000000000000000000000000000000000000000000000000000F5000000000000000000000000000000000000000000000000
310
0000000000000000000000000000000000000000000000000000000000000000F500000000000000000000000000000000000000000000000000000000000000000000000000000000000000000000000000000000000000000000000000000000000000000000000000000000000000000000000000000000000000000000
310
0000000000000000000000000000000000000000000000000000000000000000F50000000000000000000000000000000000000000000000000000000000000000000000000000000000000000000000000000000000000000F500000000000000000000000000000000000000000000000000000000000000000000000000
310
0000000000000000000000000000000000000000000000000000000000000000000000000000000000000000000000000000000000000000000000000000000000000000000000000000000000000000000000000000000000F500000000000000000000000000000000000000000000000000000000000000000000000000
310
00000000000000000000000000000000000000F50000000000000000000000000000000000000000000000000000000000000000000000000000000000000000000000000000000000000000000000000000000000000000000000000000000000000000000000000000000000000000000000000000000000000000000000
310
00000000000000000000000000000000000000F50000000000000000000000000000000000000000000000000000000000000000000000000000000000000000000000000000000000000000F50000000000000000000000000000000000000000000000000000000000000000000000000000000000000000000000000000
310
00000000000000000000000000000000000000000000000000000000000000000000000000000000000000000000000000000000000000000000000000000000000000000000000000000000F50000000000000000000000000000000000000000000000000000000000000000000000000000000000000000000000000000
310
000000000000F5000000000000000000000000000000000000000000000000000000000000000000000000000000000000000000000000000000000000000000000000000000000000000000000000000000000000000000000000000000000000000000000000000000000000000000000000000000000000000000000000
310
000000000000F50000000000000000000000000000000000000000000000000000000000000000000000000000000000000000000000000000000000000000F5000000000000000000000000000000000000000000000000000000000000000000000000000000000000000000000000000000000000000000000000000000
310
000000000000000000000000000000000000000000000000000000000000000000000000000000000000000000000000000000000000000000000000000000F5F5F5F5F5F5F5F5F5F5F5F5F5F5F5F5F5F5F5F5F5F5F5F5F5F5F5F5F5F5F5F5F5F5F5F5F5F5F5F5F5F5F5F5F5F5F5F5F5F5F5F5F5F5F5F5F5F5000000000000
310
00000000000000000000000000000000000000000000000000000000000000000000000000000000000000000000000000000000000000000000000000000000000000000000000000000000000000000000000000000000000000000000000000000000000000000000000000000000000000000000000000000000000000
310
000000000000000000000000000000000000000000F5000000000000000000000000000000000000000000000000000000000000000000000000000000000000000000000000000000000000000000000000000000000000000000000000000000000000000000000000000000000000000000000000000000000000000000
310
000000000000000000000000000000000000000000000000000000000000000000000000000000000000000000000000000000000000000000000000000000000000000000000000000000000000F5000000000000000000000000000000000000000000000000000000000000000000000000000000000000000000000000
310
00000000000000000000000000000000000000000000000000000000000000000000000000000000000000000000000000000000000000000000000000000000000000000000000000000000000000000000000000000000000000000000000000000000000000000000000000000000000000000000000000000000000000
310
0000000000000000F500000000000000000000000000000000000000000000000000000000000000000000000000000000000000000000000000000000000000000000000000000000000000000000000000000000000000000000000000000000000000000000000000000000000000000000000000000000000000000000
310
0000000000000000000000000000000000000000000000000000000000000000000000000000000000000000000000000000000000000000000000000000000000F500000000000000000000000000000000000000000000000000000000000000000000000000000000000000000000000000000000000000000000000000
310
0000000000000000000000000000000000000000000000000000000000000000000000000000000000000000000000000000000000000000000000000000000000000000000000000000000000000000000000000000000000000000000000000000000000000000000000000000000000000000000000000000F500000000
310
00000000000000000000000000000000000000000000000000000000000000000000000000000000000000000000000000000000000000000000000000000000000000000000000000000000000000000000000000000000000000000000000000000000000000000000000000000000000000000000000000000000000000
310
00000000000000000000000000000000000000000000000000000000000000000000000000000000000000000000000000000000F50000000000000000000000000000000000000000000000000000000000000000000000000000000000000000000000000000000000000000000000000000000000000000000000000000
310
0000000000000000000000000000000000000000
  0
ENDSEC
  0
EOF
