  0
SECTION
  2
HEADER
  9
$ACADVER
  1
AC1009
  9
$INSBASE
 10
0.0
 20
0.0
 30
0.0
  9
$EXTMIN
 10
0.238402
 20
0.4485540000000001
 30
0.0
  9
$EXTMAX
 10
210.24000000000001
 20
297.45100000000002
 30
0.0
  9
$LIMMIN
 10
0.0
 20
0.0
  9
$LIMMAX
 10
12.0
 20
9.0
  9
$ORTHOMODE
 70
     0
  9
$REGENMODE
 70
     1
  9
$FILLMODE
 70
     1
  9
$QTEXTMODE
 70
     0
  9
$MIRRTEXT
 70
     1
  9
$DRAGMODE
 70
     2
  9
$LTSCALE
 40
1.0
  9
$OSMODE
 70
    37
  9
$ATTMODE
 70
     1
  9
$TEXTSIZE
 40
0.0
  9
$TRACEWID
 40
0.05
  9
$TEXTSTYLE
  7
STANDARD
  9
$CLAYER
  8
0
  9
$CELTYPE
  6
CONTINUOUS
  9
$CECOLOR
 62
   256
  9
$DIMSCALE
 40
1.0
  9
$DIMASZ
 40
0.18
  9
$DIMEXO
 40
0.0625
  9
$DIMDLI
 40
0.38
  9
$DIMRND
 40
0.0
  9
$DIMDLE
 40
0.0
  9
$DIMEXE
 40
0.18
  9
$DIMTP
 40
0.0
  9
$DIMTM
 40
0.0
  9
$DIMTXT
 40
0.18
  9
$DIMCEN
 40
0.09
  9
$DIMTSZ
 40
0.0
  9
$DIMTOL
 70
     0
  9
$DIMLIM
 70
     0
  9
$DIMTIH
 70
     1
  9
$DIMTOH
 70
     1
  9
$DIMSE1
 70
     0
  9
$DIMSE2
 70
     0
  9
$DIMTAD
 70
     0
  9
$DIMZIN
 70
     0
  9
$DIMBLK
  1

  9
$DIMASO
 70
     1
  9
$DIMSHO
 70
     1
  9
$DIMPOST
  1

  9
$DIMAPOST
  1

  9
$DIMALT
 70
     0
  9
$DIMALTD
 70
     2
  9
$DIMALTF
 40
25.399999999999999
  9
$DIMLFAC
 40
1.0
  9
$DIMTOFL
 70
     0
  9
$DIMTVP
 40
0.0
  9
$DIMTIX
 70
     0
  9
$DIMSOXD
 70
     0
  9
$DIMSAH
 70
     0
  9
$DIMBLK1
  1

  9
$DIMBLK2
  1

  9
$DIMSTYLE
  2
STANDARD
  9
$DIMCLRD
 70
     0
  9
$DIMCLRE
 70
     0
  9
$DIMCLRT
 70
     0
  9
$DIMTFAC
 40
1.0
  9
$DIMGAP
 40
0.09
  9
$LUNITS
 70
     2
  9
$LUPREC
 70
     4
  9
$SKETCHINC
 40
0.1
  9
$FILLETRAD
 40
0.0
  9
$AUNITS
 70
     0
  9
$AUPREC
 70
     0
  9
$MENU
  1
.
  9
$ELEVATION
 40
0.0
  9
$PELEVATION
 40
0.0
  9
$THICKNESS
 40
0.0
  9
$LIMCHECK
 70
     0
  9
$BLIPMODE
 70
     0
  9
$CHAMFERA
 40
0.0
  9
$CHAMFERB
 40
0.0
  9
$SKPOLY
 70
     0
  9
$TDCREATE
 40
2444972.375
  9
$TDUPDATE
 40
2457444.2492156369
  9
$TDINDWG
 40
0.0000294213
  9
$TDUSRTIMER
 40
0.0000294213
  9
$USRTIMER
 70
     1
  9
$ANGBASE
 50
0.0
  9
$ANGDIR
 70
     0
  9
$PDMODE
 70
     0
  9
$PDSIZE
 40
0.0
  9
$PLINEWID
 40
0.0
  9
$COORDS
 70
     1
  9
$SPLFRAME
 70
     0
  9
$SPLINETYPE
 70
     6
  9
$SPLINESEGS
 70
     8
  9
$ATTDIA
 70
     1
  9
$ATTREQ
 70
     1
  9
$HANDLING
 70
     1
  9
$HANDSEED
  5
2D8
  9
$SURFTAB1
 70
     6
  9
$SURFTAB2
 70
     6
  9
$SURFTYPE
 70
     6
  9
$SURFU
 70
     6
  9
$SURFV
 70
     6
  9
$UCSNAME
  2

  9
$UCSORG
 10
0.0
 20
0.0
 30
0.0
  9
$UCSXDIR
 10
1.0
 20
0.0
 30
0.0
  9
$UCSYDIR
 10
0.0
 20
1.0
 30
0.0
  9
$PUCSNAME
  2

  9
$PUCSORG
 10
0.0
 20
0.0
 30
0.0
  9
$PUCSXDIR
 10
1.0
 20
0.0
 30
0.0
  9
$PUCSYDIR
 10
0.0
 20
1.0
 30
0.0
  9
$USERI1
 70
     0
  9
$USERI2
 70
     0
  9
$USERI3
 70
     0
  9
$USERI4
 70
     0
  9
$USERI5
 70
     0
  9
$USERR1
 40
0.0
  9
$USERR2
 40
0.0
  9
$USERR3
 40
0.0
  9
$USERR4
 40
0.0
  9
$USERR5
 40
0.0
  9
$WORLDVIEW
 70
     1
  9
$SHADEDGE
 70
     3
  9
$SHADEDIF
 70
    70
  9
$TILEMODE
 70
     1
  9
$MAXACTVP
 70
    48
  9
$PLIMCHECK
 70
     0
  9
$PEXTMIN
 10
1.0000000000000000E+020
 20
1.0000000000000000E+020
 30
1.0000000000000000E+020
  9
$PEXTMAX
 10
-1.0000000000000000E+020
 20
-1.0000000000000000E+020
 30
-1.0000000000000000E+020
  9
$PLIMMIN
 10
0.0
 20
0.0
  9
$PLIMMAX
 10
12.0
 20
9.0
  9
$UNITMODE
 70
     0
  9
$VISRETAIN
 70
     1
  9
$PLINEGEN
 70
     0
  9
$PSLTSCALE
 70
     1
  0
ENDSEC
  0
SECTION
  2
TABLES
  0
TABLE
  2
VPORT
 70
     1
  0
VPORT
  2
*ACTIVE
 70
     0
 10
0.0
 20
0.0
 11
1.0
 21
1.0
 12
161.19492923084849
 22
148.72550000000001
 13
0.0
 23
0.0
 14
1.0
 24
1.0
 15
0.0
 25
0.0
 16
0.0
 26
0.0
 36
1.0
 17
0.0
 27
0.0
 37
0.0
 40
283.32722309711289
 41
2.0381526104417671
 42
50.0
 43
0.0
 44
0.0
 50
0.0
 51
0.0
 71
     0
 72
   100
 73
     1
 74
     1
 75
     0
 76
     0
 77
     0
 78
     0
  0
ENDTAB
  0
TABLE
  2
LTYPE
 70
     4
  0
LTYPE
  2
CONTINUOUS
 70
     0
  3
Solid line
 72
    65
 73
     0
 40
0.0
  0
LTYPE
  2
AIGENLINE001
 70
     0
  3
generate AI->DXF Converter
 72
    65
 73
     6
 40
7.4083750000000004
 49
3.5278
 49
-0.776115
 49
0.776115
 49
-0.776115
 49
0.776115
 49
-0.776115
  0
LTYPE
  2
AIGENLINE002
 70
     0
  3
generate AI->DXF Converter
 72
    65
 73
     4
 40
5.8561449999999988
 49
3.5278
 49
-0.776115
 49
0.776115
 49
-0.776115
  0
LTYPE
  2
AIGENLINE003
 70
     0
  3
generate AI->DXF Converter
 72
    65
 73
     2
 40
1.5522299999999991
 49
0.776115
 49
-0.776115
  0
ENDTAB
  0
TABLE
  2
LAYER
 70
     2
  0
LAYER
  2
0
 70
     0
 62
     7
  6
CONTINUOUS
  0
LAYER
  2
_________2
 70
     0
 62
     7
  6
CONTINUOUS
  0
ENDTAB
  0
TABLE
  2
STYLE
 70
     1
  0
STYLE
  2
STANDARD
 70
     0
 40
0.0
 41
0.0
 50
0.0
 71
     0
 42
0.0
  3
TXT
  4
EXTFONT.SHX
  0
ENDTAB
  0
TABLE
  2
VIEW
 70
     0
  0
ENDTAB
  0
TABLE
  2
UCS
 70
     0
  0
ENDTAB
  0
TABLE
  2
APPID
 70
     3
  0
APPID
  2
ACAD
 70
     0
  0
APPID
  2
ACAD_NAV_VCDISPLAY
 70
     0
  0
APPID
  2
ACAD_MLEADERVER
 70
     0
  0
ENDTAB
  0
TABLE
  2
DIMSTYLE
 70
     1
  0
DIMSTYLE
  2
STANDARD
 70
     0
  3

  4

  5

  6

  7

 40
1.0
 41
0.18
 42
0.0625
 43
0.38
 44
0.18
 45
0.0
 46
0.0
 47
0.0
 48
0.0
140
0.18
141
0.09
142
0.0
143
25.399999999999999
144
1.0
145
0.0
146
1.0
147
0.09
 71
     0
 72
     0
 73
     1
 74
     1
 75
     0
 76
     0
 77
     0
 78
     0
170
     0
171
     2
172
     0
173
     0
174
     0
175
     0
176
     0
177
     0
178
     0
  0
ENDTAB
  0
ENDSEC
  0
SECTION
  2
BLOCKS
  0
BLOCK
  8
0
  2
$MODEL_SPACE
 70
     0
 10
0.0
 20
0.0
 30
0.0
  3
$MODEL_SPACE
  1

  0
ENDBLK
  5
1A
  8
0
  0
BLOCK
 67
     1
  8
0
  2
$PAPER_SPACE
 70
     0
 10
0.0
 20
0.0
 30
0.0
  3
$PAPER_SPACE
  1

  0
ENDBLK
  5
17
 67
     1
  8
0
  0
ENDSEC
  0
SECTION
  2
ENTITIES
  0
TEXT
  5
24
  8
0
 62
     7
 10
150.232
 20
131.852
 30
0.0
 40
3.0923400000000001
  1
15
 50
90.0
 41
0.5
  0
TEXT
  5
25
  8
0
 62
     7
 10
169.1806225714285
 20
207.13
 30
0.0
 40
3.0923400000000001
  1
排水口芯
 41
0.5
 72
     1
 11
172.69999999999999
 21
207.13
 31
0.0
  0
TEXT
  5
26
  8
0
 62
     7
 10
167.704228
 20
187.904
 30
0.0
 40
3.0923400000000001
  1
（2ケ所）
 41
0.5
 72
     2
 11
175.33199999999999
 21
187.904
 31
0.0
  0
TEXT
  5
27
  8
0
 62
     7
 10
170.023483
 20
192.43100000000001
 30
0.0
 40
3.0923400000000001
  1
%%c10穴
 41
0.5
 72
     2
 11
175.33199999999999
 21
192.43100000000001
 31
0.0
  0
TEXT
  5
28
  8
0
 62
     7
 10
161.27352500000001
 20
137.59700000000001
 30
0.0
 40
3.0923400000000001
  1
85
 41
0.5
 72
     1
 11
162.56200000000001
 21
137.59700000000001
 31
0.0
  0
TEXT
  5
29
  8
0
 62
     7
 10
97.917100000000005
 20
222.04452499999999
 30
0.0
 40
3.0923400000000001
  1
85
 50
90.0
 41
0.5
 72
     1
 11
97.917100000000005
 21
223.333
 31
0.0
  0
TEXT
  5
2A
  8
0
 62
     7
 10
123.45999999999999
 20
217.05699999999999
 30
0.0
 40
3.0923400000000001
  1
R40
 50
348.18299999999999
 41
0.5
  0
TEXT
  5
2B
  8
0
 62
     7
 10
138.40299999999999
 20
219.74100000000001
 30
0.0
 40
3.0923400000000001
  1
R195
 50
286.19999999999999
 41
0.5
  0
TEXT
  5
2C
  8
0
 62
     7
 10
137.80799999999999
 20
209.541
 30
0.0
 40
3.0923400000000001
  1
45%%d
 50
31.197399999999998
 41
0.5
  0
TEXT
  5
2D
  8
0
 62
     7
 10
144.55799999999999
 20
211.35900000000001
 30
0.0
 40
3.0923400000000001
  1
45%%d
 50
331.19800000000009
 41
0.5
  0
TEXT
  5
2E
  8
0
 62
     7
 10
139.7801400548654
 20
194.22981607172539
 30
0.0
 40
3.0923400000000001
  1
R50
 50
74.686499999999995
 41
0.5
 72
     2
 11
140.80099999999999
 21
197.958
 31
0.0
  0
TEXT
  5
2F
  8
0
 62
     7
 10
158.2620567800422
 20
216.7495808039383
 30
0.0
 40
3.0923400000000001
  1
R40
 50
16.199999999999999
 41
0.5
 72
     2
 11
161.97399999999999
 21
217.828
 31
0.0
  0
TEXT
  5
30
  8
0
 62
     7
 10
128.179
 20
174.018
 30
0.0
 40
3.0923400000000001
  1
注）：①～④は、洗面器現品の寸法に
 41
0.5
  0
TEXT
  5
31
  8
0
 62
     7
 10
128.179
 20
170.15299999999999
 30
0.0
 40
3.0923400000000001
  1
　　合わせて穴あけしてください。
 41
0.5
  0
TEXT
  5
32
  8
0
 62
     7
 10
134.53175999999999
 20
181.75700000000001
 30
0.0
 40
3.0923400000000001
  1
カウンター切込寸法
 41
0.5
 72
     1
 11
142.77799999999999
 21
181.75700000000001
 31
0.0
  0
TEXT
  5
33
  8
0
 62
     7
 10
41.804900000000004
 20
105.239845
 30
0.0
 40
3.0923400000000001
  1
max.40
 50
90.0
 41
0.5
 72
     2
 11
41.804900000000004
 21
112.71299999999999
 31
0.0
  0
TEXT
  5
34
  8
0
 62
     7
 10
64.404099999999985
 20
215.64400000000001
 30
0.0
 40
3.0923400000000001
  1
%%c35
 41
0.5
  0
TEXT
  5
35
  8
0
 62
     7
 10
80.808679999999995
 20
199.73699999999999
 30
0.0
 40
3.0923400000000001
  1
%%c46
 41
0.5
 72
     2
 11
84.931799999999996
 21
199.73699999999999
 31
0.0
  0
TEXT
  5
36
  8
0
 62
     7
 10
72.152297499999975
 20
105.208
 30
0.0
 40
3.0923400000000001
  1
%%c410
 41
0.5
 72
     1
 11
74.600399999999993
 21
105.208
 31
0.0
  0
TEXT
  5
37
  8
0
 62
     7
 10
71.894802499999983
 20
165.51599999999999
 30
0.0
 40
3.0923400000000001
  1
%%c480
 41
0.5
 72
     1
 11
74.6006
 21
165.51599999999999
 31
0.0
  0
TEXT
  5
38
  8
0
 62
     7
 10
71.894802499999983
 20
172.51599999999999
 30
0.0
 40
3.0923400000000001
  1
%%c470
 41
0.5
 72
     1
 11
74.6006
 21
172.51599999999999
 31
0.0
  0
TEXT
  5
39
  8
0
 62
     7
 10
140.30600000000001
 20
124.18152499999999
 30
0.0
 40
3.0923400000000001
  1
75
 50
90.0
 41
0.5
 72
     1
 11
140.30600000000001
 21
125.47
 31
0.0
  0
TEXT
  5
3A
  8
0
 62
     7
 10
41.640799999999999
 20
122.86483
 30
0.0
 40
3.0923400000000001
  1
100
 50
90.0
 41
0.5
 72
     1
 11
41.640799999999999
 21
124.411
 31
0.0
  0
LINE
  5
3B
  8
0
  6
AIGENLINE002
 62
     7
 10
136.77799999999999
 20
120.011
 30
0.0
 11
136.77799999999999
 21
112.961
 31
0.0
  0
LINE
  5
3C
  8
0
  6
AIGENLINE002
 62
     7
 10
91.600700000000003
 20
120.011
 30
0.0
 11
91.600700000000003
 21
112.961
 31
0.0
  0
LINE
  5
3D
  8
0
  6
AIGENLINE002
 62
     7
 10
57.60049999999999
 20
120.011
 30
0.0
 11
57.60049999999999
 21
112.961
 31
0.0
  0
LINE
  5
3E
  8
0
  6
AIGENLINE001
 62
     7
 10
95.754499999999993
 20
119.411
 30
0.0
 11
104.19799999999999
 21
119.411
 31
0.0
  0
LINE
  5
3F
  8
0
  6
AIGENLINE001
 62
     7
 10
104.202
 20
115.411
 30
0.0
 11
51.5505
 21
115.411
 31
0.0
  0
LINE
  5
40
  8
0
  6
AIGENLINE002
 62
     7
 10
74.6006
 20
113.41800000000001
 30
0.0
 11
74.6006
 21
131.64400000000001
 31
0.0
  0
LINE
  5
41
  8
0
 62
     7
 10
174.184
 20
206.12
 30
0.0
 11
172.69999999999999
 21
203.54900000000001
 31
0.0
  0
LINE
  5
42
  8
0
 62
     7
 10
172.69999999999999
 20
203.54900000000001
 30
0.0
 11
171.21600000000001
 21
206.12
 31
0.0
  0
LINE
  5
43
  8
0
 62
     7
 10
171.21600000000001
 20
206.12
 30
0.0
 11
174.184
 21
206.12
 31
0.0
  0
LINE
  5
44
  8
0
  6
AIGENLINE002
 62
     7
 10
150.43899999999999
 20
203.54900000000001
 30
0.0
 11
134.75999999999999
 21
203.54900000000001
 31
0.0
  0
LINE
  5
45
  8
0
  6
AIGENLINE002
 62
     7
 10
159.779
 20
199.375
 30
0.0
 11
159.779
 21
195.77099999999999
 31
0.0
  0
LINE
  5
46
  8
0
  6
AIGENLINE002
 62
     7
 10
161.58000000000001
 20
197.54900000000001
 30
0.0
 11
158.0
 21
197.54900000000001
 31
0.0
  0
LINE
  5
47
  8
0
  6
AIGENLINE002
 62
     7
 10
125.77800000000001
 20
199.375
 30
0.0
 11
125.77800000000001
 21
195.77099999999999
 31
0.0
  0
LINE
  5
48
  8
0
  6
AIGENLINE002
 62
     7
 10
127.58
 20
197.54900000000001
 30
0.0
 11
124.0
 21
197.54900000000001
 31
0.0
  0
LINE
  5
49
  8
0
  6
AIGENLINE002
 62
     7
 10
142.77799999999999
 20
117.60599999999999
 30
0.0
 11
142.77799999999999
 21
131.64400000000001
 31
0.0
  0
LINE
  5
4A
  8
0
 62
     7
 10
150.94499999999999
 20
127.911
 30
0.0
 11
150.94499999999999
 21
129.411
 31
0.0
  0
LINE
  5
4B
  8
0
 62
     7
 10
150.35300000000001
 20
131.62200000000001
 30
0.0
 11
150.94499999999999
 21
129.411
 31
0.0
  0
LINE
  5
4C
  8
0
 62
     7
 10
150.94499999999999
 20
129.411
 30
0.0
 11
151.53800000000001
 21
131.62200000000001
 31
0.0
  0
LINE
  5
4D
  8
0
 62
     7
 10
151.53800000000001
 20
131.62200000000001
 30
0.0
 11
150.35300000000001
 21
131.62200000000001
 31
0.0
  0
LINE
  5
4E
  8
0
 62
     7
 10
150.93799999999999
 20
129.41200000000001
 30
0.0
 11
150.93799999999999
 21
134.93799999999999
 31
0.0
  0
LINE
  5
4F
  8
0
 62
     7
 10
151.523
 20
125.699
 30
0.0
 11
150.93100000000001
 21
127.911
 31
0.0
  0
LINE
  5
50
  8
0
 62
     7
 10
150.93100000000001
 20
127.911
 30
0.0
 11
150.33799999999999
 21
125.699
 31
0.0
  0
LINE
  5
51
  8
0
 62
     7
 10
150.33799999999999
 20
125.699
 30
0.0
 11
151.523
 21
125.699
 31
0.0
  0
LINE
  5
52
  8
0
 62
     7
 10
150.93799999999999
 20
124.134
 30
0.0
 11
150.93799999999999
 21
127.90900000000001
 31
0.0
  0
LINE
  5
53
  8
0
 62
     7
 10
155.328
 20
127.911
 30
0.0
 11
150.245
 21
127.911
 31
0.0
  0
LINE
  5
54
  8
0
 62
     7
 10
140.49799999999999
 20
210.67599999999999
 30
0.0
 11
142.77799999999999
 21
210.47200000000001
 31
0.0
  0
LINE
  5
55
  8
0
 62
     7
 10
142.77799999999999
 20
210.47200000000001
 30
0.0
 11
140.702
 21
209.50899999999999
 31
0.0
  0
LINE
  5
56
  8
0
 62
     7
 10
140.702
 20
209.50899999999999
 30
0.0
 11
140.49799999999999
 21
210.67599999999999
 31
0.0
  0
LINE
  5
57
  8
0
 62
     7
 10
146.23400000000001
 20
210.22399999999999
 30
0.0
 11
147.673
 21
208.44399999999999
 31
0.0
  0
LINE
  5
58
  8
0
 62
     7
 10
147.673
 20
208.44399999999999
 30
0.0
 11
145.53700000000001
 21
209.26599999999999
 31
0.0
  0
LINE
  5
59
  8
0
 62
     7
 10
145.53700000000001
 20
209.26599999999999
 30
0.0
 11
146.23400000000001
 21
210.22399999999999
 31
0.0
  0
LINE
  5
5A
  8
0
 62
     7
 10
139.322
 20
210.22399999999999
 30
0.0
 11
137.88300000000001
 21
208.44399999999999
 31
0.0
  0
LINE
  5
5B
  8
0
 62
     7
 10
137.88300000000001
 20
208.44399999999999
 30
0.0
 11
140.01900000000001
 21
209.26599999999999
 31
0.0
  0
LINE
  5
5C
  8
0
 62
     7
 10
140.01900000000001
 20
209.26599999999999
 30
0.0
 11
139.322
 21
210.22399999999999
 31
0.0
  0
LINE
  5
5D
  8
0
 62
     7
 10
145.05799999999999
 20
210.67599999999999
 30
0.0
 11
142.77799999999999
 21
210.47200000000001
 31
0.0
  0
LINE
  5
5E
  8
0
 62
     7
 10
142.77799999999999
 20
210.47200000000001
 30
0.0
 11
144.85400000000001
 21
209.50899999999999
 31
0.0
  0
LINE
  5
5F
  8
0
 62
     7
 10
144.85400000000001
 20
209.50899999999999
 30
0.0
 11
145.05799999999999
 21
210.67599999999999
 31
0.0
  0
LINE
  5
60
  8
0
 62
     7
 10
137.28800000000001
 20
219.953
 30
0.0
 11
137.22499999999999
 21
222.24199999999999
 31
0.0
  0
LINE
  5
61
  8
0
 62
     7
 10
137.22499999999999
 20
222.24199999999999
 30
0.0
 11
138.42400000000001
 21
220.291
 31
0.0
  0
LINE
  5
62
  8
0
 62
     7
 10
138.42400000000001
 20
220.291
 30
0.0
 11
137.28800000000001
 21
219.953
 31
0.0
  0
LINE
  5
63
  8
0
 62
     7
 10
137.21899999999999
 20
222.239
 30
0.0
 11
142.77799999999999
 21
203.54900000000001
 31
0.0
  0
LINE
  5
64
  8
0
 62
     7
 10
126.07599999999999
 20
205.63999999999999
 30
0.0
 11
124.931
 21
207.62299999999999
 31
0.0
  0
LINE
  5
65
  8
0
 62
     7
 10
124.931
 20
207.62299999999999
 30
0.0
 11
126.914
 21
206.47800000000001
 31
0.0
  0
LINE
  5
66
  8
0
 62
     7
 10
126.914
 20
206.47800000000001
 30
0.0
 11
126.07599999999999
 21
205.63999999999999
 31
0.0
  0
LINE
  5
67
  8
0
 62
     7
 10
134.73599999999999
 20
198.63499999999999
 30
0.0
 11
135.881
 21
196.65199999999999
 31
0.0
  0
LINE
  5
68
  8
0
 62
     7
 10
135.881
 20
196.65199999999999
 30
0.0
 11
133.898
 21
197.797
 31
0.0
  0
LINE
  5
69
  8
0
 62
     7
 10
133.898
 20
197.797
 30
0.0
 11
134.73599999999999
 21
198.63499999999999
 31
0.0
  0
LINE
  5
6A
  8
0
 62
     7
 10
124.92700000000001
 20
207.61699999999999
 30
0.0
 11
135.88499999999999
 21
196.65899999999999
 31
0.0
  0
TEXT
  5
6B
  8
0
 62
     7
 10
128.37830222856809
 20
203.2591179292921
 30
0.0
 40
3.0923400000000001
  1
155
 50
2.06128
 41
0.5
 72
     1
 11
130.18100000000001
 21
203.32400000000001
 31
0.0
  0
LINE
  5
6C
  8
0
 62
     7
 10
124.233
 20
206.92500000000001
 30
0.0
 11
127.878
 21
210.56899999999999
 31
0.0
  0
LINE
  5
6D
  8
0
 62
     7
 10
135.19300000000001
 20
195.964
 30
0.0
 11
138.03
 21
198.80099999999999
 31
0.0
  0
LINE
  5
6E
  8
0
 62
     7
 10
159.47999999999999
 20
205.63999999999999
 30
0.0
 11
160.625
 21
207.62299999999999
 31
0.0
  0
LINE
  5
6F
  8
0
 62
     7
 10
160.625
 20
207.62299999999999
 30
0.0
 11
158.642
 21
206.47800000000001
 31
0.0
  0
LINE
  5
70
  8
0
 62
     7
 10
158.642
 20
206.47800000000001
 30
0.0
 11
159.47999999999999
 21
205.63999999999999
 31
0.0
  0
LINE
  5
71
  8
0
 62
     7
 10
141.55000000000001
 20
200.97800000000001
 30
0.0
 11
141.608
 21
198.68899999999999
 31
0.0
  0
LINE
  5
72
  8
0
 62
     7
 10
141.608
 20
198.68899999999999
 30
0.0
 11
142.702
 21
200.70099999999999
 31
0.0
  0
LINE
  5
73
  8
0
 62
     7
 10
142.702
 20
200.70099999999999
 30
0.0
 11
141.55000000000001
 21
200.97800000000001
 31
0.0
  0
LINE
  5
74
  8
0
 62
     7
 10
142.77799999999999
 20
203.54900000000001
 30
0.0
 11
140.404
 21
193.68700000000001
 31
0.0
  0
LINE
  5
75
  8
0
 62
     7
 10
150.81999999999999
 20
198.63499999999999
 30
0.0
 11
149.67500000000001
 21
196.65199999999999
 31
0.0
  0
LINE
  5
76
  8
0
 62
     7
 10
149.67500000000001
 20
196.65199999999999
 30
0.0
 11
151.65799999999999
 21
197.797
 31
0.0
  0
LINE
  5
77
  8
0
 62
     7
 10
151.65799999999999
 20
197.797
 30
0.0
 11
150.81999999999999
 21
198.63499999999999
 31
0.0
  0
LINE
  5
78
  8
0
 62
     7
 10
160.62899999999999
 20
207.61699999999999
 30
0.0
 11
149.67099999999999
 21
196.65899999999999
 31
0.0
  0
TEXT
  5
79
  8
0
 62
     7
 10
153.0804748261549
 20
201.44047482615491
 30
0.0
 40
3.0923400000000001
  1
155
 50
45.0
 41
0.5
 72
     1
 11
154.35599999999999
 21
202.71600000000001
 31
0.0
  0
LINE
  5
7A
  8
0
 62
     7
 10
160.16800000000001
 20
197.239
 30
0.0
 11
162.15000000000001
 21
196.09399999999999
 31
0.0
  0
LINE
  5
7B
  8
0
 62
     7
 10
162.15000000000001
 20
196.09399999999999
 30
0.0
 11
161.31200000000001
 21
195.25700000000001
 31
0.0
  0
LINE
  5
7C
  8
0
 62
     7
 10
161.31200000000001
 20
195.25700000000001
 30
0.0
 11
160.16800000000001
 21
197.239
 31
0.0
  0
LINE
  5
7D
  8
0
 62
     7
 10
160.16800000000001
 20
197.239
 30
0.0
 11
165.67599999999999
 21
191.73099999999999
 31
0.0
  0
LINE
  5
7E
  8
0
 62
     7
 10
165.67599999999999
 20
191.73099999999999
 30
0.0
 11
175.33199999999999
 21
191.73099999999999
 31
0.0
  0
LINE
  5
7F
  8
0
 62
     7
 10
140.566
 20
190.61699999999999
 30
0.0
 11
142.77799999999999
 21
191.209
 31
0.0
  0
LINE
  5
80
  8
0
 62
     7
 10
142.77799999999999
 20
191.209
 30
0.0
 11
140.566
 21
191.80199999999999
 31
0.0
  0
LINE
  5
81
  8
0
 62
     7
 10
140.566
 20
191.80199999999999
 30
0.0
 11
140.566
 21
190.61699999999999
 31
0.0
  0
LINE
  5
82
  8
0
 62
     7
 10
127.98999999999999
 20
191.78700000000001
 30
0.0
 11
125.77800000000001
 21
191.19499999999999
 31
0.0
  0
LINE
  5
83
  8
0
 62
     7
 10
125.77800000000001
 20
191.19499999999999
 30
0.0
 11
127.98999999999999
 21
190.602
 31
0.0
  0
LINE
  5
84
  8
0
 62
     7
 10
127.98999999999999
 20
190.602
 30
0.0
 11
127.98999999999999
 21
191.78700000000001
 31
0.0
  0
LINE
  5
85
  8
0
 62
     7
 10
142.77699999999999
 20
191.202
 30
0.0
 11
125.779
 21
191.202
 31
0.0
  0
LINE
  5
86
  8
0
 62
     7
 10
157.566
 20
190.61699999999999
 30
0.0
 11
159.77799999999999
 21
191.209
 31
0.0
  0
LINE
  5
87
  8
0
 62
     7
 10
159.77799999999999
 20
191.209
 30
0.0
 11
157.566
 21
191.80199999999999
 31
0.0
  0
LINE
  5
88
  8
0
 62
     7
 10
157.566
 20
191.80199999999999
 30
0.0
 11
157.566
 21
190.61699999999999
 31
0.0
  0
LINE
  5
89
  8
0
 62
     7
 10
144.99000000000001
 20
191.78700000000001
 30
0.0
 11
142.77799999999999
 21
191.19499999999999
 31
0.0
  0
LINE
  5
8A
  8
0
 62
     7
 10
142.77799999999999
 20
191.19499999999999
 30
0.0
 11
144.99000000000001
 21
190.602
 31
0.0
  0
LINE
  5
8B
  8
0
 62
     7
 10
144.99000000000001
 20
190.602
 30
0.0
 11
144.99000000000001
 21
191.78700000000001
 31
0.0
  0
LINE
  5
8C
  8
0
 62
     7
 10
159.77699999999999
 20
191.202
 30
0.0
 11
142.779
 21
191.202
 31
0.0
  0
TEXT
  5
8D
  8
0
 62
     7
 10
118.466915
 20
199.16900000000001
 30
0.0
 40
3.0923400000000001
  1
③
 41
0.5
 72
     2
 11
119.23999999999999
 21
199.16900000000001
 31
0.0
  0
LINE
  5
8E
  8
0
 62
     7
 10
119.315
 20
197.54900000000001
 30
0.0
 11
123.294
 21
197.54900000000001
 31
0.0
  0
LINE
  5
8F
  8
0
 62
     7
 10
119.289
 20
203.54900000000001
 30
0.0
 11
127.962
 21
203.54900000000001
 31
0.0
  0
LINE
  5
90
  8
0
 62
     7
 10
119.483
 20
199.761
 30
0.0
 11
120.07599999999999
 21
197.54900000000001
 31
0.0
  0
LINE
  5
91
  8
0
 62
     7
 10
120.07599999999999
 20
197.54900000000001
 30
0.0
 11
120.66800000000001
 21
199.761
 31
0.0
  0
LINE
  5
92
  8
0
 62
     7
 10
120.66800000000001
 20
199.761
 30
0.0
 11
119.483
 21
199.761
 31
0.0
  0
LINE
  5
93
  8
0
 62
     7
 10
120.654
 20
201.33699999999999
 30
0.0
 11
120.06100000000001
 21
203.54900000000001
 31
0.0
  0
LINE
  5
94
  8
0
 62
     7
 10
120.06100000000001
 20
203.54900000000001
 30
0.0
 11
119.46899999999999
 21
201.33699999999999
 31
0.0
  0
LINE
  5
95
  8
0
 62
     7
 10
119.46899999999999
 20
201.33699999999999
 30
0.0
 11
120.654
 21
201.33699999999999
 31
0.0
  0
LINE
  5
96
  8
0
 62
     7
 10
120.069
 20
197.55000000000001
 30
0.0
 11
120.069
 21
203.548
 31
0.0
  0
TEXT
  5
97
  8
0
 62
     7
 10
150.9564575
 20
192.172
 30
0.0
 40
3.0923400000000001
  1
②
 41
0.5
 72
     1
 11
151.34299999999999
 21
192.172
 31
0.0
  0
TEXT
  5
98
  8
0
 62
     7
 10
133.6104575
 20
192.172
 30
0.0
 40
3.0923400000000001
  1
①
 41
0.5
 72
     1
 11
133.99700000000001
 21
192.172
 31
0.0
  0
TEXT
  5
99
  8
0
 62
     7
 10
164.739915
 20
199.16900000000001
 30
0.0
 40
3.0923400000000001
  1
④
 41
0.5
 72
     2
 11
165.51300000000001
 21
199.16900000000001
 31
0.0
  0
ARC
  5
9A
  8
0
 62
     7
 10
142.743629
 20
203.46593999999999
 30
0.0
 40
7.005660999999999
 50
45.282609999999998
 51
89.718381999999977
  0
ARC
  5
9B
  8
0
 62
     7
 10
142.81352999999999
 20
203.46343999999999
 30
0.0
 40
7.0081660000000001
 50
90.289963000000014
 51
134.70900499999999
  0
ARC
  5
9C
  8
0
 62
     7
 10
159.75868399999999
 20
197.529943
 30
0.0
 40
0.5198970000000001
 50
2.125440999999999
 51
87.795575000000014
  0
ARC
  5
9D
  8
0
 62
     7
 10
159.778682
 20
197.54922500000001
 30
0.0
 40
0.5002310000000002
 50
90.0
 51
179.99996999999999
  0
ARC
  5
9E
  8
0
 62
     7
 10
159.778682
 20
197.54922500000001
 30
0.0
 40
0.5002310000000002
 50
179.99996999999999
 51
270.00002000000001
  0
ARC
  5
9F
  8
0
 62
     7
 10
159.759334
 20
197.567858
 30
0.0
 40
0.5192250000000001
 50
272.13555200000002
 51
357.94343199999997
  0
LINE
  5
A0
  8
0
 62
     7
 10
162.29599999999999
 20
197.54900000000001
 30
0.0
 11
167.27500000000001
 21
197.54900000000001
 31
0.0
  0
LINE
  5
A1
  8
0
 62
     7
 10
157.47800000000001
 20
203.54900000000001
 30
0.0
 11
181.05799999999999
 21
203.54900000000001
 31
0.0
  0
LINE
  5
A2
  8
0
 62
     7
 10
159.77799999999999
 20
190.49700000000001
 30
0.0
 11
159.77799999999999
 21
195.065
 31
0.0
  0
ARC
  5
A3
  8
0
 62
     7
 10
125.758133
 20
197.529943
 30
0.0
 40
0.5198970000000001
 50
2.125440999999999
 51
87.795575000000014
  0
ARC
  5
A4
  8
0
 62
     7
 10
125.778131
 20
197.54922500000001
 30
0.0
 40
0.5002310000000002
 50
90.0
 51
179.99996999999999
  0
ARC
  5
A5
  8
0
 62
     7
 10
125.778131
 20
197.54922500000001
 30
0.0
 40
0.5002310000000002
 50
179.99996999999999
 51
270.00002000000001
  0
ARC
  5
A6
  8
0
 62
     7
 10
125.75878299999999
 20
197.567858
 30
0.0
 40
0.5192250000000001
 50
272.13555200000002
 51
357.94343199999997
  0
LINE
  5
A7
  8
0
 62
     7
 10
125.77800000000001
 20
190.49700000000001
 30
0.0
 11
125.77800000000001
 21
195.065
 31
0.0
  0
LINE
  5
A8
  8
0
 62
     7
 10
142.77799999999999
 20
196.994
 30
0.0
 11
142.77799999999999
 21
190.49700000000001
 31
0.0
  0
LINE
  5
A9
  8
0
  6
AIGENLINE002
 62
     7
 10
128.31999999999999
 20
211.012
 30
0.0
 11
135.33699999999999
 21
218.029
 31
0.0
  0
LINE
  5
AA
  8
0
  6
AIGENLINE002
 62
     7
 10
157.02699999999999
 20
211.221
 30
0.0
 11
150.21899999999999
 21
218.029
 31
0.0
  0
LINE
  5
AB
  8
0
 62
     7
 10
161.32299999999989
 20
206.92500000000001
 30
0.0
 11
157.679
 21
210.56899999999999
 31
0.0
  0
LINE
  5
AC
  8
0
 62
     7
 10
142.84899999999999
 20
203.47900000000001
 30
0.0
 11
142.77799999999999
 21
203.54900000000001
 31
0.0
  0
LINE
  5
AD
  8
0
 62
     7
 10
150.363
 20
195.964
 30
0.0
 11
147.52600000000001
 21
198.80099999999999
 31
0.0
  0
ARC
  5
AE
  8
0
 62
     7
 10
142.778234
 20
203.54909699999999
 30
0.0
 40
19.5002
 50
45.000653000000007
 51
134.99932699999999
  0
ARC
  5
AF
  8
0
 62
     7
 10
153.694647
 20
214.52612999999999
 30
0.0
 40
4.0438710000000002
 50
318.92650900000001
 51
359.764904
  0
ARC
  5
B0
  8
0
 62
     7
 10
132.016211
 20
214.502925
 30
0.0
 40
4.146984999999999
 50
136.87106799999989
 51
219.426965
  0
ARC
  5
B1
  8
0
 62
     7
 10
153.689562
 20
214.48917399999999
 30
0.0
 40
4.0489730000000002
 50
0.288157
 51
44.715490999999993
  0
LINE
  5
B2
  8
0
 62
     7
 10
139.02199999999999
 20
200.249
 30
0.0
 11
128.81299999999999
 21
211.869
 31
0.0
  0
LINE
  5
B3
  8
0
 62
     7
 10
146.53399999999999
 20
200.249
 30
0.0
 11
156.744
 21
211.869
 31
0.0
  0
LINE
  5
B4
  8
0
  6
AIGENLINE002
 62
     7
 10
142.77799999999999
 20
207.547
 30
0.0
 11
142.77799999999999
 21
197.69900000000001
 31
0.0
  0
LINE
  5
B5
  8
0
  6
AIGENLINE002
 62
     7
 10
142.77799999999999
 20
208.10599999999999
 30
0.0
 11
142.77799999999999
 21
226.309
 31
0.0
  0
LINE
  5
B6
  8
0
  6
AIGENLINE002
 62
     7
 10
147.05600000000001
 20
199.27199999999999
 30
0.0
 11
128.38499999999999
 21
217.94300000000001
 31
0.0
  0
LINE
  5
B7
  8
0
  6
AIGENLINE002
 62
     7
 10
138.501
 20
199.27199999999999
 30
0.0
 11
157.101
 21
217.87200000000001
 31
0.0
  0
ARC
  5
B8
  8
0
 62
     7
 10
142.80885000000001
 20
203.61712399999999
 30
0.0
 40
5.068219
 50
221.651152
 51
269.65194600000001
  0
ARC
  5
B9
  8
0
 62
     7
 10
142.745529
 20
203.62097900000001
 30
0.0
 40
5.0720849999999986
 50
270.36751400000003
 51
318.32942800000001
  0
ARC
  5
BA
  8
0
  6
AIGENLINE003
 62
     7
 10
142.74071000000001
 20
203.53353000000001
 30
0.0
 40
3.2875139999999989
 50
0.273816
 51
44.729046999999987
  0
ARC
  5
BB
  8
0
  6
AIGENLINE003
 62
     7
 10
142.76109700000001
 20
203.50887
 30
0.0
 40
3.2905379999999989
 50
45.283938999999997
 51
89.704589999999996
  0
ARC
  5
BC
  8
0
  6
AIGENLINE003
 62
     7
 10
142.79378199999999
 20
203.511875
 30
0.0
 40
3.287528
 50
90.273965000000004
 51
134.73746499999999
  0
ARC
  5
BD
  8
0
  6
AIGENLINE003
 62
     7
 10
142.813616
 20
203.53476800000001
 30
0.0
 40
3.2853650000000001
 50
135.26419799999999
 51
179.7475649999999
  0
ARC
  5
BE
  8
0
  6
AIGENLINE003
 62
     7
 10
142.81657999999999
 20
203.564942
 30
0.0
 40
3.288335
 50
180.2735899999999
 51
224.71464700000001
  0
ARC
  5
BF
  8
0
  6
AIGENLINE003
 62
     7
 10
142.795027
 20
203.58961300000001
 30
0.0
 40
3.2905379999999989
 50
225.28395900000001
 51
269.70461
  0
ARC
  5
C0
  8
0
  6
AIGENLINE003
 62
     7
 10
142.76234199999999
 20
203.58660800000001
 30
0.0
 40
3.287528
 50
270.27398499999998
 51
314.73748499999999
  0
ARC
  5
C1
  8
0
  6
AIGENLINE003
 62
     7
 10
142.74168
 20
203.56455099999999
 30
0.0
 40
3.286541999999999
 50
315.26402899999999
 51
359.73310800000002
  0
LINE
  5
C2
  8
0
  6
AIGENLINE003
 62
     7
 10
145.125
 20
120.89
 30
0.0
 11
142.77799999999999
 21
120.89
 31
0.0
  0
ARC
  5
C3
  8
0
  6
AIGENLINE003
 62
     7
 10
145.58528100000001
 20
120.67437099999999
 30
0.0
 40
0.5072700000000001
 50
130.149494
 51
179.631325
  0
LINE
  5
C4
  8
0
  6
AIGENLINE003
 62
     7
 10
145.078
 20
120.678
 30
0.0
 11
145.078
 21
119.411
 31
0.0
  0
LINE
  5
C5
  8
0
  6
AIGENLINE003
 62
     7
 10
142.77799999999999
 20
121.911
 30
0.0
 11
146.566
 21
121.911
 31
0.0
  0
LINE
  5
C6
  8
0
  6
AIGENLINE003
 62
     7
 10
145.89699999999999
 20
120.578
 30
0.0
 11
145.791
 21
119.411
 31
0.0
  0
LINE
  5
C7
  8
0
  6
AIGENLINE003
 62
     7
 10
145.25800000000001
 20
121.062
 30
0.0
 11
146.05600000000001
 21
121.726
 31
0.0
  0
ARC
  5
C8
  8
0
  6
AIGENLINE003
 62
     7
 10
146.57138499999999
 20
121.102093
 30
0.0
 40
0.8089109999999999
 50
90.383667000000003
 51
129.570088
  0
ARC
  5
C9
  8
0
  6
AIGENLINE003
 62
     7
 10
146.410472
 20
120.51591500000001
 30
0.0
 40
0.5169100000000002
 50
92.08725299999999
 51
173.13217900000001
  0
ARC
  5
CA
  8
0
  6
AIGENLINE003
 62
     7
 10
146.386169
 20
128.31270900000001
 30
0.0
 40
7.2802289999999994
 50
270.04311000000001
 51
277.25520499999999
  0
ARC
  5
CB
  8
0
  6
AIGENLINE003
 62
     7
 10
145.933639
 20
132.57421600000001
 30
0.0
 40
11.565111
 50
276.81291800000002
 51
284.33843899999999
  0
ARC
  5
CC
  8
0
  6
AIGENLINE003
 62
     7
 10
145.313816
 20
135.33355
 30
0.0
 40
14.392227999999999
 50
284.00868500000001
 51
297.773301
  0
ARC
  5
CD
  8
0
  6
AIGENLINE003
 62
     7
 10
146.82633999999999
 20
132.35076699999999
 30
0.0
 40
11.048389999999999
 50
298.04100599999998
 51
307.87694900000002
  0
ARC
  5
CE
  8
0
  6
AIGENLINE003
 62
     7
 10
148.56223600000001
 20
130.007947
 30
0.0
 40
8.1336309999999994
 50
308.357508
 51
314.82291400000003
  0
ARC
  5
CF
  8
0
  6
AIGENLINE003
 62
     7
 10
155.424126
 20
123.109442
 30
0.0
 40
1.596476
 50
131.15912599999999
 51
134.97303099999999
  0
ARC
  5
D0
  8
0
  6
AIGENLINE003
 62
     7
 10
154.65814
 20
123.98488500000001
 30
0.0
 40
0.433233
 50
111.00144899999999
 51
131.08984599999999
  0
ARC
  5
D1
  8
0
  6
AIGENLINE003
 62
     7
 10
154.62010900000001
 20
124.044715
 30
0.0
 40
0.36402
 50
97.657478999999995
 51
108.78751799999991
  0
ARC
  5
D2
  8
0
  6
AIGENLINE003
 62
     7
 10
154.65209100000001
 20
123.796549
 30
0.0
 40
0.614236
 50
89.526137000000006
 51
97.529566000000017
  0
ARC
  5
D3
  8
0
  6
AIGENLINE003
 62
     7
 10
155.34240500000001
 20
-193.987875
 30
0.0
 40
318.39937600000002
 50
89.876683000000014
 51
90.123297999999977
  0
ARC
  5
D4
  8
0
  6
AIGENLINE003
 62
     7
 10
153.71339800000001
 20
127.76935899999999
 30
0.0
 40
2.3021569999999989
 50
311.64267799999999
 51
314.979354
  0
ARC
  5
D5
  8
0
  6
AIGENLINE003
 62
     7
 10
151.63856100000001
 20
130.08325400000001
 30
0.0
 40
5.4100479999999997
 50
309.039669
 51
311.780236
  0
ARC
  5
D6
  8
0
  6
AIGENLINE003
 62
     7
 10
147.298676
 20
135.41772
 30
0.0
 40
12.286899
 50
307.25024400000001
 51
309.09038500000003
  0
ARC
  5
D7
  8
0
  6
AIGENLINE003
 62
     7
 10
128.32968399999999
 20
160.445572
 30
0.0
 40
43.690964000000001
 50
306.02670899999998
 51
307.18469700000003
  0
ARC
  5
D8
  8
0
  6
AIGENLINE003
 62
     7
 10
123.35435
 20
166.49294399999999
 30
0.0
 40
51.510154
 50
305.85755799999998
 51
306.54609099999999
  0
ARC
  5
D9
  8
0
  6
AIGENLINE003
 62
     7
 10
147.87402900000001
 20
132.66586100000001
 30
0.0
 40
9.7313479999999988
 50
301.97282100000001
 51
305.51814999999999
  0
ARC
  5
DA
  8
0
  6
AIGENLINE003
 62
     7
 10
145.54967600000001
 20
136.535571
 30
0.0
 40
14.245015
 50
300.33908400000001
 51
301.661788
  0
ARC
  5
DB
  8
0
  6
AIGENLINE003
 62
     7
 10
165.69758999999999
 20
101.830839
 30
0.0
 40
25.884374000000001
 50
120.02641199999999
 51
121.880359
  0
ARC
  5
DC
  8
0
  6
AIGENLINE003
 62
     7
 10
130.42987600000001
 20
157.86051399999999
 30
0.0
 40
40.321496999999987
 50
301.59459900000002
 51
302.38588600000003
  0
ARC
  5
DD
  8
0
  6
AIGENLINE003
 62
     7
 10
144.50856200000001
 20
135.09489199999999
 30
0.0
 40
13.554532
 50
298.74309599999998
 51
301.32044000000002
  0
ARC
  5
DE
  8
0
  6
AIGENLINE003
 62
     7
 10
150.433481
 20
124.294449
 30
0.0
 40
1.2356759999999991
 50
293.85703599999999
 51
298.69072999999997
  0
ARC
  5
DF
  8
0
  6
AIGENLINE003
 62
     7
 10
150.04077699999999
 20
125.171092
 30
0.0
 40
2.196251999999999
 50
289.71163100000001
 51
293.97669999999999
  0
ARC
  5
E0
  8
0
  6
AIGENLINE003
 62
     7
 10
149.4981929999999
 20
126.672943
 30
0.0
 40
3.793105999999999
 50
286.488294
 51
289.77562400000011
  0
ARC
  5
E1
  8
0
  6
AIGENLINE003
 62
     7
 10
148.79452000000001
 20
129.03702899999999
 30
0.0
 40
6.2596930000000004
 50
284.01876299999998
 51
286.52274
  0
ARC
  5
E2
  8
0
  6
AIGENLINE003
 62
     7
 10
147.893652
 20
132.63437200000001
 30
0.0
 40
9.968121
 50
281.96133700000001
 51
284.03381200000001
  0
ARC
  5
E3
  8
0
  6
AIGENLINE003
 62
     7
 10
146.707559
 20
138.22052400000001
 30
0.0
 40
15.678804
 50
280.25318199999998
 51
281.97084700000011
  0
ARC
  5
E4
  8
0
  6
AIGENLINE003
 62
     7
 10
143.293362
 20
157.288467
 30
0.0
 40
35.049985999999997
 50
279.41472399999998
 51
280.196978
  0
ARC
  5
E5
  8
0
  6
AIGENLINE003
 62
     7
 10
149.43503999999999
 20
120.327254
 30
0.0
 40
2.418053
 50
99.71942
 51
116.139245
  0
ARC
  5
E6
  8
0
  6
AIGENLINE003
 62
     7
 10
150.016469
 20
119.002449
 30
0.0
 40
3.8640080000000001
 50
115.2245439999999
 51
120.994106
  0
ARC
  5
E7
  8
0
  6
AIGENLINE003
 62
     7
 10
141.55050299999999
 20
133.18963600000001
 30
0.0
 40
12.657178
 50
299.42398200000002
 51
300.77459599999997
  0
ARC
  5
E8
  8
0
  6
AIGENLINE003
 62
     7
 10
146.20904899999999
 20
124.929669
 30
0.0
 40
3.174081999999999
 50
292.12794300000002
 51
299.42807400000009
  0
ARC
  5
E9
  8
0
  6
AIGENLINE003
 62
     7
 10
146.94583700000001
 20
123.16929500000001
 30
0.0
 40
1.2659869999999991
 50
279.37985400000002
 51
291.24861299999998
  0
ARC
  5
EA
  8
0
  6
AIGENLINE003
 62
     7
 10
147.024843
 20
122.760265
 30
0.0
 40
0.8496249999999999
 50
270.11716200000001
 51
278.61866500000002
  0
LINE
  5
EB
  8
0
  6
AIGENLINE003
 62
     7
 10
147.02699999999999
 20
121.911
 30
0.0
 11
146.566
 21
121.911
 31
0.0
  0
LINE
  5
EC
  8
0
  6
AIGENLINE003
 62
     7
 10
140.43100000000001
 20
120.89
 30
0.0
 11
142.77799999999999
 21
120.89
 31
0.0
  0
ARC
  5
ED
  8
0
  6
AIGENLINE003
 62
     7
 10
139.970842
 20
120.67437099999999
 30
0.0
 40
0.5072700000000001
 50
0.368674
 51
49.850467000000009
  0
LINE
  5
EE
  8
0
  6
AIGENLINE003
 62
     7
 10
140.47800000000001
 20
120.678
 30
0.0
 11
140.47800000000001
 21
119.411
 31
0.0
  0
ARC
  5
EF
  8
0
  6
AIGENLINE003
 62
     7
 10
166.533413
 20
129.152627
 30
0.0
 40
0.258429
 50
91.121195
 51
153.390625
  0
ARC
  5
F0
  8
0
  6
AIGENLINE003
 62
     7
 10
144.811207
 20
139.86061799999999
 30
0.0
 40
23.959654
 50
328.85047200000002
 51
333.76292000000001
  0
ARC
  5
F1
  8
0
  6
AIGENLINE003
 62
     7
 10
119.022711
 20
129.152627
 30
0.0
 40
0.258429
 50
26.609355000000001
 51
88.878786000000005
  0
LINE
  5
F2
  8
0
  6
AIGENLINE003
 62
     7
 10
142.77799999999999
 20
121.911
 30
0.0
 11
138.99000000000001
 21
121.911
 31
0.0
  0
ARC
  5
F3
  8
0
  6
AIGENLINE003
 62
     7
 10
124.021868
 20
119.142207
 30
0.0
 40
0.626551
 50
87.421087999999997
 51
151.42715999999999
  0
LINE
  5
F4
  8
0
  6
AIGENLINE003
 62
     7
 10
125.334
 20
119.768
 30
0.0
 11
124.05
 21
119.768
 31
0.0
  0
ARC
  5
F5
  8
0
  6
AIGENLINE003
 62
     7
 10
125.30741500000001
 20
120.593581
 30
0.0
 40
0.8258979999999999
 50
271.87237099999999
 51
347.37390599999998
  0
LINE
  5
F6
  8
0
  6
AIGENLINE003
 62
     7
 10
139.65899999999999
 20
120.578
 30
0.0
 11
139.76499999999999
 21
119.411
 31
0.0
  0
LINE
  5
F7
  8
0
  6
AIGENLINE003
 62
     7
 10
140.298
 20
121.062
 30
0.0
 11
139.5
 21
121.726
 31
0.0
  0
ARC
  5
F8
  8
0
  6
AIGENLINE003
 62
     7
 10
138.98473899999999
 20
121.102093
 30
0.0
 40
0.8089109999999999
 50
50.429892000000002
 51
89.616313000000005
  0
ARC
  5
F9
  8
0
  6
AIGENLINE003
 62
     7
 10
126.930238
 20
121.19601
 30
0.0
 40
0.512607
 50
85.032995999999997
 51
152.530868
  0
ARC
  5
FA
  8
0
  6
AIGENLINE003
 62
     7
 10
139.14565200000001
 20
120.51591500000001
 30
0.0
 40
0.5169100000000002
 50
6.867801
 51
87.912727000000004
  0
ARC
  5
FB
  8
0
  6
AIGENLINE003
 62
     7
 10
139.925725
 20
249.080341
 30
0.0
 40
128.03037900000001
 50
264.19423999999998
 51
267.57472999999999
  0
ARC
  5
FC
  8
0
  6
AIGENLINE003
 62
     7
 10
140.90996899999999
 20
264.63076999999998
 30
0.0
 40
143.60889599999999
 50
267.44493499999999
 51
269.30359299999998
  0
ARC
  5
FD
  8
0
  6
AIGENLINE003
 62
     7
 10
138.99917600000001
 20
237.12729400000001
 30
0.0
 40
115.196354
 50
264.248852
 51
267.80394100000001
  0
ARC
  5
FE
  8
0
  6
AIGENLINE003
 62
     7
 10
139.852587
 20
251.09732600000001
 30
0.0
 40
129.18921800000001
 50
267.66314499999999
 51
269.61751600000002
  0
ARC
  5
FF
  8
0
  6
AIGENLINE003
 62
     7
 10
121.57669799999999
 20
124.01813300000001
 30
0.0
 40
0.208142
 50
50.126511000000001
 51
135.73766800000001
  0
ARC
  5
100
  8
0
  6
AIGENLINE003
 62
     7
 10
121.579736
 20
124.02841600000001
 30
0.0
 40
0.203362
 50
138.410943
 51
198.282569
  0
ARC
  5
101
  8
0
  6
AIGENLINE003
 62
     7
 10
125.51459800000001
 20
121.821448
 30
0.0
 40
0.207597
 50
320.64644900000002
 51
46.610615000000003
  0
ARC
  5
102
  8
0
  6
AIGENLINE003
 62
     7
 10
125.52448699999999
 20
121.82027600000001
 30
0.0
 40
0.201814
 50
48.880090000000003
 51
73.717489
  0
ARC
  5
103
  8
0
  6
AIGENLINE003
 62
     7
 10
128.38128
 20
131.56752700000001
 30
0.0
 40
9.9554569999999991
 50
227.92529300000001
 51
253.66376199999999
  0
ARC
  5
104
  8
0
  6
AIGENLINE003
 62
     7
 10
128.41375600000001
 20
131.630799
 30
0.0
 40
9.1702159999999981
 50
219.97072199999999
 51
264.00221400000009
  0
ARC
  5
105
  8
0
  6
AIGENLINE003
 62
     7
 10
140.98893699999999
 20
139.99397300000001
 30
0.0
 40
24.237490999999999
 50
206.26484600000009
 51
216.02235200000001
  0
ARC
  5
106
  8
0
  6
AIGENLINE003
 62
     7
 10
125.102098
 20
120.82562
 30
0.0
 40
0.206671
 50
271.93856099999999
 51
347.33261800000002
  0
LINE
  5
107
  8
0
  6
AIGENLINE003
 62
     7
 10
125.304
 20
120.78
 30
0.0
 11
125.35599999999999
 21
121.044
 31
0.0
  0
LINE
  5
108
  8
0
  6
AIGENLINE003
 62
     7
 10
123.90900000000001
 20
120.61
 30
0.0
 11
125.10899999999999
 21
120.619
 31
0.0
  0
ARC
  5
109
  8
0
  6
AIGENLINE003
 62
     7
 10
122.83460100000001
 20
120.380669
 30
0.0
 40
0.207405
 50
201.02688800000001
 51
286.90519499999999
  0
ARC
  5
10A
  8
0
  6
AIGENLINE003
 62
     7
 10
122.82871900000001
 20
120.37514299999999
 30
0.0
 40
0.203957
 50
288.93794600000001
 51
313.98467199999999
  0
ARC
  5
10B
  8
0
  6
AIGENLINE003
 62
     7
 10
123.91166200000001
 20
119.259563
 30
0.0
 40
1.3508059999999991
 50
88.878783999999996
 51
134.17434700000001
  0
LINE
  5
10C
  8
0
  6
AIGENLINE003
 62
     7
 10
121.387
 20
123.965
 30
0.0
 11
122.64100000000001
 21
120.306
 31
0.0
  0
ARC
  5
10D
  8
0
  6
AIGENLINE003
 62
     7
 10
130.470338
 20
119.43950700000001
 30
0.0
 40
4.4644389999999987
 50
153.48664299999999
 51
167.40450999999999
  0
ARC
  5
10E
  8
0
  6
AIGENLINE003
 62
     7
 10
126.721165
 20
120.770865
 30
0.0
 40
1.39236
 50
138.70082600000001
 51
168.70782800000001
  0
ARC
  5
10F
  8
0
  6
AIGENLINE003
 62
     7
 10
161.240205
 20
124.265045
 30
0.0
 40
0.145737
 50
23.390696999999999
 51
89.092818999999992
  0
ARC
  5
110
  8
0
  6
AIGENLINE003
 62
     7
 10
161.130259
 20
124.209119
 30
0.0
 40
0.268959
 50
7.6039409999999998
 51
25.027304999999998
  0
LINE
  5
111
  8
0
  6
AIGENLINE003
 62
     7
 10
160.52799999999999
 20
124.411
 30
0.0
 11
161.24299999999999
 21
124.411
 31
0.0
  0
LINE
  5
112
  8
0
  6
AIGENLINE003
 62
     7
 10
162.078
 20
119.411
 30
0.0
 11
161.39699999999999
 21
124.245
 31
0.0
  0
LINE
  5
113
  8
0
 62
     7
 10
160.49000000000001
 20
137.483
 30
0.0
 11
158.27799999999999
 21
136.88999999999999
 31
0.0
  0
LINE
  5
114
  8
0
 62
     7
 10
158.27799999999999
 20
136.88999999999999
 30
0.0
 11
160.49000000000001
 21
136.298
 31
0.0
  0
LINE
  5
115
  8
0
 62
     7
 10
160.49000000000001
 20
136.298
 30
0.0
 11
160.49000000000001
 21
137.483
 31
0.0
  0
LINE
  5
116
  8
0
 62
     7
 10
164.56700000000001
 20
136.31200000000001
 30
0.0
 11
166.77799999999999
 21
136.905
 31
0.0
  0
LINE
  5
117
  8
0
 62
     7
 10
166.77799999999999
 20
136.905
 30
0.0
 11
164.56700000000001
 21
137.49700000000001
 31
0.0
  0
LINE
  5
118
  8
0
 62
     7
 10
164.56700000000001
 20
137.49700000000001
 30
0.0
 11
164.56700000000001
 21
136.31200000000001
 31
0.0
  0
LINE
  5
119
  8
0
 62
     7
 10
158.27799999999999
 20
136.89699999999999
 30
0.0
 11
166.77699999999999
 21
136.89699999999999
 31
0.0
  0
LINE
  5
11A
  8
0
 62
     7
 10
158.27799999999999
 20
130.935
 30
0.0
 11
158.27799999999999
 21
137.59
 31
0.0
  0
LINE
  5
11B
  8
0
 62
     7
 10
166.77799999999999
 20
130.291
 30
0.0
 11
166.77799999999999
 21
137.60499999999999
 31
0.0
  0
LINE
  5
11C
  8
0
 62
     7
 10
98.031499999999994
 20
221.261
 30
0.0
 11
98.624099999999999
 21
219.04900000000001
 31
0.0
  0
LINE
  5
11D
  8
0
 62
     7
 10
98.624099999999999
 20
219.04900000000001
 30
0.0
 11
99.216600000000014
 21
221.261
 31
0.0
  0
LINE
  5
11E
  8
0
 62
     7
 10
99.216600000000014
 20
221.261
 30
0.0
 11
98.031499999999994
 21
221.261
 31
0.0
  0
LINE
  5
11F
  8
0
 62
     7
 10
99.202200000000005
 20
225.33799999999999
 30
0.0
 11
98.6096
 21
227.54900000000001
 31
0.0
  0
LINE
  5
120
  8
0
 62
     7
 10
98.6096
 20
227.54900000000001
 30
0.0
 11
98.017000000000024
 21
225.33799999999999
 31
0.0
  0
LINE
  5
121
  8
0
 62
     7
 10
98.017000000000024
 20
225.33799999999999
 30
0.0
 11
99.202200000000005
 21
225.33799999999999
 31
0.0
  0
LINE
  5
122
  8
0
 62
     7
 10
98.617199999999997
 20
219.04900000000001
 30
0.0
 11
98.617199999999997
 21
227.548
 31
0.0
  0
LINE
  5
123
  8
0
 62
     7
 10
99.315200000000004
 20
219.04900000000001
 30
0.0
 11
78.957300000000004
 21
219.04900000000001
 31
0.0
  0
LINE
  5
124
  8
0
 62
     7
 10
99.315200000000004
 20
227.54900000000001
 30
0.0
 11
78.229799999999997
 21
227.54900000000001
 31
0.0
  0
ARC
  5
125
  8
0
 62
     7
 10
74.606081000000003
 20
219.04916900000001
 30
0.0
 40
2.2500059999999991
 50
270.00002000000001
 51
359.99999000000003
  0
ARC
  5
126
  8
0
 62
     7
 10
74.606081000000003
 20
219.04916800000001
 30
0.0
 40
2.2500059999999991
 50
179.99996999999999
 51
270.00002000000001
  0
ARC
  5
127
  8
0
 62
     7
 10
74.606082000000001
 20
219.04916800000001
 30
0.0
 40
2.2500059999999991
 50
90.0
 51
179.99996999999999
  0
ARC
  5
128
  8
0
 62
     7
 10
74.606081000000003
 20
219.04916800000001
 30
0.0
 40
2.2500059999999991
 50
0.00001
 51
89.999980000000008
  0
ARC
  5
129
  8
0
 62
     7
 10
74.616932999999989
 20
203.54924199999999
 30
0.0
 40
3.7500110000000002
 50
270.00002000000001
 51
359.99999000000003
  0
ARC
  5
12A
  8
0
 62
     7
 10
74.616932999999989
 20
203.54924099999999
 30
0.0
 40
3.750008999999999
 50
179.99996999999999
 51
270.00002000000001
  0
ARC
  5
12B
  8
0
 62
     7
 10
74.616934000000001
 20
203.54924099999999
 30
0.0
 40
3.7500110000000002
 50
90.0
 51
179.99996999999999
  0
ARC
  5
12C
  8
0
 62
     7
 10
74.616932999999989
 20
203.54924099999999
 30
0.0
 40
3.7500110000000002
 50
0.00001
 51
89.999980000000008
  0
LINE
  5
12D
  8
0
 62
     7
 10
96.405400000000014
 20
165.40299999999999
 30
0.0
 11
98.617199999999997
 21
164.81
 31
0.0
  0
LINE
  5
12E
  8
0
 62
     7
 10
98.617199999999997
 20
164.81
 30
0.0
 11
96.405400000000014
 21
164.21799999999999
 31
0.0
  0
LINE
  5
12F
  8
0
 62
     7
 10
96.405400000000014
 20
164.21799999999999
 30
0.0
 11
96.405400000000014
 21
165.40299999999999
 31
0.0
  0
LINE
  5
130
  8
0
 62
     7
 10
52.828600000000002
 20
165.40299999999999
 30
0.0
 11
50.616900000000001
 21
164.81
 31
0.0
  0
LINE
  5
131
  8
0
 62
     7
 10
50.616900000000001
 20
164.81
 30
0.0
 11
52.828600000000002
 21
164.21799999999999
 31
0.0
  0
LINE
  5
132
  8
0
 62
     7
 10
52.828600000000002
 20
164.21799999999999
 30
0.0
 11
52.828600000000002
 21
165.40299999999999
 31
0.0
  0
LINE
  5
133
  8
0
 62
     7
 10
50.616900000000001
 20
164.81
 30
0.0
 11
98.617199999999997
 21
164.81
 31
0.0
  0
LINE
  5
134
  8
0
 62
     7
 10
95.905299999999997
 20
172.40299999999999
 30
0.0
 11
98.117099999999994
 21
171.81
 31
0.0
  0
LINE
  5
135
  8
0
 62
     7
 10
98.117099999999994
 20
171.81
 30
0.0
 11
95.905299999999997
 21
171.21799999999999
 31
0.0
  0
LINE
  5
136
  8
0
 62
     7
 10
95.905299999999997
 20
171.21799999999999
 30
0.0
 11
95.905299999999997
 21
172.40299999999999
 31
0.0
  0
LINE
  5
137
  8
0
 62
     7
 10
53.328699999999991
 20
172.40299999999999
 30
0.0
 11
51.116900000000001
 21
171.81
 31
0.0
  0
LINE
  5
138
  8
0
 62
     7
 10
51.116900000000001
 20
171.81
 30
0.0
 11
53.328699999999991
 21
171.21799999999999
 31
0.0
  0
LINE
  5
139
  8
0
 62
     7
 10
53.328699999999991
 20
171.21799999999999
 30
0.0
 11
53.328699999999991
 21
172.40299999999999
 31
0.0
  0
LINE
  5
13A
  8
0
 62
     7
 10
51.116900000000001
 20
171.81
 30
0.0
 11
98.117099999999994
 21
171.81
 31
0.0
  0
LINE
  5
13B
  8
0
 62
     7
 10
98.617199999999997
 20
198.13
 30
0.0
 11
98.617199999999997
 21
164.10499999999999
 31
0.0
  0
LINE
  5
13C
  8
0
 62
     7
 10
98.117099999999994
 20
196.32300000000001
 30
0.0
 11
98.117099999999994
 21
171.10499999999999
 31
0.0
  0
LINE
  5
13D
  8
0
 62
     7
 10
51.116900000000001
 20
196.32300000000001
 30
0.0
 11
51.116900000000001
 21
171.10499999999999
 31
0.0
  0
LINE
  5
13E
  8
0
 62
     7
 10
50.616900000000001
 20
198.13
 30
0.0
 11
50.616900000000001
 21
164.10499999999999
 31
0.0
  0
ARC
  5
13F
  8
0
 62
     7
 10
74.616928999999999
 20
203.54924600000001
 30
0.0
 40
24.000069
 50
270.00002000000001
 51
359.99999000000003
  0
ARC
  5
140
  8
0
 62
     7
 10
74.616928999999999
 20
203.54923700000001
 30
0.0
 40
24.000060999999999
 50
179.99996999999999
 51
270.00002000000001
  0
ARC
  5
141
  8
0
 62
     7
 10
74.616938000000005
 20
203.54923700000001
 30
0.0
 40
24.000069
 50
90.0
 51
179.99996999999999
  0
ARC
  5
142
  8
0
 62
     7
 10
74.616928999999999
 20
203.54923700000001
 30
0.0
 40
24.000069
 50
0.00001
 51
89.999980000000008
  0
ARC
  5
143
  8
0
 62
     7
 10
74.616928999999999
 20
203.54924500000001
 30
0.0
 40
23.500181999999999
 50
270.00002000000001
 51
359.99999000000003
  0
ARC
  5
144
  8
0
 62
     7
 10
74.616928999999999
 20
203.54923700000001
 30
0.0
 40
23.500174000000001
 50
179.99996999999999
 51
270.00002000000001
  0
ARC
  5
145
  8
0
 62
     7
 10
74.616938000000005
 20
203.54923700000001
 30
0.0
 40
23.500181999999999
 50
90.0
 51
179.99996999999999
  0
ARC
  5
146
  8
0
 62
     7
 10
74.616928999999999
 20
203.54923700000001
 30
0.0
 40
23.500181999999999
 50
0.00001
 51
89.999980000000008
  0
ARC
  5
147
  8
0
  6
AIGENLINE003
 62
     7
 10
163.88144399999999
 20
128.40664100000001
 30
0.0
 40
3.3895879999999989
 50
188.414053
 51
201.542339
  0
ARC
  5
148
  8
0
  6
AIGENLINE003
 62
     7
 10
163.735041
 20
128.41687200000001
 30
0.0
 40
3.2577829999999999
 50
202.65522200000001
 51
209.93181200000001
  0
ARC
  5
149
  8
0
  6
AIGENLINE003
 62
     7
 10
163.43993599999999
 20
128.18219999999999
 30
0.0
 40
2.885491
 50
208.817341
 51
211.61682500000001
  0
ARC
  5
14A
  8
0
  6
AIGENLINE003
 62
     7
 10
161.76984300000001
 20
127.165075
 30
0.0
 40
0.930118
 50
212.193771
 51
260.14547599999997
  0
ARC
  5
14B
  8
0
  6
AIGENLINE003
 62
     7
 10
161.99231399999999
 20
128.119832
 30
0.0
 40
1.9096789999999999
 50
258.47152599999998
 51
271.081052
  0
ARC
  5
14C
  8
0
  6
AIGENLINE003
 62
     7
 10
162.03730200000001
 20
148.288015
 30
0.0
 40
22.077522999999999
 50
269.97676200000001
 51
270.94034299999998
  0
ARC
  5
14D
  8
0
  6
AIGENLINE003
 62
     7
 10
162.259412
 20
133.09590600000001
 30
0.0
 40
6.8838689999999989
 50
271.16706699999997
 51
278.463731
  0
ARC
  5
14E
  8
0
  6
AIGENLINE003
 62
     7
 10
162.620588
 20
130.41538499999999
 30
0.0
 40
4.1795479999999996
 50
278.97485899999998
 51
291.41279800000001
  0
ARC
  5
14F
  8
0
  6
AIGENLINE003
 62
     7
 10
163.10435200000001
 20
129.07890399999999
 30
0.0
 40
2.7589599999999992
 50
292.19276100000002
 51
311.94294000000002
  0
ARC
  5
150
  8
0
  6
AIGENLINE003
 62
     7
 10
163.38242
 20
128.70969500000001
 30
0.0
 40
2.298827999999999
 50
312.93860599999999
 51
327.27487500000001
  0
LINE
  5
151
  8
0
  6
AIGENLINE003
 62
     7
 10
160.02799999999999
 20
127.911
 30
0.0
 11
160.52799999999999
 21
124.411
 31
0.0
  0
LINE
  5
152
  8
0
  6
AIGENLINE003
 62
     7
 10
156.52799999999999
 20
127.911
 30
0.0
 11
156.02799999999999
 21
124.411
 31
0.0
  0
LINE
  5
153
  8
0
  6
AIGENLINE003
 62
     7
 10
160.52799999999999
 20
124.411
 30
0.0
 11
156.02799999999999
 21
124.411
 31
0.0
  0
LINE
  5
154
  8
0
  6
AIGENLINE003
 62
     7
 10
160.52799999999999
 20
127.911
 30
0.0
 11
156.02799999999999
 21
127.911
 31
0.0
  0
ARC
  5
155
  8
0
  6
AIGENLINE003
 62
     7
 10
152.834677
 20
128.14007100000001
 30
0.0
 40
3.2057349999999989
 50
321.418837
 51
331.53047199999997
  0
ARC
  5
156
  8
0
  6
AIGENLINE003
 62
     7
 10
153.22139200000001
 20
127.889617
 30
0.0
 40
2.7466300000000001
 50
332.27777300000002
 51
344.809864
  0
ARC
  5
157
  8
0
  6
AIGENLINE003
 62
     7
 10
151.587301
 20
128.37794600000001
 30
0.0
 40
4.451789999999999
 50
344.25517300000001
 51
347.32761900000003
  0
ARC
  5
158
  8
0
  6
AIGENLINE003
 62
     7
 10
147.855064
 20
129.20305400000001
 30
0.0
 40
8.2741319999999998
 50
347.422866
 51
351.01377200000002
  0
LINE
  5
159
  8
0
  6
AIGENLINE002
 62
     7
 10
158.27799999999999
 20
122.709
 30
0.0
 11
158.27799999999999
 21
130.23500000000001
 31
0.0
  0
LINE
  5
15A
  8
0
 62
     7
 10
137.02799999999999
 20
113.911
 30
0.0
 11
136.77799999999999
 21
113.911
 31
0.0
  0
LINE
  5
15B
  8
0
 62
     7
 10
137.02799999999999
 20
114.911
 30
0.0
 11
137.02799999999999
 21
113.911
 31
0.0
  0
LINE
  5
15C
  8
0
 62
     7
 10
137.678
 20
115.31100000000001
 30
0.0
 11
137.678
 21
115.411
 31
0.0
  0
LINE
  5
15D
  8
0
 62
     7
 10
137.52799999999999
 20
114.911
 30
0.0
 11
136.77799999999999
 21
114.911
 31
0.0
  0
LINE
  5
15E
  8
0
 62
     7
 10
137.678
 20
115.31
 30
0.0
 11
136.77799999999999
 21
115.31
 31
0.0
  0
LINE
  5
15F
  8
0
 62
     7
 10
137.678
 20
115.411
 30
0.0
 11
136.77799999999999
 21
115.411
 31
0.0
  0
LINE
  5
160
  8
0
 62
     7
 10
137.52799999999999
 20
115.31
 30
0.0
 11
137.52799999999999
 21
114.911
 31
0.0
  0
LINE
  5
161
  8
0
 62
     7
 10
137.02799999999999
 20
119.411
 30
0.0
 11
137.02799999999999
 21
115.411
 31
0.0
  0
LINE
  5
162
  8
0
 62
     7
 10
136.52799999999999
 20
113.911
 30
0.0
 11
136.77799999999999
 21
113.911
 31
0.0
  0
LINE
  5
163
  8
0
 62
     7
 10
136.52799999999999
 20
114.911
 30
0.0
 11
136.52799999999999
 21
113.911
 31
0.0
  0
LINE
  5
164
  8
0
 62
     7
 10
135.87799999999999
 20
115.31100000000001
 30
0.0
 11
135.87799999999999
 21
115.411
 31
0.0
  0
LINE
  5
165
  8
0
 62
     7
 10
136.02799999999999
 20
114.911
 30
0.0
 11
136.77799999999999
 21
114.911
 31
0.0
  0
LINE
  5
166
  8
0
 62
     7
 10
135.87799999999999
 20
115.31
 30
0.0
 11
136.77799999999999
 21
115.31
 31
0.0
  0
LINE
  5
167
  8
0
 62
     7
 10
135.87799999999999
 20
115.411
 30
0.0
 11
136.77799999999999
 21
115.411
 31
0.0
  0
LINE
  5
168
  8
0
 62
     7
 10
136.02799999999999
 20
115.31
 30
0.0
 11
136.02799999999999
 21
114.911
 31
0.0
  0
LINE
  5
169
  8
0
 62
     7
 10
136.52799999999999
 20
119.411
 30
0.0
 11
136.52799999999999
 21
115.411
 31
0.0
  0
ARC
  5
16A
  8
0
  6
AIGENLINE003
 62
     7
 10
78.675105000000002
 20
127.87123699999999
 30
0.0
 40
1.824783
 50
178.76209800000001
 51
231.924499
  0
LINE
  5
16B
  8
0
  6
AIGENLINE003
 62
     7
 10
76.350700000000003
 20
127.911
 30
0.0
 11
76.350700000000003
 21
125.446
 31
0.0
  0
LINE
  5
16C
  8
0
  6
AIGENLINE003
 62
     7
 10
72.850399999999993
 20
127.911
 30
0.0
 11
72.850399999999993
 21
125.446
 31
0.0
  0
LINE
  5
16D
  8
0
  6
AIGENLINE003
 62
     7
 10
76.850700000000003
 20
127.911
 30
0.0
 11
72.350399999999993
 21
127.911
 31
0.0
  0
ARC
  5
16E
  8
0
  6
AIGENLINE003
 62
     7
 10
70.52521999999999
 20
127.871622
 30
0.0
 40
1.825588
 50
308.088167
 51
1.2252359999999991
  0
ARC
  5
16F
  8
0
 62
     7
 10
166.471844
 20
129.18052399999999
 30
0.0
 40
0.306912
 50
344.63915200000002
 51
356.33240899999998
  0
ARC
  5
170
  8
0
 62
     7
 10
166.51869500000001
 20
129.151217
 30
0.0
 40
0.259612
 50
2.1355430000000002
 51
87.943421999999998
  0
LINE
  5
171
  8
0
 62
     7
 10
166.52799999999999
 20
129.411
 30
0.0
 11
119.027
 21
129.411
 31
0.0
  0
ARC
  5
172
  8
0
 62
     7
 10
119.037064
 20
129.150892
 30
0.0
 40
0.259949
 50
92.125431000000006
 51
177.7955649999999
  0
ARC
  5
173
  8
0
 62
     7
 10
119.043254
 20
129.174644
 30
0.0
 40
0.266302
 50
182.9602129999999
 51
200.51696699999999
  0
LINE
  5
174
  8
0
 62
     7
 10
118.794
 20
129.08099999999999
 30
0.0
 11
122.27800000000001
 21
119.411
 31
0.0
  0
LINE
  5
175
  8
0
 62
     7
 10
122.27800000000001
 20
119.411
 30
0.0
 11
163.27799999999999
 21
119.411
 31
0.0
  0
LINE
  5
176
  8
0
 62
     7
 10
163.27799999999999
 20
119.411
 30
0.0
 11
166.768
 21
129.09899999999999
 31
0.0
  0
ARC
  5
177
  8
0
 62
     7
 10
98.322447999999994
 20
129.17737
 30
0.0
 40
0.279017
 50
343.735255
 51
356.614193
  0
ARC
  5
178
  8
0
 62
     7
 10
98.341546999999991
 20
129.151217
 30
0.0
 40
0.259612
 50
2.1355430000000002
 51
87.943421999999998
  0
LINE
  5
179
  8
0
 62
     7
 10
98.350899999999996
 20
129.411
 30
0.0
 11
50.849899999999998
 21
129.411
 31
0.0
  0
ARC
  5
17A
  8
0
 62
     7
 10
50.859586
 20
129.15123600000001
 30
0.0
 40
0.259606
 50
92.131348999999986
 51
177.86862099999999
  0
ARC
  5
17B
  8
0
 62
     7
 10
50.866106000000002
 20
129.174644
 30
0.0
 40
0.266302
 50
182.9602129999999
 51
200.51696699999999
  0
LINE
  5
17C
  8
0
 62
     7
 10
50.616700000000002
 20
129.08099999999999
 30
0.0
 11
54.100200000000001
 21
119.411
 31
0.0
  0
LINE
  5
17D
  8
0
 62
     7
 10
54.100200000000001
 20
119.411
 30
0.0
 11
95.100600000000014
 21
119.411
 31
0.0
  0
LINE
  5
17E
  8
0
 62
     7
 10
95.100600000000014
 20
119.411
 30
0.0
 11
98.590299999999999
 21
129.09899999999999
 31
0.0
  0
LINE
  5
17F
  8
0
 62
     7
 10
130.191
 20
215.44999999999999
 30
0.0
 11
127.905
 21
215.34
 31
0.0
  0
LINE
  5
180
  8
0
 62
     7
 10
127.905
 20
215.34
 30
0.0
 11
129.94
 21
214.29300000000001
 31
0.0
  0
LINE
  5
181
  8
0
 62
     7
 10
129.94
 20
214.29300000000001
 30
0.0
 11
130.191
 21
215.44999999999999
 31
0.0
  0
LINE
  5
182
  8
0
 62
     7
 10
131.81800000000001
 20
214.50999999999999
 30
0.0
 11
123.246
 21
216.32900000000001
 31
0.0
  0
LINE
  5
183
  8
0
 62
     7
 10
155.61699999999999
 20
214.50800000000001
 30
0.0
 11
157.541
 21
215.74700000000001
 31
0.0
  0
LINE
  5
184
  8
0
 62
     7
 10
157.541
 20
215.74700000000001
 30
0.0
 11
155.256
 21
215.636
 31
0.0
  0
LINE
  5
185
  8
0
 62
     7
 10
155.256
 20
215.636
 30
0.0
 11
155.61699999999999
 21
214.50800000000001
 31
0.0
  0
LINE
  5
186
  8
0
 62
     7
 10
153.738
 20
214.50999999999999
 30
0.0
 11
162.102
 21
217.22399999999999
 31
0.0
  0
LINE
  5
187
  8
0
 62
     7
 10
165.99199999999999
 20
199.761
 30
0.0
 11
166.584
 21
197.54900000000001
 31
0.0
  0
LINE
  5
188
  8
0
 62
     7
 10
166.584
 20
197.54900000000001
 30
0.0
 11
167.17699999999999
 21
199.761
 31
0.0
  0
LINE
  5
189
  8
0
 62
     7
 10
167.17699999999999
 20
199.761
 30
0.0
 11
165.99199999999999
 21
199.761
 31
0.0
  0
LINE
  5
18A
  8
0
 62
     7
 10
167.16200000000001
 20
201.33699999999999
 30
0.0
 11
166.56999999999999
 21
203.54900000000001
 31
0.0
  0
LINE
  5
18B
  8
0
 62
     7
 10
166.56999999999999
 20
203.54900000000001
 30
0.0
 11
165.977
 21
201.33699999999999
 31
0.0
  0
LINE
  5
18C
  8
0
 62
     7
 10
165.977
 20
201.33699999999999
 30
0.0
 11
167.16200000000001
 21
201.33699999999999
 31
0.0
  0
LINE
  5
18D
  8
0
 62
     7
 10
166.577
 20
197.55000000000001
 30
0.0
 11
166.577
 21
203.548
 31
0.0
  0
LINE
  5
18E
  8
0
 62
     7
 10
77.820899999999995
 20
221.43100000000001
 30
0.0
 11
75.837900000000005
 21
220.28700000000001
 31
0.0
  0
LINE
  5
18F
  8
0
 62
     7
 10
75.837900000000005
 20
220.28700000000001
 30
0.0
 11
76.982699999999994
 21
222.26900000000001
 31
0.0
  0
LINE
  5
190
  8
0
 62
     7
 10
76.982699999999994
 20
222.26900000000001
 30
0.0
 11
77.820899999999995
 21
221.43100000000001
 31
0.0
  0
LINE
  5
191
  8
0
 62
     7
 10
71.380399999999995
 20
216.667
 30
0.0
 11
73.363100000000003
 21
217.81200000000001
 31
0.0
  0
LINE
  5
192
  8
0
 62
     7
 10
73.363100000000003
 20
217.81200000000001
 30
0.0
 11
72.218299999999999
 21
215.82900000000001
 31
0.0
  0
LINE
  5
193
  8
0
 62
     7
 10
72.218299999999999
 20
215.82900000000001
 30
0.0
 11
71.380399999999995
 21
216.667
 31
0.0
  0
LINE
  5
194
  8
0
 62
     7
 10
79.100800000000007
 20
223.55000000000001
 30
0.0
 11
70.489500000000007
 21
214.93799999999999
 31
0.0
  0
LINE
  5
195
  8
0
 62
     7
 10
70.489500000000007
 20
214.93799999999999
 30
0.0
 11
64.453699999999998
 21
214.93799999999999
 31
0.0
  0
LINE
  5
196
  8
0
 62
     7
 10
70.989400000000003
 20
206.303
 30
0.0
 11
72.972399999999993
 21
205.15799999999999
 31
0.0
  0
LINE
  5
197
  8
0
 62
     7
 10
72.972399999999993
 20
205.15799999999999
 30
0.0
 11
71.827600000000004
 21
207.14099999999999
 31
0.0
  0
LINE
  5
198
  8
0
 62
     7
 10
71.827600000000004
 20
207.14099999999999
 30
0.0
 11
70.989400000000003
 21
206.303
 31
0.0
  0
LINE
  5
199
  8
0
 62
     7
 10
78.207599999999985
 20
200.761
 30
0.0
 11
76.224900000000005
 21
201.905
 31
0.0
  0
LINE
  5
19A
  8
0
 62
     7
 10
76.224900000000005
 20
201.905
 30
0.0
 11
77.369799999999984
 21
199.923
 31
0.0
  0
LINE
  5
19B
  8
0
 62
     7
 10
77.369799999999984
 20
199.923
 30
0.0
 11
78.207599999999985
 21
200.761
 31
0.0
  0
LINE
  5
19C
  8
0
 62
     7
 10
70.098500000000001
 20
208.03200000000001
 30
0.0
 11
79.098500000000001
 21
199.03200000000001
 31
0.0
  0
LINE
  5
19D
  8
0
 62
     7
 10
79.098500000000001
 20
199.03200000000001
 30
0.0
 11
85.108199999999997
 21
199.03200000000001
 31
0.0
  0
LINE
  5
19E
  8
0
 62
     7
 10
56.311999999999991
 20
105.15300000000001
 30
0.0
 11
54.100200000000001
 21
104.56
 31
0.0
  0
LINE
  5
19F
  8
0
 62
     7
 10
54.100200000000001
 20
104.56
 30
0.0
 11
56.311999999999991
 21
103.968
 31
0.0
  0
LINE
  5
1A0
  8
0
 62
     7
 10
56.311999999999991
 20
103.968
 30
0.0
 11
56.311999999999991
 21
105.15300000000001
 31
0.0
  0
LINE
  5
1A1
  8
0
 62
     7
 10
92.888800000000003
 20
103.982
 30
0.0
 11
95.100600000000014
 21
104.575
 31
0.0
  0
LINE
  5
1A2
  8
0
 62
     7
 10
95.100600000000014
 20
104.575
 30
0.0
 11
92.888800000000003
 21
105.167
 31
0.0
  0
LINE
  5
1A3
  8
0
 62
     7
 10
92.888800000000003
 20
105.167
 30
0.0
 11
92.888800000000003
 21
103.982
 31
0.0
  0
LINE
  5
1A4
  8
0
 62
     7
 10
54.101300000000002
 20
104.56699999999999
 30
0.0
 11
95.099199999999996
 21
104.56699999999999
 31
0.0
  0
LINE
  5
1A5
  8
0
 62
     7
 10
95.100600000000014
 20
103.86
 30
0.0
 11
95.100600000000014
 21
118.705
 31
0.0
  0
LINE
  5
1A6
  8
0
 62
     7
 10
54.100200000000001
 20
103.86
 30
0.0
 11
54.100200000000001
 21
118.705
 31
0.0
  0
LINE
  5
1A7
  8
0
 62
     7
 10
42.867100000000001
 20
113.199
 30
0.0
 11
42.274500000000003
 21
115.41
 31
0.0
  0
LINE
  5
1A8
  8
0
 62
     7
 10
42.274500000000003
 20
115.41
 30
0.0
 11
41.681999999999988
 21
113.199
 31
0.0
  0
LINE
  5
1A9
  8
0
 62
     7
 10
41.681999999999988
 20
113.199
 30
0.0
 11
42.867100000000001
 21
113.199
 31
0.0
  0
LINE
  5
1AA
  8
0
 62
     7
 10
42.282099999999993
 20
103.982
 30
0.0
 11
42.282099999999993
 21
115.41
 31
0.0
  0
LINE
  5
1AB
  8
0
 62
     7
 10
42.282099999999993
 20
115.41
 30
0.0
 11
42.282099999999993
 21
119.40900000000001
 31
0.0
  0
LINE
  5
1AC
  8
0
 62
     7
 10
141.62700000000001
 20
124.122
 30
0.0
 11
141.03399999999999
 21
121.911
 31
0.0
  0
LINE
  5
1AD
  8
0
 62
     7
 10
141.03399999999999
 20
121.911
 30
0.0
 11
140.44200000000001
 21
124.122
 31
0.0
  0
LINE
  5
1AE
  8
0
 62
     7
 10
140.44200000000001
 20
124.122
 30
0.0
 11
141.62700000000001
 21
124.122
 31
0.0
  0
LINE
  5
1AF
  8
0
 62
     7
 10
140.45599999999999
 20
127.199
 30
0.0
 11
141.04900000000001
 21
129.411
 31
0.0
  0
LINE
  5
1B0
  8
0
 62
     7
 10
141.04900000000001
 20
129.411
 30
0.0
 11
141.64099999999999
 21
127.199
 31
0.0
  0
LINE
  5
1B1
  8
0
 62
     7
 10
141.64099999999999
 20
127.199
 30
0.0
 11
140.45599999999999
 21
127.199
 31
0.0
  0
LINE
  5
1B2
  8
0
 62
     7
 10
141.041
 20
121.91200000000001
 30
0.0
 11
141.041
 21
129.40899999999999
 31
0.0
  0
LINE
  5
1B3
  8
0
 62
     7
 10
41.696399999999997
 20
121.621
 30
0.0
 11
42.288999999999987
 21
119.40900000000001
 31
0.0
  0
LINE
  5
1B4
  8
0
 62
     7
 10
42.288999999999987
 20
119.40900000000001
 30
0.0
 11
42.881500000000003
 21
121.621
 31
0.0
  0
LINE
  5
1B5
  8
0
 62
     7
 10
42.881500000000003
 20
121.621
 30
0.0
 11
41.696399999999997
 21
121.621
 31
0.0
  0
LINE
  5
1B6
  8
0
 62
     7
 10
42.867100000000001
 20
127.199
 30
0.0
 11
42.274500000000003
 21
129.411
 31
0.0
  0
LINE
  5
1B7
  8
0
 62
     7
 10
42.274500000000003
 20
129.411
 30
0.0
 11
41.681999999999988
 21
127.199
 31
0.0
  0
LINE
  5
1B8
  8
0
 62
     7
 10
41.681999999999988
 20
127.199
 30
0.0
 11
42.867100000000001
 21
127.199
 31
0.0
  0
LINE
  5
1B9
  8
0
 62
     7
 10
42.282099999999993
 20
119.411
 30
0.0
 11
42.282099999999993
 21
129.40899999999999
 31
0.0
  0
LINE
  5
1BA
  8
0
 62
     7
 10
49.933399999999992
 20
129.411
 30
0.0
 11
41.581999999999987
 21
129.411
 31
0.0
  0
LINE
  5
1BB
  8
0
 62
     7
 10
50.844900000000003
 20
115.41
 30
0.0
 11
41.581999999999987
 21
115.41
 31
0.0
  0
LINE
  5
1BC
  8
0
 62
     7
 10
53.3947
 20
119.411
 30
0.0
 11
41.581999999999987
 21
119.411
 31
0.0
  0
LINE
  5
1BD
  8
0
 62
     7
 10
91.350600000000014
 20
113.911
 30
0.0
 11
91.600700000000003
 21
113.911
 31
0.0
  0
LINE
  5
1BE
  8
0
 62
     7
 10
91.350600000000014
 20
114.911
 30
0.0
 11
91.350600000000014
 21
113.911
 31
0.0
  0
LINE
  5
1BF
  8
0
 62
     7
 10
90.700500000000005
 20
115.31100000000001
 30
0.0
 11
90.700500000000005
 21
115.411
 31
0.0
  0
LINE
  5
1C0
  8
0
 62
     7
 10
90.850699999999989
 20
114.911
 30
0.0
 11
91.600700000000003
 21
114.911
 31
0.0
  0
LINE
  5
1C1
  8
0
 62
     7
 10
90.700500000000005
 20
115.31
 30
0.0
 11
91.600700000000003
 21
115.31
 31
0.0
  0
LINE
  5
1C2
  8
0
 62
     7
 10
90.700500000000005
 20
115.411
 30
0.0
 11
91.600700000000003
 21
115.411
 31
0.0
  0
LINE
  5
1C3
  8
0
 62
     7
 10
90.850699999999989
 20
115.31
 30
0.0
 11
90.850699999999989
 21
114.911
 31
0.0
  0
LINE
  5
1C4
  8
0
 62
     7
 10
91.350600000000014
 20
119.411
 30
0.0
 11
91.350600000000014
 21
115.411
 31
0.0
  0
LINE
  5
1C5
  8
0
 62
     7
 10
91.850399999999979
 20
113.911
 30
0.0
 11
91.600700000000003
 21
113.911
 31
0.0
  0
LINE
  5
1C6
  8
0
 62
     7
 10
91.850399999999979
 20
114.911
 30
0.0
 11
91.850399999999979
 21
113.911
 31
0.0
  0
LINE
  5
1C7
  8
0
 62
     7
 10
92.350700000000003
 20
114.911
 30
0.0
 11
91.600700000000003
 21
114.911
 31
0.0
  0
LINE
  5
1C8
  8
0
 62
     7
 10
92.500499999999988
 20
115.31
 30
0.0
 11
91.600700000000003
 21
115.31
 31
0.0
  0
LINE
  5
1C9
  8
0
 62
     7
 10
92.500499999999988
 20
115.411
 30
0.0
 11
91.600700000000003
 21
115.411
 31
0.0
  0
LINE
  5
1CA
  8
0
 62
     7
 10
92.350700000000003
 20
115.31
 30
0.0
 11
92.350700000000003
 21
114.911
 31
0.0
  0
LINE
  5
1CB
  8
0
 62
     7
 10
91.850399999999979
 20
119.411
 30
0.0
 11
91.850399999999979
 21
115.411
 31
0.0
  0
LINE
  5
1CC
  8
0
 62
     7
 10
57.8506
 20
113.911
 30
0.0
 11
57.60049999999999
 21
113.911
 31
0.0
  0
LINE
  5
1CD
  8
0
 62
     7
 10
57.8506
 20
114.911
 30
0.0
 11
57.8506
 21
113.911
 31
0.0
  0
LINE
  5
1CE
  8
0
 62
     7
 10
58.500300000000003
 20
115.31100000000001
 30
0.0
 11
58.500300000000003
 21
115.411
 31
0.0
  0
LINE
  5
1CF
  8
0
 62
     7
 10
58.35049999999999
 20
114.911
 30
0.0
 11
57.60049999999999
 21
114.911
 31
0.0
  0
LINE
  5
1D0
  8
0
 62
     7
 10
58.500300000000003
 20
115.31
 30
0.0
 11
57.60049999999999
 21
115.31
 31
0.0
  0
LINE
  5
1D1
  8
0
 62
     7
 10
58.500300000000003
 20
115.411
 30
0.0
 11
57.60049999999999
 21
115.411
 31
0.0
  0
LINE
  5
1D2
  8
0
 62
     7
 10
58.35049999999999
 20
115.31
 30
0.0
 11
58.35049999999999
 21
114.911
 31
0.0
  0
LINE
  5
1D3
  8
0
 62
     7
 10
57.8506
 20
119.411
 30
0.0
 11
57.8506
 21
115.411
 31
0.0
  0
LINE
  5
1D4
  8
0
 62
     7
 10
57.3504
 20
113.911
 30
0.0
 11
57.60049999999999
 21
113.911
 31
0.0
  0
LINE
  5
1D5
  8
0
 62
     7
 10
57.3504
 20
114.911
 30
0.0
 11
57.3504
 21
113.911
 31
0.0
  0
LINE
  5
1D6
  8
0
 62
     7
 10
56.700299999999999
 20
115.31100000000001
 30
0.0
 11
56.700299999999999
 21
115.411
 31
0.0
  0
LINE
  5
1D7
  8
0
 62
     7
 10
56.850499999999997
 20
114.911
 30
0.0
 11
57.60049999999999
 21
114.911
 31
0.0
  0
LINE
  5
1D8
  8
0
 62
     7
 10
56.700299999999999
 20
115.31
 30
0.0
 11
57.60049999999999
 21
115.31
 31
0.0
  0
LINE
  5
1D9
  8
0
 62
     7
 10
56.700299999999999
 20
115.411
 30
0.0
 11
57.60049999999999
 21
115.411
 31
0.0
  0
LINE
  5
1DA
  8
0
 62
     7
 10
56.850499999999997
 20
115.31
 30
0.0
 11
56.850499999999997
 21
114.911
 31
0.0
  0
LINE
  5
1DB
  8
0
 62
     7
 10
57.3504
 20
119.411
 30
0.0
 11
57.3504
 21
115.411
 31
0.0
  0
ARC
  5
1DC
  8
0
 62
     7
 10
74.533336000000006
 20
219.116401
 30
0.0
 40
1.818595999999999
 50
272.118697
 51
357.88131299999998
  0
ARC
  5
1DD
  8
0
 62
     7
 10
74.668188999999984
 20
219.11678900000001
 30
0.0
 40
1.818997
 50
182.13044600000001
 51
267.86958299999998
  0
ARC
  5
1DE
  8
0
 62
     7
 10
74.667802000000009
 20
218.98193599999999
 30
0.0
 40
1.818595
 50
92.118660000000006
 51
177.88131000000001
  0
ARC
  5
1DF
  8
0
 62
     7
 10
74.532949000000002
 20
218.981548
 30
0.0
 40
1.818997
 50
2.1304270000000001
 51
87.869563000000014
  0
ARC
  5
1E0
  8
0
 62
     7
 10
74.616932999999989
 20
203.54941400000001
 30
0.0
 40
2.3001330000000002
 50
269.99572899999998
 51
359.995699
  0
ARC
  5
1E1
  8
0
 62
     7
 10
74.616760999999997
 20
203.54924099999999
 30
0.0
 40
2.29996
 50
179.99996999999999
 51
270.00002000000001
  0
ARC
  5
1E2
  8
0
 62
     7
 10
74.616761999999994
 20
203.54924099999999
 30
0.0
 40
2.2999610000000001
 50
90.0
 51
179.99996999999999
  0
ARC
  5
1E3
  8
0
 62
     7
 10
74.616932999999989
 20
203.549069
 30
0.0
 40
2.3001330000000002
 50
0.004301
 51
90.004271000000017
  0
LINE
  5
1E4
  8
0
  6
AIGENLINE002
 62
     7
 10
70.843299999999999
 20
219.04900000000001
 30
0.0
 11
78.251699999999985
 21
219.04900000000001
 31
0.0
  0
LINE
  5
1E5
  8
0
  6
AIGENLINE002
 62
     7
 10
74.6006
 20
222.40100000000001
 30
0.0
 11
74.6006
 21
215.52099999999999
 31
0.0
  0
LINE
  5
1E6
  8
0
  6
AIGENLINE002
 62
     7
 10
49.6004
 20
203.54900000000001
 30
0.0
 11
99.600800000000007
 21
203.54900000000001
 31
0.0
  0
LINE
  5
1E7
  8
0
  6
AIGENLINE002
 62
     7
 10
74.6006
 20
228.54900000000001
 30
0.0
 11
74.6006
 21
178.54900000000001
 31
0.0
  0
TEXT
  5
1E8
  8
_________2
 62
     7
 10
28.83196533333334
 20
49.456400000000002
 30
0.0
 40
4.4979399999999989
  1
セラトレーディング株式会社
 41
0.5
 72
     1
 11
46.22399999999999
 21
49.456400000000002
 31
0.0
  0
TEXT
  5
1E9
  8
_________2
 62
     7
 10
29.525700000000001
 20
22.2272
 30
0.0
 40
3.9357000000000002
  1
重量：5.7kg、オーバーフローなし
 41
0.5
  0
TEXT
  5
1EA
  8
_________2
 62
     7
 10
113.886
 20
45.745600000000003
 30
0.0
 40
3.9357000000000002
  1
ケープコッド 洗面器
 41
0.5
  0
LINE
  5
1EB
  8
_________2
 62
     7
 10
105.239
 20
17.4285
 30
0.0
 11
105.239
 21
0.4485540000000001
 31
0.0
  0
LINE
  5
1EC
  8
_________2
 62
     7
 10
81.679900000000004
 20
51.324300000000001
 30
0.0
 11
79.493700000000004
 21
51.324300000000001
 31
0.0
  0
LINE
  5
1ED
  8
_________2
 62
     7
 10
82.172600000000017
 20
51.324300000000001
 30
0.0
 11
81.920400000000001
 21
51.324300000000001
 31
0.0
  0
LINE
  5
1EE
  8
_________2
 62
     7
 10
82.665199999999984
 20
51.324300000000001
 30
0.0
 11
85.590100000000007
 21
51.324300000000001
 31
0.0
  0
LINE
  5
1EF
  8
_________2
 62
     7
 10
82.172600000000017
 20
51.324300000000001
 30
0.0
 11
82.424800000000005
 21
51.324300000000001
 31
0.0
  0
LINE
  5
1F0
  8
_________2
 62
     7
 10
75.776399999999995
 20
51.324300000000001
 30
0.0
 11
73.589399999999998
 21
51.324300000000001
 31
0.0
  0
LINE
  5
1F1
  8
_________2
 62
     7
 10
76.2684
 20
51.324300000000001
 30
0.0
 11
76.016900000000007
 21
51.324300000000001
 31
0.0
  0
LINE
  5
1F2
  8
_________2
 62
     7
 10
76.2684
 20
51.817
 30
0.0
 11
76.2684
 21
54.003900000000002
 31
0.0
  0
LINE
  5
1F3
  8
_________2
 62
     7
 10
76.2684
 20
51.324300000000001
 30
0.0
 11
76.2684
 21
51.576900000000002
 31
0.0
  0
LINE
  5
1F4
  8
_________2
 62
     7
 10
76.76100000000001
 20
51.324300000000001
 30
0.0
 11
78.947999999999993
 21
51.324300000000001
 31
0.0
  0
LINE
  5
1F5
  8
_________2
 62
     7
 10
76.2684
 20
51.324300000000001
 30
0.0
 11
76.520499999999998
 21
51.324300000000001
 31
0.0
  0
LINE
  5
1F6
  8
_________2
 62
     7
 10
76.2684
 20
50.832399999999993
 30
0.0
 11
76.2684
 21
48.645699999999998
 31
0.0
  0
LINE
  5
1F7
  8
_________2
 62
     7
 10
76.2684
 20
51.324300000000001
 30
0.0
 11
76.2684
 21
51.072800000000001
 31
0.0
  0
LINE
  5
1F8
  8
_________2
 62
     7
 10
79.979399999999984
 20
50.104799999999997
 30
0.0
 11
85.157399999999996
 21
49.240000000000002
 31
0.0
  0
LINE
  5
1F9
  8
_________2
 62
     7
 10
79.979399999999984
 20
52.544199999999989
 30
0.0
 11
85.157399999999996
 21
53.409700000000001
 31
0.0
  0
LINE
  5
1FA
  8
_________2
 62
     7
 10
85.157399999999996
 20
49.240000000000002
 30
0.0
 11
85.157399999999996
 21
53.409700000000001
 31
0.0
  0
LINE
  5
1FB
  8
_________2
 62
     7
 10
79.979399999999984
 20
50.104799999999997
 30
0.0
 11
79.979399999999984
 21
52.544199999999989
 31
0.0
  0
ARC
  5
1FC
  8
_________2
 62
     7
 10
76.221766000000002
 20
51.277380999999998
 30
0.0
 40
1.267714
 50
2.1220840000000001
 51
87.894083999999992
  0
ARC
  5
1FD
  8
_________2
 62
     7
 10
76.315297000000001
 20
51.277734999999993
 30
0.0
 40
1.267374999999999
 50
92.122849999999985
 51
177.893304
  0
ARC
  5
1FE
  8
_________2
 62
     7
 10
76.315273000000005
 20
51.371245999999992
 30
0.0
 40
1.267363
 50
182.121815
 51
267.87821400000001
  0
ARC
  5
1FF
  8
_________2
 62
     7
 10
76.221461000000005
 20
51.371928999999987
 30
0.0
 40
1.2680439999999991
 50
272.11916400000001
 51
357.84848499999998
  0
ARC
  5
200
  8
_________2
 62
     7
 10
76.187981999999991
 20
51.244312999999998
 30
0.0
 40
2.1668310000000002
 50
2.1161439999999989
 51
87.874379000000005
  0
ARC
  5
201
  8
_________2
 62
     7
 10
76.348411999999996
 20
51.245334999999997
 30
0.0
 40
2.1657980000000001
 50
92.118487999999999
 51
177.909886
  0
ARC
  5
202
  8
_________2
 62
     7
 10
76.348354
 20
51.404327000000002
 30
0.0
 40
2.1657779999999991
 50
182.11700400000001
 51
267.88302499999998
  0
ARC
  5
203
  8
_________2
 62
     7
 10
76.188378999999983
 20
51.405009999999997
 30
0.0
 40
2.1664590000000001
 50
272.11546800000002
 51
357.86560400000002
  0
TEXT
  5
204
  8
_________2
 62
     7
 10
109.544
 20
23.199100000000001
 30
0.0
 40
3.0923400000000001
  1
図番
 41
0.5
  0
LINE
  5
205
  8
_________2
 62
     7
 10
108.489
 20
27.4283
 30
0.0
 11
188.49000000000001
 21
27.4283
 31
0.0
  0
TEXT
  5
206
  8
_________2
 62
     7
 10
109.544
 20
33.198900000000002
 30
0.0
 40
3.0923400000000001
  1
品番
 41
0.5
  0
TEXT
  5
207
  8
_________2
 62
     7
 10
109.544
 20
53.338000000000001
 30
0.0
 40
3.0923400000000001
  1
名称
 41
0.5
  0
TEXT
  5
208
  8
_________2
 62
     7
 10
94.569199999999995
 20
48.341900000000003
 30
0.0
 40
3.6545800000000002
  1
mm
 41
0.5
  0
TEXT
  5
209
  8
_________2
 62
     7
 10
90.582099999999997
 20
53.338000000000001
 30
0.0
 40
3.0923400000000001
  1
単位
 41
0.5
  0
TEXT
  5
20A
  8
_________2
 62
     7
 10
90.582099999999997
 20
40.930399999999999
 30
0.0
 40
3.0923400000000001
  1
尺度
 41
0.5
  0
TEXT
  5
20B
  8
_________2
 62
     7
 10
98.050299999999993
 20
34.7378
 30
0.0
 40
3.6545800000000002
  1
 10
 41
0.5
  0
TEXT
  5
20C
  8
_________2
 62
     7
 10
95.330699999999993
 20
34.7378
 30
0.0
 40
3.6545800000000002
  1
 ：
 41
0.5
  0
TEXT
  5
20D
  8
_________2
 62
     7
 10
92.441500000000005
 20
34.7378
 30
0.0
 40
3.6545800000000002
  1
1
 41
0.5
  0
TEXT
  5
20E
  8
_________2
 62
     7
 10
137.327
 20
30.627800000000001
 30
0.0
 40
3.9357000000000002
  1
DV232848-00
 41
0.5
  0
TEXT
  5
20F
  8
_________2
 62
     7
 10
137.327
 20
20.626999999999999
 30
0.0
 40
3.9357000000000002
  1
DV232848
 41
0.5
  0
TEXT
  5
210
  8
_________2
 62
     7
 10
41.6663
 20
35.123000000000012
 30
0.0
 40
3.6545800000000002
  1
早川
 41
0.5
  0
TEXT
  5
211
  8
_________2
 62
     7
 10
23.092300000000002
 20
35.123000000000012
 30
0.0
 40
3.6545800000000002
  1
石原
 41
0.5
  0
TEXT
  5
212
  8
_________2
 62
     7
 10
72.724699999999999
 20
34.7378
 30
0.0
 40
3.6545800000000002
  1
15.10.28
 41
0.5
  0
TEXT
  5
213
  8
_________2
 62
     7
 10
74.768500000000003
 20
40.930399999999999
 30
0.0
 40
3.0923400000000001
  1
付
 41
0.5
  0
TEXT
  5
214
  8
_________2
 62
     7
 10
71.209900000000005
 20
40.930399999999999
 30
0.0
 40
3.0923400000000001
  1
日
 41
0.5
  0
TEXT
  5
215
  8
_________2
 62
     7
 10
34.578299999999999
 20
40.930399999999999
 30
0.0
 40
3.0923400000000001
  1
検図
 41
0.5
  0
TEXT
  5
216
  8
_________2
 62
     7
 10
22.9602
 20
26.731000000000002
 30
0.0
 40
3.0923400000000001
  1
備考
 41
0.5
  0
TEXT
  5
217
  8
_________2
 62
     7
 10
22.9602
 20
40.930399999999999
 30
0.0
 40
3.0923400000000001
  1
製図
 41
0.5
  0
LINE
  5
218
  8
_________2
 62
     7
 10
188.49000000000001
 20
17.4285
 30
0.0
 11
21.988499999999998
 21
17.4285
 31
0.0
  0
LINE
  5
219
  8
_________2
 62
     7
 10
21.988499999999998
 20
17.4285
 30
0.0
 11
21.988499999999998
 21
280.43000000000001
 31
0.0
  0
LINE
  5
21A
  8
_________2
 62
     7
 10
21.988499999999998
 20
280.43000000000001
 30
0.0
 11
188.49000000000001
 21
280.43000000000001
 31
0.0
  0
LINE
  5
21B
  8
_________2
 62
     7
 10
188.49000000000001
 20
280.43000000000001
 30
0.0
 11
188.49000000000001
 21
17.4285
 31
0.0
  0
LINE
  5
21C
  8
_________2
 62
     7
 10
70.488799999999998
 20
30.928899999999999
 30
0.0
 11
70.488799999999998
 21
57.428699999999992
 31
0.0
  0
LINE
  5
21D
  8
_________2
 62
     7
 10
89.488600000000005
 20
30.928899999999999
 30
0.0
 11
89.488600000000005
 21
57.428699999999992
 31
0.0
  0
LINE
  5
21E
  8
_________2
 62
     7
 10
108.489
 20
17.4285
 30
0.0
 11
108.489
 21
57.428699999999992
 31
0.0
  0
LINE
  5
21F
  8
_________2
 62
     7
 10
33.488300000000002
 20
30.928899999999999
 30
0.0
 11
33.488300000000002
 21
44.928800000000003
 31
0.0
  0
LINE
  5
220
  8
_________2
 62
     7
 10
21.988499999999998
 20
30.928899999999999
 30
0.0
 11
108.489
 21
30.928899999999999
 31
0.0
  0
LINE
  5
221
  8
_________2
 62
     7
 10
21.988499999999998
 20
44.928800000000003
 30
0.0
 11
108.489
 21
44.928800000000003
 31
0.0
  0
LINE
  5
222
  8
_________2
 62
     7
 10
108.489
 20
37.428100000000001
 30
0.0
 11
188.49000000000001
 21
37.428100000000001
 31
0.0
  0
LINE
  5
223
  8
_________2
 62
     7
 10
21.988499999999998
 20
57.428699999999992
 30
0.0
 11
188.49000000000001
 21
57.428699999999992
 31
0.0
  0
LINE
  5
224
  8
_________2
 62
     7
 10
210.24000000000001
 20
148.93100000000001
 30
0.0
 11
188.489
 21
148.93100000000001
 31
0.0
  0
LINE
  5
225
  8
_________2
 62
     7
 10
105.239
 20
297.45100000000002
 30
0.0
 11
105.239
 21
280.43000000000001
 31
0.0
  0
LINE
  5
226
  8
_________2
 62
     7
 10
21.988499999999998
 20
148.93100000000001
 30
0.0
 11
0.238402
 21
148.93100000000001
 31
0.0
  0
ENDSEC
  0
EOF
