  0
SECTION
  2
HEADER
  9
$ACADVER
  1
AC1009
  9
$INSBASE
 10
0.0
 20
0.0
 30
0.0
  9
$EXTMIN
 10
0.238402
 20
0.4485540000000001
 30
0.0
  9
$EXTMAX
 10
210.24000000000001
 20
297.45100000000002
 30
0.0
  9
$LIMMIN
 10
0.0
 20
0.0
  9
$LIMMAX
 10
12.0
 20
9.0
  9
$ORTHOMODE
 70
     0
  9
$REGENMODE
 70
     1
  9
$FILLMODE
 70
     1
  9
$QTEXTMODE
 70
     0
  9
$MIRRTEXT
 70
     1
  9
$DRAGMODE
 70
     2
  9
$LTSCALE
 40
1.0
  9
$OSMODE
 70
    37
  9
$ATTMODE
 70
     1
  9
$TEXTSIZE
 40
0.0
  9
$TRACEWID
 40
0.05
  9
$TEXTSTYLE
  7
STANDARD
  9
$CLAYER
  8
0
  9
$CELTYPE
  6
CONTINUOUS
  9
$CECOLOR
 62
   256
  9
$DIMSCALE
 40
1.0
  9
$DIMASZ
 40
0.18
  9
$DIMEXO
 40
0.0625
  9
$DIMDLI
 40
0.38
  9
$DIMRND
 40
0.0
  9
$DIMDLE
 40
0.0
  9
$DIMEXE
 40
0.18
  9
$DIMTP
 40
0.0
  9
$DIMTM
 40
0.0
  9
$DIMTXT
 40
0.18
  9
$DIMCEN
 40
0.09
  9
$DIMTSZ
 40
0.0
  9
$DIMTOL
 70
     0
  9
$DIMLIM
 70
     0
  9
$DIMTIH
 70
     1
  9
$DIMTOH
 70
     1
  9
$DIMSE1
 70
     0
  9
$DIMSE2
 70
     0
  9
$DIMTAD
 70
     0
  9
$DIMZIN
 70
     0
  9
$DIMBLK
  1

  9
$DIMASO
 70
     1
  9
$DIMSHO
 70
     1
  9
$DIMPOST
  1

  9
$DIMAPOST
  1

  9
$DIMALT
 70
     0
  9
$DIMALTD
 70
     2
  9
$DIMALTF
 40
25.399999999999999
  9
$DIMLFAC
 40
1.0
  9
$DIMTOFL
 70
     0
  9
$DIMTVP
 40
0.0
  9
$DIMTIX
 70
     0
  9
$DIMSOXD
 70
     0
  9
$DIMSAH
 70
     0
  9
$DIMBLK1
  1

  9
$DIMBLK2
  1

  9
$DIMSTYLE
  2
STANDARD
  9
$DIMCLRD
 70
     0
  9
$DIMCLRE
 70
     0
  9
$DIMCLRT
 70
     0
  9
$DIMTFAC
 40
1.0
  9
$DIMGAP
 40
0.09
  9
$LUNITS
 70
     2
  9
$LUPREC
 70
     4
  9
$SKETCHINC
 40
0.1
  9
$FILLETRAD
 40
0.0
  9
$AUNITS
 70
     0
  9
$AUPREC
 70
     0
  9
$MENU
  1
.
  9
$ELEVATION
 40
0.0
  9
$PELEVATION
 40
0.0
  9
$THICKNESS
 40
0.0
  9
$LIMCHECK
 70
     0
  9
$BLIPMODE
 70
     0
  9
$CHAMFERA
 40
0.0
  9
$CHAMFERB
 40
0.0
  9
$SKPOLY
 70
     0
  9
$TDCREATE
 40
2444972.375
  9
$TDUPDATE
 40
2457829.2480207291
  9
$TDINDWG
 40
0.0000298958
  9
$TDUSRTIMER
 40
0.0000298958
  9
$USRTIMER
 70
     1
  9
$ANGBASE
 50
0.0
  9
$ANGDIR
 70
     0
  9
$PDMODE
 70
     0
  9
$PDSIZE
 40
0.0
  9
$PLINEWID
 40
0.0
  9
$COORDS
 70
     1
  9
$SPLFRAME
 70
     0
  9
$SPLINETYPE
 70
     6
  9
$SPLINESEGS
 70
     8
  9
$ATTDIA
 70
     1
  9
$ATTREQ
 70
     1
  9
$HANDLING
 70
     1
  9
$HANDSEED
  5
24F
  9
$SURFTAB1
 70
     6
  9
$SURFTAB2
 70
     6
  9
$SURFTYPE
 70
     6
  9
$SURFU
 70
     6
  9
$SURFV
 70
     6
  9
$UCSNAME
  2

  9
$UCSORG
 10
0.0
 20
0.0
 30
0.0
  9
$UCSXDIR
 10
1.0
 20
0.0
 30
0.0
  9
$UCSYDIR
 10
0.0
 20
1.0
 30
0.0
  9
$PUCSNAME
  2

  9
$PUCSORG
 10
0.0
 20
0.0
 30
0.0
  9
$PUCSXDIR
 10
1.0
 20
0.0
 30
0.0
  9
$PUCSYDIR
 10
0.0
 20
1.0
 30
0.0
  9
$USERI1
 70
     0
  9
$USERI2
 70
     0
  9
$USERI3
 70
     0
  9
$USERI4
 70
     0
  9
$USERI5
 70
     0
  9
$USERR1
 40
0.0
  9
$USERR2
 40
0.0
  9
$USERR3
 40
0.0
  9
$USERR4
 40
0.0
  9
$USERR5
 40
0.0
  9
$WORLDVIEW
 70
     1
  9
$SHADEDGE
 70
     3
  9
$SHADEDIF
 70
    70
  9
$TILEMODE
 70
     1
  9
$MAXACTVP
 70
    48
  9
$PLIMCHECK
 70
     0
  9
$PEXTMIN
 10
1.0000000000000000E+020
 20
1.0000000000000000E+020
 30
1.0000000000000000E+020
  9
$PEXTMAX
 10
-1.0000000000000000E+020
 20
-1.0000000000000000E+020
 30
-1.0000000000000000E+020
  9
$PLIMMIN
 10
0.0
 20
0.0
  9
$PLIMMAX
 10
12.0
 20
9.0
  9
$UNITMODE
 70
     0
  9
$VISRETAIN
 70
     1
  9
$PLINEGEN
 70
     0
  9
$PSLTSCALE
 70
     1
  0
ENDSEC
  0
SECTION
  2
TABLES
  0
TABLE
  2
VPORT
 70
     1
  0
VPORT
  2
*ACTIVE
 70
     0
 10
0.0
 20
0.0
 11
1.0
 21
1.0
 12
177.98860834140081
 22
148.72550000000001
 13
0.0
 23
0.0
 14
1.0
 24
1.0
 15
0.0
 25
0.0
 16
0.0
 26
0.0
 36
1.0
 17
0.0
 27
0.0
 37
0.0
 40
290.07916639246912
 41
2.1063583815028899
 42
50.0
 43
0.0
 44
0.0
 50
0.0
 51
0.0
 71
     0
 72
   100
 73
     1
 74
     1
 75
     0
 76
     0
 77
     0
 78
     0
  0
ENDTAB
  0
TABLE
  2
LTYPE
 70
     3
  0
LTYPE
  2
CONTINUOUS
 70
     0
  3
Solid line
 72
    65
 73
     0
 40
0.0
  0
LTYPE
  2
AIGENLINE001
 70
     0
  3
generate AI->DXF Converter
 72
    65
 73
     4
 40
5.8561449999999988
 49
3.5278
 49
-0.776115
 49
0.776115
 49
-0.776115
  0
LTYPE
  2
AIGENLINE002
 70
     0
  3
generate AI->DXF Converter
 72
    65
 73
     2
 40
1.5522299999999991
 49
0.776115
 49
-0.776115
  0
ENDTAB
  0
TABLE
  2
LAYER
 70
     2
  0
LAYER
  2
0
 70
     0
 62
     7
  6
CONTINUOUS
  0
LAYER
  2
_________2
 70
     0
 62
     7
  6
CONTINUOUS
  0
ENDTAB
  0
TABLE
  2
STYLE
 70
     1
  0
STYLE
  2
STANDARD
 70
     0
 40
0.0
 41
0.0
 50
0.0
 71
     0
 42
0.0
  3
TXT
  4
EXTFONT.SHX
  0
ENDTAB
  0
TABLE
  2
VIEW
 70
     0
  0
ENDTAB
  0
TABLE
  2
UCS
 70
     0
  0
ENDTAB
  0
TABLE
  2
APPID
 70
     3
  0
APPID
  2
ACAD
 70
     0
  0
APPID
  2
ACAD_NAV_VCDISPLAY
 70
     0
  0
APPID
  2
ACAD_MLEADERVER
 70
     0
  0
ENDTAB
  0
TABLE
  2
DIMSTYLE
 70
     1
  0
DIMSTYLE
  2
STANDARD
 70
     0
  3

  4

  5

  6

  7

 40
1.0
 41
0.18
 42
0.0625
 43
0.38
 44
0.18
 45
0.0
 46
0.0
 47
0.0
 48
0.0
140
0.18
141
0.09
142
0.0
143
25.399999999999999
144
1.0
145
0.0
146
1.0
147
0.09
 71
     0
 72
     0
 73
     1
 74
     1
 75
     0
 76
     0
 77
     0
 78
     0
170
     0
171
     2
172
     0
173
     0
174
     0
175
     0
176
     0
177
     0
178
     0
  0
ENDTAB
  0
ENDSEC
  0
SECTION
  2
BLOCKS
  0
BLOCK
  8
0
  2
$MODEL_SPACE
 70
     0
 10
0.0
 20
0.0
 30
0.0
  3
$MODEL_SPACE
  1

  0
ENDBLK
  5
1A
  8
0
  0
BLOCK
 67
     1
  8
0
  2
$PAPER_SPACE
 70
     0
 10
0.0
 20
0.0
 30
0.0
  3
$PAPER_SPACE
  1

  0
ENDBLK
  5
17
 67
     1
  8
0
  0
ENDSEC
  0
SECTION
  2
ENTITIES
  0
TEXT
  5
23
  8
0
 62
     7
 10
143.24100000000001
 20
123.9249825
 30
0.0
 40
3.0923400000000001
  1
130
 50
90.0
 41
0.5
 72
     1
 11
143.24100000000001
 21
125.59999999999999
 31
0.0
  0
TEXT
  5
24
  8
0
 62
     7
 10
156.20028749999989
 20
107.649
 30
0.0
 40
3.0923400000000001
  1
230
 41
0.5
 72
     1
 11
158.13300000000001
 21
107.649
 31
0.0
  0
TEXT
  5
25
  8
0
 62
     7
 10
76.545680000000004
 20
224.547
 30
0.0
 40
3.0923400000000001
  1
%%c35
 41
0.5
 72
     2
 11
80.668800000000005
 21
224.547
 31
0.0
  0
TEXT
  5
26
  8
0
 62
     7
 10
76.267979999999994
 20
208.995
 30
0.0
 40
3.0923400000000001
  1
%%c46
 41
0.5
 72
     2
 11
80.391099999999994
 21
208.995
 31
0.0
  0
TEXT
  5
27
  8
0
 62
     7
 10
47.602600000000002
 20
128.00537249999999
 30
0.0
 40
3.0923400000000001
  1
60
 50
90.0
 41
0.5
 72
     1
 11
47.602600000000002
 21
129.16499999999999
 31
0.0
  0
LINE
  5
28
  8
0
 62
     7
 10
48.8934
 20
130.00399999999999
 30
0.0
 11
48.300899999999999
 21
132.21600000000001
 31
0.0
  0
LINE
  5
29
  8
0
 62
     7
 10
48.300899999999999
 20
132.21600000000001
 30
0.0
 11
47.708300000000001
 21
130.00399999999999
 31
0.0
  0
LINE
  5
2A
  8
0
 62
     7
 10
47.708300000000001
 20
130.00399999999999
 30
0.0
 11
48.8934
 21
130.00399999999999
 31
0.0
  0
LINE
  5
2B
  8
0
 62
     7
 10
47.722799999999999
 20
128.42599999999999
 30
0.0
 11
48.315399999999997
 21
126.214
 31
0.0
  0
LINE
  5
2C
  8
0
 62
     7
 10
48.315399999999997
 20
126.214
 30
0.0
 11
48.907899999999991
 21
128.42599999999999
 31
0.0
  0
LINE
  5
2D
  8
0
 62
     7
 10
48.907899999999991
 20
128.42599999999999
 30
0.0
 11
47.722799999999999
 21
128.42599999999999
 31
0.0
  0
LINE
  5
2E
  8
0
 62
     7
 10
48.308100000000003
 20
130.40899999999999
 30
0.0
 11
48.308100000000003
 21
128.02099999999999
 31
0.0
  0
LINE
  5
2F
  8
0
 62
     7
 10
53.030700000000003
 20
132.215
 30
0.0
 11
47.602600000000002
 21
132.215
 31
0.0
  0
LINE
  5
30
  8
0
 62
     7
 10
52.325099999999999
 20
126.215
 30
0.0
 11
47.602600000000002
 21
126.215
 31
0.0
  0
TEXT
  5
31
  8
0
 62
     7
 10
104.512
 20
121.5319825
 30
0.0
 40
3.0923400000000001
  1
180
 50
90.0
 41
0.5
 72
     1
 11
104.512
 21
123.20699999999999
 31
0.0
  0
TEXT
  5
32
  8
0
 62
     7
 10
67.3761875
 20
177.00899999999999
 30
0.0
 40
3.0923400000000001
  1
550
 41
0.5
 72
     1
 11
69.308899999999994
 21
177.00899999999999
 31
0.0
  0
TEXT
  5
33
  8
0
 62
     7
 10
112.559
 20
186.85599999999999
 30
0.0
 40
3.0923400000000001
  1
15
 50
90.0
 41
0.5
  0
TEXT
  5
34
  8
0
 62
     7
 10
112.559
 20
206.47128749999999
 30
0.0
 40
3.0923400000000001
  1
290
 50
90.0
 41
0.5
 72
     1
 11
112.559
 21
208.404
 31
0.0
  0
TEXT
  5
35
  8
0
 62
     7
 10
121.039
 20
212.47128749999999
 30
0.0
 40
3.0923400000000001
  1
440
 50
90.0
 41
0.5
 72
     1
 11
121.039
 21
214.404
 31
0.0
  0
TEXT
  5
36
  8
0
 62
     7
 10
112.559
 20
227.85013499999999
 30
0.0
 40
3.0923400000000001
  1
135
 50
90.0
 41
0.5
 72
     1
 11
112.559
 21
229.654
 31
0.0
  0
TEXT
  5
37
  8
0
 62
     7
 10
104.504
 20
231.58737249999999
 30
0.0
 40
3.0923400000000001
  1
70
 50
90.0
 41
0.5
 72
     1
 11
104.504
 21
232.74700000000001
 31
0.0
  0
TEXT
  5
38
  8
0
 62
     7
 10
104.504
 20
224.99052499999999
 30
0.0
 40
3.0923400000000001
  1
65
 50
90.0
 41
0.5
 72
     1
 11
104.504
 21
226.279
 31
0.0
  0
TEXT
  5
39
  8
0
 62
     7
 10
67.3761875
 20
184.00899999999999
 30
0.0
 40
3.0923400000000001
  1
520
 41
0.5
 72
     1
 11
69.308899999999994
 21
184.00899999999999
 31
0.0
  0
TEXT
  5
3A
  8
0
 62
     7
 10
67.290587500000001
 20
139.34899999999999
 30
0.0
 40
3.0923400000000001
  1
280
 41
0.5
 72
     1
 11
69.223299999999995
 21
139.34899999999999
 31
0.0
  0
ARC
  5
3B
  8
0
 62
     7
 10
139.597793
 20
119.88475800000001
 30
0.0
 40
3.8632469999999999
 50
247.04313999999999
 51
249.54930400000001
  0
ARC
  5
3C
  8
0
 62
     7
 10
140.31687500000001
 20
121.69434
 30
0.0
 40
5.8101729999999998
 50
249.14016000000001
 51
254.61932899999999
  0
ARC
  5
3D
  8
0
 62
     7
 10
139.58162400000001
 20
119.040971
 30
0.0
 40
3.0568270000000002
 50
254.716081
 51
262.51510300000001
  0
ARC
  5
3E
  8
0
 62
     7
 10
135.63459800000001
 20
131.988956
 30
0.0
 40
10.022589
 50
185.863294
 51
196.73941400000001
  0
ARC
  5
3F
  8
0
 62
     7
 10
138.896412
 20
132.85955100000001
 30
0.0
 40
13.397347999999999
 50
196.287103
 51
205.08347699999999
  0
ARC
  5
40
  8
0
 62
     7
 10
142.52234999999999
 20
134.449883
 30
0.0
 40
17.355801
 50
204.76383799999999
 51
213.548598
  0
ARC
  5
41
  8
0
 62
     7
 10
146.2906659999999
 20
136.81853699999999
 30
0.0
 40
21.805674
 50
213.26361600000001
 51
223.29086699999999
  0
ARC
  5
42
  8
0
 62
     7
 10
148.36701400000001
 20
138.644722
 30
0.0
 40
24.569410999999999
 50
223.07047299999999
 51
245.27617400000011
  0
ARC
  5
43
  8
0
 62
     7
 10
96.013666999999984
 20
131.380831
 30
0.0
 40
0.796023
 50
2.0653719999999991
 51
86.499363000000002
  0
ARC
  5
44
  8
0
 62
     7
 10
34.888928999999997
 20
143.242469
 30
0.0
 40
63.040742999999999
 50
346.98415899999998
 51
349.18122499999998
  0
ARC
  5
45
  8
0
 62
     7
 10
51.874321000000002
 20
139.44512800000001
 30
0.0
 40
45.636676999999992
 50
339.88350300000002
 51
346.82637099999999
  0
ARC
  5
46
  8
0
 62
     7
 10
18.316286000000002
 20
151.584902
 30
0.0
 40
81.322872000000004
 50
338.77893499999999
 51
339.9838509999999
  0
ARC
  5
47
  8
0
 62
     7
 10
51.448809999999987
 20
138.78077099999999
 30
0.0
 40
45.802396000000002
 50
335.789601
 51
338.70763299999999
  0
ARC
  5
48
  8
0
 62
     7
 10
66.807481999999993
 20
131.96572599999999
 30
0.0
 40
28.999932000000001
 50
330.7713
 51
335.62604199999998
  0
ARC
  5
49
  8
0
 62
     7
 10
74.877933999999996
 20
127.56701
 30
0.0
 40
19.809412999999999
 50
325.53727600000002
 51
330.47594400000003
  0
ARC
  5
4A
  8
0
 62
     7
 10
88.051754000000017
 20
118.541892
 30
0.0
 40
3.8406509999999998
 50
313.24580700000001
 51
325.335735
  0
ARC
  5
4B
  8
0
 62
     7
 10
88.881623000000005
 20
117.705274
 30
0.0
 40
2.6628569999999989
 50
292.25358699999998
 51
312.572271
  0
ARC
  5
4C
  8
0
 62
     7
 10
89.036387000000005
 20
117.436983
 30
0.0
 40
2.3563070000000002
 50
262.38356800000003
 51
291.24118399999998
  0
ARC
  5
4D
  8
0
 62
     7
 10
89.086811999999995
 20
118.18444100000001
 30
0.0
 40
3.1042419999999988
 50
255.187433
 51
263.28964999999999
  0
ARC
  5
4E
  8
0
 62
     7
 10
87.665396999999999
 20
112.77075600000001
 30
0.0
 40
2.4929480000000002
 50
75.41436800000001
 51
78.529863000000006
  0
ARC
  5
4F
  8
0
 62
     7
 10
87.083757999999975
 20
109.948241
 30
0.0
 40
5.3747629999999988
 50
78.436626000000004
 51
81.074944999999985
  0
ARC
  5
50
  8
0
 62
     7
 10
85.654689000000005
 20
100.879485
 30
0.0
 40
14.555425
 50
81.055976000000015
 51
82.706479999999985
  0
ARC
  5
51
  8
0
 62
     7
 10
99.483384999999998
 20
210.91260500000001
 30
0.0
 40
96.343311999999997
 50
262.23340899999999
 51
262.85645399999999
  0
ARC
  5
52
  8
0
 62
     7
 10
88.414173000000005
 20
129.319648
 30
0.0
 40
14.003076
 50
257.319841
 51
261.99347299999999
  0
ARC
  5
53
  8
0
 62
     7
 10
42.604432000000003
 20
131.38081500000001
 30
0.0
 40
0.79604
 50
93.501688999999985
 51
177.933536
  0
ARC
  5
54
  8
0
 62
     7
 10
103.721979
 20
143.241095
 30
0.0
 40
63.033437999999997
 50
190.818792
 51
193.01611399999999
  0
ARC
  5
55
  8
0
 62
     7
 10
86.744490999999996
 20
139.445301
 30
0.0
 40
45.637421000000003
 50
193.173653
 51
200.11640600000001
  0
ARC
  5
56
  8
0
 62
     7
 10
120.91635599999999
 20
151.81612799999999
 30
0.0
 40
81.979454000000004
 50
200.020995
 51
201.21625900000001
  0
ARC
  5
57
  8
0
 62
     7
 10
87.169273000000004
 20
138.78077099999999
 30
0.0
 40
45.802396000000002
 50
201.29238699999999
 51
204.210419
  0
ARC
  5
58
  8
0
 62
     7
 10
71.800044
 20
131.9603929999999
 30
0.0
 40
28.988115000000011
 50
204.37298799999999
 51
209.2297100000001
  0
ARC
  5
59
  8
0
 62
     7
 10
63.740149000000002
 20
127.56701
 30
0.0
 40
19.809412999999999
 50
209.52407600000001
 51
214.46274399999999
  0
ARC
  5
5A
  8
0
 62
     7
 10
50.561446999999987
 20
118.53769200000001
 30
0.0
 40
3.8342469999999991
 50
214.65415100000001
 51
226.76434699999999
  0
ARC
  5
5B
  8
0
 62
     7
 10
49.736146000000012
 20
117.70478
 30
0.0
 40
2.6622799999999991
 50
227.42552599999999
 51
247.74865500000001
  0
ARC
  5
5C
  8
0
 62
     7
 10
49.581695000000003
 20
117.436983
 30
0.0
 40
2.3563070000000002
 50
248.758836
 51
277.61645199999998
  0
ARC
  5
5D
  8
0
 62
     7
 10
49.531270999999997
 20
118.18444100000001
 30
0.0
 40
3.1042419999999988
 50
276.71037000000001
 51
284.81258700000001
  0
ARC
  5
5E
  8
0
 62
     7
 10
50.952684999999988
 20
112.77075600000001
 30
0.0
 40
2.4929480000000002
 50
101.470117
 51
104.585612
  0
ARC
  5
5F
  8
0
 62
     7
 10
51.534325000000003
 20
109.948241
 30
0.0
 40
5.3747629999999988
 50
98.925034999999994
 51
101.563354
  0
ARC
  5
60
  8
0
 62
     7
 10
52.963393999999987
 20
100.879485
 30
0.0
 40
14.555425
 50
97.293499999999995
 51
98.944004000000021
  0
ARC
  5
61
  8
0
 62
     7
 10
39.134698
 20
210.91260500000001
 30
0.0
 40
96.343311999999997
 50
277.14356600000002
 51
277.76661100000001
  0
ARC
  5
62
  8
0
 62
     7
 10
50.20391
 20
129.319648
 30
0.0
 40
14.003076
 50
278.00654700000001
 51
282.68017800000001
  0
ARC
  5
63
  8
0
 62
     7
 10
58.156362000000001
 20
89.336388999999997
 30
0.0
 40
26.770322
 50
98.021203
 51
100.291543
  0
ARC
  5
64
  8
0
 62
     7
 10
60.689301
 20
72.038235
 30
0.0
 40
44.252785000000003
 50
96.226126000000036
 51
98.143398000000005
  0
ARC
  5
65
  8
0
 62
     7
 10
63.435890000000001
 20
47.455370999999992
 30
0.0
 40
68.988554000000008
 50
92.916422000000011
 51
96.279534999999981
  0
ARC
  5
66
  8
0
 62
     7
 10
63.822187
 20
43.926214000000002
 30
0.0
 40
72.533089000000004
 50
90.716560000000001
 51
93.079333000000005
  0
ARC
  5
67
  8
0
 62
     7
 10
63.419266
 20
72.477761999999998
 30
0.0
 40
43.978758999999997
 50
87.733937999999995
 51
90.656866000000008
  0
ARC
  5
68
  8
0
 62
     7
 10
64.112263999999996
 20
93.09871600000001
 30
0.0
 40
23.346851999999998
 50
86.293424999999985
 51
87.432348000000005
  0
LINE
  5
69
  8
0
 62
     7
 10
65.621600000000001
 20
116.39700000000001
 30
0.0
 11
72.997600000000006
 21
116.39700000000001
 31
0.0
  0
ARC
  5
6A
  8
0
 62
     7
 10
74.63776
 20
91.064808999999997
 30
0.0
 40
25.384968000000001
 50
91.336093000000005
 51
93.704633999999999
  0
ARC
  5
6B
  8
0
 62
     7
 10
75.140810000000002
 20
73.70630899999999
 30
0.0
 40
42.750591
 50
89.494253999999998
 51
91.467651000000004
  0
ARC
  5
6C
  8
0
 62
     7
 10
75.011363000000003
 20
50.689816
 30
0.0
 40
65.767370999999983
 50
86.958968999999996
 51
89.558475000000001
  0
ARC
  5
6D
  8
0
 62
     7
 10
74.637826000000004
 20
40.593865000000001
 30
0.0
 40
75.869095999999999
 50
84.003034999999997
 51
87.081755000000015
  0
ARC
  5
6E
  8
0
 62
     7
 10
77.779251000000002
 20
71.24548399999999
 30
0.0
 40
45.057084999999987
 50
81.021042000000008
 51
83.903702999999993
  0
ARC
  5
6F
  8
0
 62
     7
 10
80.923399000000003
 20
91.920055000000005
 30
0.0
 40
24.145457
 50
79.617350999999999
 51
80.733694
  0
ARC
  5
70
  8
0
 62
     7
 10
95.985811999999996
 20
131.42658
 30
0.0
 40
0.788615
 50
5.9044879999999988
 51
88.687419999999989
  0
LINE
  5
71
  8
0
 62
     7
 10
96.003900000000002
 20
132.215
 30
0.0
 11
42.613500000000002
 21
132.215
 31
0.0
  0
ARC
  5
72
  8
0
 62
     7
 10
42.642969999999998
 20
131.41772900000001
 30
0.0
 40
0.797802
 50
92.115684000000002
 51
177.768472
  0
ARC
  5
73
  8
0
 62
     7
 10
50.402714000000003
 20
133.06443999999999
 30
0.0
 40
8.7081309999999998
 50
190.692229
 51
191.884963
  0
ARC
  5
74
  8
0
 62
     7
 10
85.305956000000009
 20
113.16741500000001
 30
0.0
 40
2.4446829999999999
 50
72.338365999999994
 51
75.544072999999997
  0
ARC
  5
75
  8
0
 62
     7
 10
84.333620999999994
 20
109.554627
 30
0.0
 40
6.1859459999999986
 50
75.176613000000003
 51
80.633489999999995
  0
ARC
  5
76
  8
0
 62
     7
 10
53.691379000000012
 20
112.831554
 30
0.0
 40
2.8566560000000001
 50
98.326308999999995
 51
101.17938700000001
  0
ARC
  5
77
  8
0
 62
     7
 10
54.306778999999999
 20
109.55764600000001
 30
0.0
 40
6.1878330000000004
 50
100.89208499999999
 51
106.296497
  0
LINE
  5
78
  8
0
  6
AIGENLINE001
 62
     7
 10
146.63300000000001
 20
133.44999999999999
 30
0.0
 11
146.63300000000001
 21
112.767
 31
0.0
  0
LINE
  5
79
  8
0
  6
AIGENLINE001
 62
     7
 10
69.308899999999994
 20
133.57499999999999
 30
0.0
 11
69.308899999999994
 21
112.19499999999999
 31
0.0
  0
LINE
  5
7A
  8
0
 62
     7
 10
146.47499999999999
 20
119.21599999999999
 30
0.0
 11
143.19399999999999
 21
119.21599999999999
 31
0.0
  0
LINE
  5
7B
  8
0
  6
AIGENLINE002
 62
     7
 10
148.93299999999999
 20
117.715
 30
0.0
 11
150.63300000000001
 21
119.215
 31
0.0
  0
LINE
  5
7C
  8
0
  6
AIGENLINE002
 62
     7
 10
144.333
 20
117.715
 30
0.0
 11
142.63300000000001
 21
119.215
 31
0.0
  0
LINE
  5
7D
  8
0
 62
     7
 10
144.53200000000001
 20
130.005
 30
0.0
 11
143.94
 21
132.21600000000001
 31
0.0
  0
LINE
  5
7E
  8
0
 62
     7
 10
143.94
 20
132.21600000000001
 30
0.0
 11
143.34700000000001
 21
130.005
 31
0.0
  0
LINE
  5
7F
  8
0
 62
     7
 10
143.34700000000001
 20
130.005
 30
0.0
 11
144.53200000000001
 21
130.005
 31
0.0
  0
LINE
  5
80
  8
0
 62
     7
 10
143.36199999999999
 20
121.425
 30
0.0
 11
143.95400000000001
 21
119.214
 31
0.0
  0
LINE
  5
81
  8
0
 62
     7
 10
143.95400000000001
 20
119.214
 30
0.0
 11
144.547
 21
121.425
 31
0.0
  0
LINE
  5
82
  8
0
 62
     7
 10
144.547
 20
121.425
 30
0.0
 11
143.36199999999999
 21
121.425
 31
0.0
  0
LINE
  5
83
  8
0
 62
     7
 10
143.947
 20
132.215
 30
0.0
 11
143.947
 21
119.215
 31
0.0
  0
ARC
  5
84
  8
0
 62
     7
 10
151.00232500000001
 20
99.266981999999999
 30
0.0
 40
15.648011
 50
88.704431000000014
 51
89.949821999999998
  0
ARC
  5
85
  8
0
 62
     7
 10
151.71264300000001
 20
128.09832399999999
 30
0.0
 40
13.192149000000001
 50
268.45139999999998
 51
273.026028
  0
ARC
  5
86
  8
0
 62
     7
 10
152.07772199999999
 20
120.45811399999999
 30
0.0
 40
5.5434549999999998
 50
273.42656499999998
 51
279.08581600000002
  0
ARC
  5
87
  8
0
 62
     7
 10
152.460722
 20
117.97269900000001
 30
0.0
 40
3.0287779999999991
 50
279.35605900000002
 51
286.85926000000001
  0
ARC
  5
88
  8
0
 62
     7
 10
152.83335600000001
 20
116.70586299999999
 30
0.0
 40
1.7083529999999989
 50
287.22120999999999
 51
297.17104999999998
  0
ARC
  5
89
  8
0
 62
     7
 10
153.106302
 20
116.14999299999999
 30
0.0
 40
1.0892399999999991
 50
297.75030299999997
 51
304.43059699999998
  0
ARC
  5
8A
  8
0
 62
     7
 10
150.90301700000001
 20
114.14957
 30
0.0
 40
0.884703
 50
170.522683
 51
175.762655
  0
ARC
  5
8B
  8
0
 62
     7
 10
151.27634
 20
114.107116
 30
0.0
 40
1.260073999999999
 50
154.26204199999989
 51
171.41371599999999
  0
ARC
  5
8C
  8
0
 62
     7
 10
150.650341
 20
114.393833
 30
0.0
 40
0.571833
 50
127.022981
 51
152.90200999999999
  0
ARC
  5
8D
  8
0
 62
     7
 10
150.5156969999999
 20
114.542574
 30
0.0
 40
0.3724369999999999
 50
89.348906999999997
 51
124.26267199999999
  0
ARC
  5
8E
  8
0
 62
     7
 10
143.53982400000001
 20
114.73415199999999
 30
0.0
 40
0.5195720000000001
 50
182.09365299999999
 51
267.86690299999998
  0
LINE
  5
8F
  8
0
 62
     7
 10
143.02099999999999
 20
114.715
 30
0.0
 11
143.02000000000001
 21
115.65900000000001
 31
0.0
  0
LINE
  5
90
  8
0
  6
AIGENLINE002
 62
     7
 10
144.333
 20
114.215
 30
0.0
 11
144.333
 21
117.715
 31
0.0
  0
LINE
  5
91
  8
0
  6
AIGENLINE002
 62
     7
 10
148.93299999999999
 20
117.715
 30
0.0
 11
148.93299999999999
 21
114.238
 31
0.0
  0
LINE
  5
92
  8
0
  6
AIGENLINE002
 62
     7
 10
150.53100000000001
 20
119.215
 30
0.0
 11
142.63300000000001
 21
119.215
 31
0.0
  0
ARC
  5
93
  8
0
  6
AIGENLINE002
 62
     7
 10
151.38017400000001
 20
123.714851
 30
0.0
 40
4.500013
 50
270.00002000000001
 51
359.99999000000003
  0
ARC
  5
94
  8
0
  6
AIGENLINE002
 62
     7
 10
156.96361099999999
 20
131.38443599999999
 30
0.0
 40
0.8311149999999999
 50
92.109700000000004
 51
177.89027100000001
  0
LINE
  5
95
  8
0
  6
AIGENLINE002
 62
     7
 10
155.88
 20
123.715
 30
0.0
 11
156.13300000000001
 21
131.41499999999999
 31
0.0
  0
LINE
  5
96
  8
0
  6
AIGENLINE001
 62
     7
 10
162.63300000000001
 20
127.58499999999999
 30
0.0
 11
162.63300000000001
 21
133.994
 31
0.0
  0
LINE
  5
97
  8
0
  6
AIGENLINE001
 62
     7
 10
165.25999999999999
 20
126.215
 30
0.0
 11
171.66800000000001
 21
126.215
 31
0.0
  0
LINE
  5
98
  8
0
 62
     7
 10
148.84399999999999
 20
107.529
 30
0.0
 11
146.63200000000001
 21
106.93600000000001
 31
0.0
  0
LINE
  5
99
  8
0
 62
     7
 10
146.63200000000001
 20
106.93600000000001
 30
0.0
 11
148.84399999999999
 21
106.34399999999999
 31
0.0
  0
LINE
  5
9A
  8
0
 62
     7
 10
148.84399999999999
 20
106.34399999999999
 30
0.0
 11
148.84399999999999
 21
107.529
 31
0.0
  0
LINE
  5
9B
  8
0
 62
     7
 10
167.422
 20
106.358
 30
0.0
 11
169.63399999999999
 21
106.95099999999999
 31
0.0
  0
LINE
  5
9C
  8
0
 62
     7
 10
169.63399999999999
 20
106.95099999999999
 30
0.0
 11
167.422
 21
107.54300000000001
 31
0.0
  0
LINE
  5
9D
  8
0
 62
     7
 10
167.422
 20
107.54300000000001
 30
0.0
 11
167.422
 21
106.358
 31
0.0
  0
LINE
  5
9E
  8
0
 62
     7
 10
146.63300000000001
 20
106.943
 30
0.0
 11
169.63300000000001
 21
106.943
 31
0.0
  0
LINE
  5
9F
  8
0
 62
     7
 10
146.63300000000001
 20
112.06100000000001
 30
0.0
 11
146.63300000000001
 21
106.20099999999999
 31
0.0
  0
LINE
  5
A0
  8
0
 62
     7
 10
169.63300000000001
 20
114.509
 30
0.0
 11
169.63300000000001
 21
106.20099999999999
 31
0.0
  0
ARC
  5
A1
  8
0
  6
AIGENLINE002
 62
     7
 10
126.65242000000001
 20
131.73500300000001
 30
0.0
 40
0.4803620000000001
 50
359.35204499999998
 51
87.729578000000004
  0
ARC
  5
A2
  8
0
  6
AIGENLINE002
 62
     7
 10
130.295254
 20
132.06248400000001
 30
0.0
 40
3.1799770000000001
 50
186.009344
 51
188.60786999999999
  0
ARC
  5
A3
  8
0
  6
AIGENLINE002
 62
     7
 10
137.037102
 20
133.013475
 30
0.0
 40
9.9884570000000004
 50
188.21333899999999
 51
192.346765
  0
ARC
  5
A4
  8
0
  6
AIGENLINE002
 62
     7
 10
141.12480600000001
 20
133.869595
 30
0.0
 40
14.16473
 50
192.19408999999999
 51
215.800397
  0
ARC
  5
A5
  8
0
  6
AIGENLINE002
 62
     7
 10
139.438976
 20
132.809484
 30
0.0
 40
12.177951
 50
216.39479399999999
 51
219.900811
  0
ARC
  5
A6
  8
0
  6
AIGENLINE002
 62
     7
 10
144.23608400000001
 20
136.82490100000001
 30
0.0
 40
18.433813000000001
 50
219.91106400000001
 51
231.41172499999999
  0
ARC
  5
A7
  8
0
  6
AIGENLINE002
 62
     7
 10
142.18716900000001
 20
134.39605
 30
0.0
 40
15.257603
 50
231.73695599999999
 51
248.632092
  0
ARC
  5
A8
  8
0
  6
AIGENLINE002
 62
     7
 10
141.47655399999999
 20
132.904979
 30
0.0
 40
13.610628
 50
249.130888
 51
266.83657499999998
  0
LINE
  5
A9
  8
0
  6
AIGENLINE002
 62
     7
 10
140.72499999999999
 20
119.315
 30
0.0
 11
142.63300000000001
 21
119.215
 31
0.0
  0
ARC
  5
AA
  8
0
 62
     7
 10
126.62154099999999
 20
131.213448
 30
0.0
 40
0.988795
 50
179.917586
 51
194.54638
  0
ARC
  5
AB
  8
0
 62
     7
 10
126.632864
 20
131.21486999999999
 30
0.0
 40
1.0001180000000001
 50
90.0
 51
179.99996999999999
  0
ARC
  5
AC
  8
0
 62
     7
 10
146.55001799999999
 20
177.74127100000001
 30
0.0
 40
62.169068000000003
 50
263.19488100000001
 51
264.73207400000001
  0
ARC
  5
AD
  8
0
 62
     7
 10
149.775475
 20
211.857709
 30
0.0
 40
96.437580000000011
 50
264.68484799999999
 51
266.74246099999999
  0
ARC
  5
AE
  8
0
 62
     7
 10
154.12509499999999
 20
281.89147000000003
 30
0.0
 40
166.605739
 50
266.617636
 51
268.18611600000003
  0
ARC
  5
AF
  8
0
 62
     7
 10
158.026014
 20
391.45161200000001
 30
0.0
 40
276.23479500000002
 50
268.09671100000003
 51
269.30467399999998
  0
ARC
  5
B0
  8
0
 62
     7
 10
160.64889099999999
 20
560.79365199999995
 30
0.0
 40
445.59655600000002
 50
269.23168900000002
 51
269.86361699999998
  0
ARC
  5
B1
  8
0
 62
     7
 10
161.54881399999999
 20
808.28337399999987
 30
0.0
 40
693.08778799999993
 50
269.83792599999998
 51
270.09718700000002
  0
ARC
  5
B2
  8
0
 62
     7
 10
150.65663799999999
 20
5513.5080000000007
 30
0.0
 40
5398.3249999999989
 50
270.12809199999998
 51
270.19611000000009
  0
LINE
  5
B3
  8
0
 62
     7
 10
169.63300000000001
 20
131.715
 30
0.0
 11
169.63300000000001
 21
115.715
 31
0.0
  0
LINE
  5
B4
  8
0
  6
AIGENLINE002
 62
     7
 10
144.34200000000001
 20
117.715
 30
0.0
 11
148.93299999999999
 21
117.715
 31
0.0
  0
LINE
  5
B5
  8
0
 62
     7
 10
150.52000000000001
 20
114.91500000000001
 30
0.0
 11
151.01599999999999
 21
114.91500000000001
 31
0.0
  0
LINE
  5
B6
  8
0
 62
     7
 10
143.52000000000001
 20
114.215
 30
0.0
 11
150.02099999999999
 21
114.215
 31
0.0
  0
LINE
  5
B7
  8
0
 62
     7
 10
126.633
 20
132.215
 30
0.0
 11
169.1329999999999
 21
132.215
 31
0.0
  0
ARC
  5
B8
  8
0
 62
     7
 10
169.13286400000001
 20
115.71494300000001
 30
0.0
 40
0.5002310000000002
 50
270.00002000000001
 51
359.99999000000003
  0
ARC
  5
B9
  8
0
 62
     7
 10
169.11356900000001
 20
131.695448
 30
0.0
 40
0.519898
 50
2.166456999999999
 51
87.873007000000015
  0
LINE
  5
BA
  8
0
 62
     7
 10
66.071100000000001
 20
231.767
 30
0.0
 11
68.054199999999994
 21
230.62299999999999
 31
0.0
  0
LINE
  5
BB
  8
0
 62
     7
 10
68.054199999999994
 20
230.62299999999999
 30
0.0
 11
66.909300000000002
 21
232.60499999999999
 31
0.0
  0
LINE
  5
BC
  8
0
 62
     7
 10
66.909300000000002
 20
232.60499999999999
 30
0.0
 11
66.071100000000001
 21
231.767
 31
0.0
  0
LINE
  5
BD
  8
0
 62
     7
 10
72.510599999999997
 20
227.00399999999999
 30
0.0
 11
70.527900000000002
 21
228.149
 31
0.0
  0
LINE
  5
BE
  8
0
 62
     7
 10
70.527900000000002
 20
228.149
 30
0.0
 11
71.672700000000006
 21
226.166
 31
0.0
  0
LINE
  5
BF
  8
0
 62
     7
 10
71.672700000000006
 20
226.166
 30
0.0
 11
72.510599999999997
 21
227.00399999999999
 31
0.0
  0
LINE
  5
C0
  8
0
 62
     7
 10
65.180199999999985
 20
233.49700000000001
 30
0.0
 11
74.835499999999996
 21
223.84100000000001
 31
0.0
  0
LINE
  5
C1
  8
0
 62
     7
 10
74.835499999999996
 20
223.84100000000001
 30
0.0
 11
80.845200000000006
 21
223.84100000000001
 31
0.0
  0
LINE
  5
C2
  8
0
 62
     7
 10
65.681200000000004
 20
216.15700000000001
 30
0.0
 11
67.664199999999994
 21
215.012
 31
0.0
  0
LINE
  5
C3
  8
0
 62
     7
 10
67.664199999999994
 20
215.012
 30
0.0
 11
66.519400000000005
 21
216.995
 31
0.0
  0
LINE
  5
C4
  8
0
 62
     7
 10
66.519400000000005
 20
216.995
 30
0.0
 11
65.681200000000004
 21
216.15700000000001
 31
0.0
  0
LINE
  5
C5
  8
0
 62
     7
 10
72.8994
 20
210.61500000000001
 30
0.0
 11
70.916700000000006
 21
211.75999999999999
 31
0.0
  0
LINE
  5
C6
  8
0
 62
     7
 10
70.916700000000006
 20
211.75999999999999
 30
0.0
 11
72.061499999999995
 21
209.77699999999999
 31
0.0
  0
LINE
  5
C7
  8
0
 62
     7
 10
72.061499999999995
 20
209.77699999999999
 30
0.0
 11
72.8994
 21
210.61500000000001
 31
0.0
  0
LINE
  5
C8
  8
0
 62
     7
 10
64.790300000000002
 20
217.886
 30
0.0
 11
74.381500000000003
 21
208.29499999999999
 31
0.0
  0
LINE
  5
C9
  8
0
 62
     7
 10
74.381500000000003
 20
208.29499999999999
 30
0.0
 11
80.391099999999994
 21
208.29499999999999
 31
0.0
  0
LINE
  5
CA
  8
0
  6
AIGENLINE001
 62
     7
 10
74.912499999999994
 20
213.404
 30
0.0
 11
63.447200000000002
 21
213.404
 31
0.0
  0
LINE
  5
CB
  8
0
 62
     7
 10
113.84999999999999
 20
190.19300000000001
 30
0.0
 11
113.25700000000001
 21
192.405
 31
0.0
  0
LINE
  5
CC
  8
0
 62
     7
 10
113.25700000000001
 20
192.405
 30
0.0
 11
112.66500000000001
 21
190.19300000000001
 31
0.0
  0
LINE
  5
CD
  8
0
 62
     7
 10
112.66500000000001
 20
190.19300000000001
 30
0.0
 11
113.84999999999999
 21
190.19300000000001
 31
0.0
  0
LINE
  5
CE
  8
0
 62
     7
 10
113.264
 20
192.404
 30
0.0
 11
113.264
 21
186.93199999999999
 31
0.0
  0
LINE
  5
CF
  8
0
 62
     7
 10
44.019799999999996
 20
176.88900000000001
 30
0.0
 11
41.808199999999992
 21
176.29599999999999
 31
0.0
  0
LINE
  5
D0
  8
0
 62
     7
 10
41.808199999999992
 20
176.29599999999999
 30
0.0
 11
44.019799999999996
 21
175.70400000000001
 31
0.0
  0
LINE
  5
D1
  8
0
 62
     7
 10
44.019799999999996
 20
175.70400000000001
 30
0.0
 11
44.019799999999996
 21
176.88900000000001
 31
0.0
  0
LINE
  5
D2
  8
0
 62
     7
 10
94.598299999999995
 20
175.71799999999999
 30
0.0
 11
96.809900000000013
 21
176.31099999999989
 31
0.0
  0
LINE
  5
D3
  8
0
 62
     7
 10
96.809900000000013
 20
176.31099999999989
 30
0.0
 11
94.598299999999995
 21
176.90299999999999
 31
0.0
  0
LINE
  5
D4
  8
0
 62
     7
 10
94.598299999999995
 20
176.90299999999999
 30
0.0
 11
94.598299999999995
 21
175.71799999999999
 31
0.0
  0
LINE
  5
D5
  8
0
 62
     7
 10
41.809099999999987
 20
176.304
 30
0.0
 11
96.809000000000012
 21
176.304
 31
0.0
  0
LINE
  5
D6
  8
0
 62
     7
 10
96.809000000000012
 20
195.5809999999999
 30
0.0
 11
96.809000000000012
 21
175.245
 31
0.0
  0
LINE
  5
D7
  8
0
 62
     7
 10
41.808700000000002
 20
195.5809999999999
 30
0.0
 11
41.808700000000002
 21
175.245
 31
0.0
  0
LINE
  5
D8
  8
0
 62
     7
 10
45.519100000000002
 20
183.88900000000001
 30
0.0
 11
43.307499999999997
 21
183.29599999999999
 31
0.0
  0
LINE
  5
D9
  8
0
 62
     7
 10
43.307499999999997
 20
183.29599999999999
 30
0.0
 11
45.519100000000002
 21
182.70400000000001
 31
0.0
  0
LINE
  5
DA
  8
0
 62
     7
 10
45.519100000000002
 20
182.70400000000001
 30
0.0
 11
45.519100000000002
 21
183.88900000000001
 31
0.0
  0
LINE
  5
DB
  8
0
 62
     7
 10
93.0976
 20
182.71799999999999
 30
0.0
 11
95.309200000000004
 21
183.31099999999989
 31
0.0
  0
LINE
  5
DC
  8
0
 62
     7
 10
95.309200000000004
 20
183.31099999999989
 30
0.0
 11
93.0976
 21
183.90299999999999
 31
0.0
  0
LINE
  5
DD
  8
0
 62
     7
 10
93.0976
 20
183.90299999999999
 30
0.0
 11
93.0976
 21
182.71799999999999
 31
0.0
  0
LINE
  5
DE
  8
0
 62
     7
 10
43.308399999999999
 20
183.303
 30
0.0
 11
95.308299999999988
 21
183.303
 31
0.0
  0
LINE
  5
DF
  8
0
 62
     7
 10
95.308999999999997
 20
195.5809999999999
 30
0.0
 11
95.308999999999997
 21
182.245
 31
0.0
  0
LINE
  5
E0
  8
0
 62
     7
 10
43.308699999999988
 20
195.5809999999999
 30
0.0
 11
43.308699999999988
 21
182.245
 31
0.0
  0
LINE
  5
E1
  8
0
 62
     7
 10
113.84999999999999
 20
220.69300000000001
 30
0.0
 11
113.25700000000001
 21
222.905
 31
0.0
  0
LINE
  5
E2
  8
0
 62
     7
 10
113.25700000000001
 20
222.905
 30
0.0
 11
112.66500000000001
 21
220.69300000000001
 31
0.0
  0
LINE
  5
E3
  8
0
 62
     7
 10
112.66500000000001
 20
220.69300000000001
 30
0.0
 11
113.84999999999999
 21
220.69300000000001
 31
0.0
  0
LINE
  5
E4
  8
0
 62
     7
 10
112.679
 20
196.114
 30
0.0
 11
113.27200000000001
 21
193.90299999999999
 31
0.0
  0
LINE
  5
E5
  8
0
 62
     7
 10
113.27200000000001
 20
193.90299999999999
 30
0.0
 11
113.864
 21
196.114
 31
0.0
  0
LINE
  5
E6
  8
0
 62
     7
 10
113.864
 20
196.114
 30
0.0
 11
112.679
 21
196.114
 31
0.0
  0
LINE
  5
E7
  8
0
 62
     7
 10
113.264
 20
222.904
 30
0.0
 11
113.264
 21
193.90299999999999
 31
0.0
  0
LINE
  5
E8
  8
0
 62
     7
 10
113.264
 20
193.90299999999999
 30
0.0
 11
113.264
 21
192.404
 31
0.0
  0
LINE
  5
E9
  8
0
 62
     7
 10
93.320999999999998
 20
192.404
 30
0.0
 11
122.438
 21
192.404
 31
0.0
  0
LINE
  5
EA
  8
0
 62
     7
 10
93.320999999999998
 20
193.90299999999999
 30
0.0
 11
114.322
 21
193.90299999999999
 31
0.0
  0
LINE
  5
EB
  8
0
 62
     7
 10
121.16
 20
234.19300000000001
 30
0.0
 11
121.752
 21
236.405
 31
0.0
  0
LINE
  5
EC
  8
0
 62
     7
 10
121.752
 20
236.405
 30
0.0
 11
122.345
 21
234.19300000000001
 31
0.0
  0
LINE
  5
ED
  8
0
 62
     7
 10
122.345
 20
234.19300000000001
 30
0.0
 11
121.16
 21
234.19300000000001
 31
0.0
  0
LINE
  5
EE
  8
0
 62
     7
 10
122.33
 20
194.614
 30
0.0
 11
121.738
 21
192.40299999999999
 31
0.0
  0
LINE
  5
EF
  8
0
 62
     7
 10
121.738
 20
192.40299999999999
 30
0.0
 11
121.145
 21
194.614
 31
0.0
  0
LINE
  5
F0
  8
0
 62
     7
 10
121.145
 20
194.614
 30
0.0
 11
122.33
 21
194.614
 31
0.0
  0
LINE
  5
F1
  8
0
 62
     7
 10
121.745
 20
236.404
 30
0.0
 11
121.745
 21
192.404
 31
0.0
  0
LINE
  5
F2
  8
0
 62
     7
 10
93.901499999999999
 20
222.904
 30
0.0
 11
114.322
 21
222.904
 31
0.0
  0
LINE
  5
F3
  8
0
 62
     7
 10
113.84999999999999
 20
234.19300000000001
 30
0.0
 11
113.25700000000001
 21
236.405
 31
0.0
  0
LINE
  5
F4
  8
0
 62
     7
 10
113.25700000000001
 20
236.405
 30
0.0
 11
112.66500000000001
 21
234.19300000000001
 31
0.0
  0
LINE
  5
F5
  8
0
 62
     7
 10
112.66500000000001
 20
234.19300000000001
 30
0.0
 11
113.84999999999999
 21
234.19300000000001
 31
0.0
  0
LINE
  5
F6
  8
0
 62
     7
 10
112.679
 20
225.114
 30
0.0
 11
113.27200000000001
 21
222.90299999999999
 31
0.0
  0
LINE
  5
F7
  8
0
 62
     7
 10
113.27200000000001
 20
222.90299999999999
 30
0.0
 11
113.864
 21
225.114
 31
0.0
  0
LINE
  5
F8
  8
0
 62
     7
 10
113.864
 20
225.114
 30
0.0
 11
112.679
 21
225.114
 31
0.0
  0
LINE
  5
F9
  8
0
 62
     7
 10
113.264
 20
236.404
 30
0.0
 11
113.264
 21
222.904
 31
0.0
  0
LINE
  5
FA
  8
0
 62
     7
 10
105.794
 20
227.19300000000001
 30
0.0
 11
105.202
 21
229.405
 31
0.0
  0
LINE
  5
FB
  8
0
 62
     7
 10
105.202
 20
229.405
 30
0.0
 11
104.60899999999999
 21
227.19300000000001
 31
0.0
  0
LINE
  5
FC
  8
0
 62
     7
 10
104.60899999999999
 20
227.19300000000001
 30
0.0
 11
105.794
 21
227.19300000000001
 31
0.0
  0
LINE
  5
FD
  8
0
 62
     7
 10
104.624
 20
225.114
 30
0.0
 11
105.21599999999999
 21
222.90299999999999
 31
0.0
  0
LINE
  5
FE
  8
0
 62
     7
 10
105.21599999999999
 20
222.90299999999999
 30
0.0
 11
105.809
 21
225.114
 31
0.0
  0
LINE
  5
FF
  8
0
 62
     7
 10
105.809
 20
225.114
 30
0.0
 11
104.624
 21
225.114
 31
0.0
  0
LINE
  5
100
  8
0
 62
     7
 10
105.209
 20
229.404
 30
0.0
 11
105.209
 21
222.904
 31
0.0
  0
LINE
  5
101
  8
0
 62
     7
 10
105.794
 20
234.19300000000001
 30
0.0
 11
105.202
 21
236.405
 31
0.0
  0
LINE
  5
102
  8
0
 62
     7
 10
105.202
 20
236.405
 30
0.0
 11
104.60899999999999
 21
234.19300000000001
 31
0.0
  0
LINE
  5
103
  8
0
 62
     7
 10
104.60899999999999
 20
234.19300000000001
 30
0.0
 11
105.794
 21
234.19300000000001
 31
0.0
  0
LINE
  5
104
  8
0
 62
     7
 10
104.624
 20
231.61500000000001
 30
0.0
 11
105.21599999999999
 21
229.40299999999999
 31
0.0
  0
LINE
  5
105
  8
0
 62
     7
 10
105.21599999999999
 20
229.40299999999999
 30
0.0
 11
105.809
 21
231.61500000000001
 31
0.0
  0
LINE
  5
106
  8
0
 62
     7
 10
105.809
 20
231.61500000000001
 30
0.0
 11
104.624
 21
231.61500000000001
 31
0.0
  0
LINE
  5
107
  8
0
 62
     7
 10
105.209
 20
236.404
 30
0.0
 11
105.209
 21
229.404
 31
0.0
  0
LINE
  5
108
  8
0
 62
     7
 10
97.870300000000015
 20
236.404
 30
0.0
 11
122.452
 21
236.404
 31
0.0
  0
LINE
  5
109
  8
0
 62
     7
 10
73.677800000000005
 20
229.404
 30
0.0
 11
106.268
 21
229.404
 31
0.0
  0
LINE
  5
10A
  8
0
 62
     7
 10
96.809000000000012
 20
198.404
 30
0.0
 11
96.809000000000012
 21
235.904
 31
0.0
  0
LINE
  5
10B
  8
0
 62
     7
 10
96.308800000000005
 20
236.404
 30
0.0
 11
69.308899999999994
 21
236.404
 31
0.0
  0
ARC
  5
10C
  8
0
 62
     7
 10
96.308856000000006
 20
235.90380200000001
 30
0.0
 40
0.500145
 50
0.009877
 51
90.009846999999993
  0
LINE
  5
10D
  8
0
 62
     7
 10
69.308899999999994
 20
236.404
 30
0.0
 11
42.308599999999991
 21
236.404
 31
0.0
  0
LINE
  5
10E
  8
0
 62
     7
 10
41.808700000000002
 20
198.404
 30
0.0
 11
41.808700000000002
 21
235.904
 31
0.0
  0
ARC
  5
10F
  8
0
 62
     7
 10
42.327956
 20
235.88473500000001
 30
0.0
 40
0.5195720000000001
 50
92.132325000000009
 51
177.88738499999999
  0
ARC
  5
110
  8
0
 62
     7
 10
69.308868000000004
 20
213.40365399999999
 30
0.0
 40
4.000125999999999
 50
0.00001
 51
89.999980000000008
  0
ARC
  5
111
  8
0
 62
     7
 10
69.308869999999999
 20
213.40365399999999
 30
0.0
 40
4.000125999999999
 50
90.0
 51
179.99996999999999
  0
ARC
  5
112
  8
0
 62
     7
 10
69.308781999999994
 20
213.40374
 30
0.0
 40
4.0000390000000001
 50
180.00124400000001
 51
270.00125400000002
  0
ARC
  5
113
  8
0
 62
     7
 10
69.308955000000012
 20
213.40374199999999
 30
0.0
 40
4.0000400000000003
 50
269.998786
 51
359.99875600000001
  0
ARC
  5
114
  8
0
 62
     7
 10
69.308869000000001
 20
213.40365399999999
 30
0.0
 40
2.2999610000000001
 50
0.00001
 51
89.999980000000008
  0
ARC
  5
115
  8
0
 62
     7
 10
69.308869999999999
 20
213.40365399999999
 30
0.0
 40
2.2999610000000001
 50
90.0
 51
179.99996999999999
  0
ARC
  5
116
  8
0
 62
     7
 10
69.308869000000001
 20
213.40365399999999
 30
0.0
 40
2.29996
 50
179.99996999999999
 51
270.00002000000001
  0
ARC
  5
117
  8
0
 62
     7
 10
69.308869000000001
 20
213.40365499999999
 30
0.0
 40
2.2999610000000001
 50
270.00002000000001
 51
359.99999000000003
  0
LINE
  5
118
  8
0
  6
AIGENLINE001
 62
     7
 10
69.308899999999994
 20
239.57900000000001
 30
0.0
 11
69.308899999999994
 21
190.99299999999999
 31
0.0
  0
LINE
  5
119
  8
0
  6
AIGENLINE001
 62
     7
 10
72.619500000000002
 20
229.404
 30
0.0
 11
65.709400000000002
 21
229.404
 31
0.0
  0
LINE
  5
11A
  8
0
  6
AIGENLINE001
 62
     7
 10
83.309100000000015
 20
232.994
 30
0.0
 11
83.309100000000015
 21
239.905
 31
0.0
  0
LINE
  5
11B
  8
0
  6
AIGENLINE001
 62
     7
 10
55.308900000000001
 20
232.994
 30
0.0
 11
55.308900000000001
 21
239.78800000000001
 31
0.0
  0
ARC
  5
11C
  8
0
 62
     7
 10
69.241635999999986
 20
229.33658
 30
0.0
 40
1.818595999999999
 50
2.1186869999999991
 51
87.881303000000003
  0
ARC
  5
11D
  8
0
 62
     7
 10
69.308869000000001
 20
229.40381300000001
 30
0.0
 40
1.7501199999999999
 50
90.0
 51
179.99996999999999
  0
ARC
  5
11E
  8
0
 62
     7
 10
69.308782999999991
 20
229.403899
 30
0.0
 40
1.7500329999999999
 50
180.00282999999999
 51
270.00283999999999
  0
ARC
  5
11F
  8
0
 62
     7
 10
69.241260999999994
 20
229.4716
 30
0.0
 40
1.818991
 50
272.13006000000001
 51
357.86430999999999
  0
LINE
  5
120
  8
0
 62
     7
 10
47.808799999999991
 20
193.90299999999999
 30
0.0
 11
90.808999999999983
 21
193.90299999999999
 31
0.0
  0
ARC
  5
121
  8
0
 62
     7
 10
90.808897999999985
 20
198.40352899999999
 30
0.0
 40
4.5000989999999987
 50
270.00111600000002
 51
0.001087
  0
LINE
  5
122
  8
0
 62
     7
 10
95.308999999999997
 20
218.404
 30
0.0
 11
95.308999999999997
 21
198.404
 31
0.0
  0
LINE
  5
123
  8
0
 62
     7
 10
47.808799999999991
 20
222.904
 30
0.0
 11
90.808999999999983
 21
222.904
 31
0.0
  0
LINE
  5
124
  8
0
 62
     7
 10
43.308699999999988
 20
198.404
 30
0.0
 11
43.308699999999988
 21
218.404
 31
0.0
  0
LINE
  5
125
  8
0
 62
     7
 10
47.808799999999991
 20
192.404
 30
0.0
 11
90.808999999999983
 21
192.404
 31
0.0
  0
ARC
  5
126
  8
0
 62
     7
 10
90.808983999999995
 20
218.40372500000001
 30
0.0
 40
4.500013
 50
0.00001
 51
89.999980000000008
  0
ARC
  5
127
  8
0
 62
     7
 10
47.808754
 20
218.40372500000001
 30
0.0
 40
4.500013
 50
90.0
 51
179.99996999999999
  0
ARC
  5
128
  8
0
 62
     7
 10
90.809069999999991
 20
198.40370100000001
 30
0.0
 40
5.9999310000000001
 50
269.99919700000009
 51
359.999168
  0
ARC
  5
129
  8
0
 62
     7
 10
47.808665999999988
 20
198.40369899999999
 30
0.0
 40
5.999928999999999
 50
180.000832
 51
270.00084199999998
  0
ARC
  5
12A
  8
0
 62
     7
 10
47.808838999999999
 20
198.403527
 30
0.0
 40
4.5000980000000004
 50
179.998874
 51
269.99892299999999
  0
LINE
  5
12B
  8
0
 62
     7
 10
104.63200000000001
 20
116.411
 30
0.0
 11
105.22499999999999
 21
114.199
 31
0.0
  0
LINE
  5
12C
  8
0
 62
     7
 10
105.22499999999999
 20
114.199
 30
0.0
 11
105.81699999999999
 21
116.411
 31
0.0
  0
LINE
  5
12D
  8
0
 62
     7
 10
105.81699999999999
 20
116.411
 30
0.0
 11
104.63200000000001
 21
116.411
 31
0.0
  0
LINE
  5
12E
  8
0
 62
     7
 10
105.803
 20
129.95500000000001
 30
0.0
 11
105.20999999999999
 21
132.166
 31
0.0
  0
LINE
  5
12F
  8
0
 62
     7
 10
105.20999999999999
 20
132.166
 30
0.0
 11
104.61799999999999
 21
129.95500000000001
 31
0.0
  0
LINE
  5
130
  8
0
 62
     7
 10
104.61799999999999
 20
129.95500000000001
 30
0.0
 11
105.803
 21
129.95500000000001
 31
0.0
  0
LINE
  5
131
  8
0
 62
     7
 10
105.218
 20
114.199
 30
0.0
 11
105.218
 21
132.16499999999999
 31
0.0
  0
LINE
  5
132
  8
0
 62
     7
 10
105.91
 20
132.1989999999999
 30
0.0
 11
97.541600000000003
 21
132.1989999999999
 31
0.0
  0
LINE
  5
133
  8
0
 62
     7
 10
105.857
 20
114.215
 30
0.0
 11
73.723399999999998
 21
114.215
 31
0.0
  0
LINE
  5
134
  8
0
 62
     7
 10
57.520400000000002
 20
138.05799999999999
 30
0.0
 11
55.308599999999998
 21
138.65000000000001
 31
0.0
  0
LINE
  5
135
  8
0
 62
     7
 10
55.308599999999998
 20
138.65000000000001
 30
0.0
 11
57.520400000000002
 21
139.24299999999999
 31
0.0
  0
LINE
  5
136
  8
0
 62
     7
 10
57.520400000000002
 20
139.24299999999999
 30
0.0
 11
57.520400000000002
 21
138.05799999999999
 31
0.0
  0
LINE
  5
137
  8
0
 62
     7
 10
81.096999999999994
 20
139.22900000000001
 30
0.0
 11
83.308800000000005
 21
138.636
 31
0.0
  0
LINE
  5
138
  8
0
 62
     7
 10
83.308800000000005
 20
138.636
 30
0.0
 11
81.096999999999994
 21
138.04300000000001
 31
0.0
  0
LINE
  5
139
  8
0
 62
     7
 10
81.096999999999994
 20
138.04300000000001
 30
0.0
 11
81.096999999999994
 21
139.22900000000001
 31
0.0
  0
LINE
  5
13A
  8
0
 62
     7
 10
55.309600000000003
 20
138.64400000000001
 30
0.0
 11
83.307400000000001
 21
138.64400000000001
 31
0.0
  0
LINE
  5
13B
  8
0
 62
     7
 10
83.308800000000005
 20
139.351
 30
0.0
 11
83.308800000000005
 21
129.227
 31
0.0
  0
LINE
  5
13C
  8
0
 62
     7
 10
55.308599999999998
 20
139.351
 30
0.0
 11
55.308599999999998
 21
129.227
 31
0.0
  0
LINE
  5
13D
  8
0
 62
     7
 10
72.808800000000005
 20
116.39700000000001
 30
0.0
 11
72.808800000000005
 21
114.71599999999999
 31
0.0
  0
ARC
  5
13E
  8
0
 62
     7
 10
72.289224000000004
 20
114.73481
 30
0.0
 40
0.519898
 50
272.16646700000001
 51
357.873017
  0
LINE
  5
13F
  8
0
 62
     7
 10
72.308899999999994
 20
114.215
 30
0.0
 11
66.308899999999994
 21
114.215
 31
0.0
  0
ARC
  5
140
  8
0
 62
     7
 10
66.308860999999993
 20
114.715515
 30
0.0
 40
0.5002310000000002
 50
179.99996999999999
 51
270.00002000000001
  0
LINE
  5
141
  8
0
 62
     7
 10
65.808599999999998
 20
114.71599999999999
 30
0.0
 11
65.808599999999998
 21
116.39700000000001
 31
0.0
  0
LINE
  5
142
  8
0
  6
AIGENLINE001
 62
     7
 10
152.77199999999999
 20
128.715
 30
0.0
 11
158.857
 21
128.715
 31
0.0
  0
LINE
  5
143
  8
0
  6
AIGENLINE001
 62
     7
 10
66.226900000000001
 20
128.715
 30
0.0
 11
72.312299999999993
 21
128.715
 31
0.0
  0
ARC
  5
144
  8
0
  6
AIGENLINE002
 62
     7
 10
69.308869000000001
 20
128.715093
 30
0.0
 40
1.249889
 50
270.00002000000001
 51
359.99999000000003
  0
ARC
  5
145
  8
0
  6
AIGENLINE002
 62
     7
 10
69.308869000000001
 20
128.715093
 30
0.0
 40
1.249887999999999
 50
179.99996999999999
 51
270.00002000000001
  0
ARC
  5
146
  8
0
  6
AIGENLINE002
 62
     7
 10
69.308869000000001
 20
128.715093
 30
0.0
 40
1.249889
 50
90.0
 51
179.99996999999999
  0
ARC
  5
147
  8
0
  6
AIGENLINE002
 62
     7
 10
69.308869000000001
 20
128.715093
 30
0.0
 40
1.249889
 50
0.00001
 51
89.999980000000008
  0
LINE
  5
148
  8
0
  6
AIGENLINE001
 62
     7
 10
55.308599999999998
 20
124.036
 30
0.0
 11
55.308599999999998
 21
128.52099999999999
 31
0.0
  0
LINE
  5
149
  8
0
  6
AIGENLINE001
 62
     7
 10
53.030700000000003
 20
126.215
 30
0.0
 11
57.591000000000001
 21
126.215
 31
0.0
  0
LINE
  5
14A
  8
0
  6
AIGENLINE002
 62
     7
 10
54.808399999999999
 20
124.965
 30
0.0
 11
55.808799999999998
 21
124.965
 31
0.0
  0
LINE
  5
14B
  8
0
  6
AIGENLINE002
 62
     7
 10
54.808399999999999
 20
127.465
 30
0.0
 11
55.808799999999998
 21
127.465
 31
0.0
  0
ARC
  5
14C
  8
0
  6
AIGENLINE002
 62
     7
 10
55.803306999999997
 20
126.22851199999999
 30
0.0
 40
1.263441
 50
270.25059700000003
 51
314.73196000000002
  0
ARC
  5
14D
  8
0
  6
AIGENLINE002
 62
     7
 10
55.79313599999999
 20
126.221394
 30
0.0
 40
1.2656019999999999
 50
315.28587499999998
 51
359.70925099999999
  0
ARC
  5
14E
  8
0
  6
AIGENLINE002
 62
     7
 10
55.79412099999999
 20
126.208611
 30
0.0
 40
1.2646159999999991
 50
0.288193
 51
44.732475999999991
  0
ARC
  5
14F
  8
0
  6
AIGENLINE002
 62
     7
 10
55.802655999999999
 20
126.200706
 30
0.0
 40
1.2641690000000001
 50
45.259248000000007
 51
89.720062999999996
  0
ARC
  5
150
  8
0
  6
AIGENLINE002
 62
     7
 10
54.813915000000001
 20
126.202229
 30
0.0
 40
1.2626429999999991
 50
90.251605000000012
 51
134.76904400000001
  0
ARC
  5
151
  8
0
  6
AIGENLINE002
 62
     7
 10
54.822668999999991
 20
126.208782
 30
0.0
 40
1.2642029999999991
 50
135.25985299999999
 51
179.719437
  0
ARC
  5
152
  8
0
  6
AIGENLINE002
 62
     7
 10
54.823919999999987
 20
126.221333
 30
0.0
 40
1.2654540000000001
 50
180.28804
 51
224.71687399999999
  0
ARC
  5
153
  8
0
  6
AIGENLINE002
 62
     7
 10
54.81488800000001
 20
126.230907
 30
0.0
 40
1.2658409999999991
 50
225.31247999999999
 51
269.70500299999998
  0
LINE
  5
154
  8
0
  6
AIGENLINE001
 62
     7
 10
83.308800000000005
 20
124.036
 30
0.0
 11
83.308800000000005
 21
128.52099999999999
 31
0.0
  0
LINE
  5
155
  8
0
  6
AIGENLINE001
 62
     7
 10
81.031199999999998
 20
126.215
 30
0.0
 11
85.591200000000001
 21
126.215
 31
0.0
  0
LINE
  5
156
  8
0
  6
AIGENLINE002
 62
     7
 10
82.808899999999994
 20
124.965
 30
0.0
 11
83.808699999999988
 21
124.965
 31
0.0
  0
LINE
  5
157
  8
0
  6
AIGENLINE002
 62
     7
 10
82.808899999999994
 20
127.465
 30
0.0
 11
83.808699999999988
 21
127.465
 31
0.0
  0
ARC
  5
158
  8
0
  6
AIGENLINE002
 62
     7
 10
83.803153000000009
 20
126.229349
 30
0.0
 40
1.264278
 50
270.25042400000001
 51
314.71634899999998
  0
ARC
  5
159
  8
0
  6
AIGENLINE002
 62
     7
 10
83.791902000000007
 20
126.22198400000001
 30
0.0
 40
1.267029
 50
315.31222500000001
 51
359.6829009999999
  0
ARC
  5
15A
  8
0
  6
AIGENLINE002
 62
     7
 10
83.794312000000005
 20
126.208611
 30
0.0
 40
1.2646159999999991
 50
0.288193
 51
44.732475999999991
  0
ARC
  5
15B
  8
0
  6
AIGENLINE002
 62
     7
 10
83.803423999999993
 20
126.202093
 30
0.0
 40
1.2627779999999991
 50
45.233536999999998
 51
89.761568999999994
  0
ARC
  5
15C
  8
0
  6
AIGENLINE002
 62
     7
 10
82.814440999999988
 20
126.20141700000001
 30
0.0
 40
1.263455999999999
 50
90.250992999999994
 51
134.753861
  0
ARC
  5
15D
  8
0
  6
AIGENLINE002
 62
     7
 10
82.822034999999985
 20
126.209616
 30
0.0
 40
1.263029
 50
135.26039399999999
 51
179.75702899999999
  0
ARC
  5
15E
  8
0
  6
AIGENLINE002
 62
     7
 10
82.825281000000004
 20
126.221324
 30
0.0
 40
1.266279999999999
 50
180.287453
 51
224.67934
  0
ARC
  5
15F
  8
0
  6
AIGENLINE002
 62
     7
 10
82.814499999999995
 20
126.229516
 30
0.0
 40
1.264445
 50
225.286765
 51
269.74650200000002
  0
TEXT
  5
160
  8
_________2
 62
     7
 10
95.030536166666664
 20
34.7378
 30
0.0
 40
3.6545800000000002
  1
1 ： 10
 41
0.5
 72
     1
 11
98.898300000000006
 21
34.7378
 31
0.0
  0
TEXT
  5
161
  8
_________2
 62
     7
 10
26.692799999999998
 20
69.0732
 30
0.0
 40
4.2168199999999993
  1
※壁取付部には厚さ30mm以上の補強材を入れてください。
 41
0.5
  0
TEXT
  5
162
  8
_________2
 62
     7
 10
26.692799999999998
 20
63.802199999999999
 30
0.0
 40
4.2168199999999993
  1
※ペデスタル（DV085839）との施工に当たっては施工説明書をご参照ください。
 41
0.5
  0
TEXT
  5
163
  8
_________2
 62
     7
 10
28.83196533333334
 20
49.456400000000002
 30
0.0
 40
4.4979399999999989
  1
セラトレーディング株式会社
 41
0.5
 72
     1
 11
46.22399999999999
 21
49.456400000000002
 31
0.0
  0
TEXT
  5
164
  8
_________2
 62
     7
 10
29.525700000000001
 20
22.2272
 30
0.0
 40
3.9357000000000002
  1
実容量：7.6L、重量：16kg、オーバーフロー付
 41
0.5
  0
TEXT
  5
165
  8
_________2
 62
     7
 10
113.886
 20
45.745600000000003
 30
0.0
 40
3.9357000000000002
  1
ミーバイスタルク 洗面器
 41
0.5
  0
LINE
  5
166
  8
_________2
 62
     7
 10
105.239
 20
17.4285
 30
0.0
 11
105.239
 21
0.4485540000000001
 31
0.0
  0
LINE
  5
167
  8
_________2
 62
     7
 10
81.679900000000004
 20
51.324300000000001
 30
0.0
 11
79.493700000000004
 21
51.324300000000001
 31
0.0
  0
LINE
  5
168
  8
_________2
 62
     7
 10
82.172600000000017
 20
51.324300000000001
 30
0.0
 11
81.920400000000001
 21
51.324300000000001
 31
0.0
  0
LINE
  5
169
  8
_________2
 62
     7
 10
82.665199999999984
 20
51.324300000000001
 30
0.0
 11
85.590100000000007
 21
51.324300000000001
 31
0.0
  0
LINE
  5
16A
  8
_________2
 62
     7
 10
82.172600000000017
 20
51.324300000000001
 30
0.0
 11
82.424800000000005
 21
51.324300000000001
 31
0.0
  0
LINE
  5
16B
  8
_________2
 62
     7
 10
75.776399999999995
 20
51.324300000000001
 30
0.0
 11
73.589399999999998
 21
51.324300000000001
 31
0.0
  0
LINE
  5
16C
  8
_________2
 62
     7
 10
76.2684
 20
51.324300000000001
 30
0.0
 11
76.016900000000007
 21
51.324300000000001
 31
0.0
  0
LINE
  5
16D
  8
_________2
 62
     7
 10
76.2684
 20
51.817
 30
0.0
 11
76.2684
 21
54.003900000000002
 31
0.0
  0
LINE
  5
16E
  8
_________2
 62
     7
 10
76.2684
 20
51.324300000000001
 30
0.0
 11
76.2684
 21
51.576900000000002
 31
0.0
  0
LINE
  5
16F
  8
_________2
 62
     7
 10
76.76100000000001
 20
51.324300000000001
 30
0.0
 11
78.947999999999993
 21
51.324300000000001
 31
0.0
  0
LINE
  5
170
  8
_________2
 62
     7
 10
76.2684
 20
51.324300000000001
 30
0.0
 11
76.520499999999998
 21
51.324300000000001
 31
0.0
  0
LINE
  5
171
  8
_________2
 62
     7
 10
76.2684
 20
50.832399999999993
 30
0.0
 11
76.2684
 21
48.645699999999998
 31
0.0
  0
LINE
  5
172
  8
_________2
 62
     7
 10
76.2684
 20
51.324300000000001
 30
0.0
 11
76.2684
 21
51.072800000000001
 31
0.0
  0
LINE
  5
173
  8
_________2
 62
     7
 10
79.979399999999984
 20
50.104799999999997
 30
0.0
 11
85.157399999999996
 21
49.240000000000002
 31
0.0
  0
LINE
  5
174
  8
_________2
 62
     7
 10
79.979399999999984
 20
52.544199999999989
 30
0.0
 11
85.157399999999996
 21
53.409700000000001
 31
0.0
  0
LINE
  5
175
  8
_________2
 62
     7
 10
85.157399999999996
 20
49.240000000000002
 30
0.0
 11
85.157399999999996
 21
53.409700000000001
 31
0.0
  0
LINE
  5
176
  8
_________2
 62
     7
 10
79.979399999999984
 20
50.104799999999997
 30
0.0
 11
79.979399999999984
 21
52.544199999999989
 31
0.0
  0
ARC
  5
177
  8
_________2
 62
     7
 10
76.221766000000002
 20
51.277380999999998
 30
0.0
 40
1.267714
 50
2.1220840000000001
 51
87.894083999999992
  0
ARC
  5
178
  8
_________2
 62
     7
 10
76.315297000000001
 20
51.277734999999993
 30
0.0
 40
1.267374999999999
 50
92.122849999999985
 51
177.893304
  0
ARC
  5
179
  8
_________2
 62
     7
 10
76.315273000000005
 20
51.371245999999992
 30
0.0
 40
1.267363
 50
182.121815
 51
267.87821400000001
  0
ARC
  5
17A
  8
_________2
 62
     7
 10
76.221461000000005
 20
51.371928999999987
 30
0.0
 40
1.2680439999999991
 50
272.11916400000001
 51
357.84848499999998
  0
ARC
  5
17B
  8
_________2
 62
     7
 10
76.187981999999991
 20
51.244312999999998
 30
0.0
 40
2.1668310000000002
 50
2.1161439999999989
 51
87.874379000000005
  0
ARC
  5
17C
  8
_________2
 62
     7
 10
76.348411999999996
 20
51.245334999999997
 30
0.0
 40
2.1657980000000001
 50
92.118487999999999
 51
177.909886
  0
ARC
  5
17D
  8
_________2
 62
     7
 10
76.348354
 20
51.404327000000002
 30
0.0
 40
2.1657779999999991
 50
182.11700400000001
 51
267.88302499999998
  0
ARC
  5
17E
  8
_________2
 62
     7
 10
76.188378999999983
 20
51.405009999999997
 30
0.0
 40
2.1664590000000001
 50
272.11546800000002
 51
357.86560400000002
  0
TEXT
  5
17F
  8
_________2
 62
     7
 10
109.544
 20
23.199100000000001
 30
0.0
 40
3.0923400000000001
  1
図番
 41
0.5
  0
LINE
  5
180
  8
_________2
 62
     7
 10
108.489
 20
27.4283
 30
0.0
 11
188.49000000000001
 21
27.4283
 31
0.0
  0
TEXT
  5
181
  8
_________2
 62
     7
 10
109.544
 20
33.198900000000002
 30
0.0
 40
3.0923400000000001
  1
品番
 41
0.5
  0
TEXT
  5
182
  8
_________2
 62
     7
 10
109.544
 20
53.338000000000001
 30
0.0
 40
3.0923400000000001
  1
名称
 41
0.5
  0
TEXT
  5
183
  8
_________2
 62
     7
 10
94.569199999999995
 20
48.341900000000003
 30
0.0
 40
3.6545800000000002
  1
mm
 41
0.5
  0
TEXT
  5
184
  8
_________2
 62
     7
 10
90.582099999999997
 20
53.338000000000001
 30
0.0
 40
3.0923400000000001
  1
単位
 41
0.5
  0
TEXT
  5
185
  8
_________2
 62
     7
 10
90.582099999999997
 20
40.930399999999999
 30
0.0
 40
3.0923400000000001
  1
尺度
 41
0.5
  0
TEXT
  5
186
  8
_________2
 62
     7
 10
137.327
 20
30.627800000000001
 30
0.0
 40
3.9357000000000002
  1
DV233555-00
 41
0.5
  0
TEXT
  5
187
  8
_________2
 62
     7
 10
137.327
 20
20.626999999999999
 30
0.0
 40
3.9357000000000002
  1
DV233555
 41
0.5
  0
TEXT
  5
188
  8
_________2
 62
     7
 10
41.6663
 20
35.123000000000012
 30
0.0
 40
3.6545800000000002
  1
篠崎
 41
0.5
  0
TEXT
  5
189
  8
_________2
 62
     7
 10
23.092300000000002
 20
35.123000000000012
 30
0.0
 40
3.6545800000000002
  1
早川
 41
0.5
  0
TEXT
  5
18A
  8
_________2
 62
     7
 10
72.724699999999999
 20
34.7378
 30
0.0
 40
3.6545800000000002
  1
16.12.14
 41
0.5
  0
TEXT
  5
18B
  8
_________2
 62
     7
 10
74.768500000000003
 20
40.930399999999999
 30
0.0
 40
3.0923400000000001
  1
付
 41
0.5
  0
TEXT
  5
18C
  8
_________2
 62
     7
 10
71.209900000000005
 20
40.930399999999999
 30
0.0
 40
3.0923400000000001
  1
日
 41
0.5
  0
TEXT
  5
18D
  8
_________2
 62
     7
 10
34.578299999999999
 20
40.930399999999999
 30
0.0
 40
3.0923400000000001
  1
検図
 41
0.5
  0
TEXT
  5
18E
  8
_________2
 62
     7
 10
22.9602
 20
26.731000000000002
 30
0.0
 40
3.0923400000000001
  1
備考
 41
0.5
  0
TEXT
  5
18F
  8
_________2
 62
     7
 10
22.9602
 20
40.930399999999999
 30
0.0
 40
3.0923400000000001
  1
製図
 41
0.5
  0
LINE
  5
190
  8
_________2
 62
     7
 10
188.49000000000001
 20
17.4285
 30
0.0
 11
21.988499999999998
 21
17.4285
 31
0.0
  0
LINE
  5
191
  8
_________2
 62
     7
 10
21.988499999999998
 20
17.4285
 30
0.0
 11
21.988499999999998
 21
280.43000000000001
 31
0.0
  0
LINE
  5
192
  8
_________2
 62
     7
 10
21.988499999999998
 20
280.43000000000001
 30
0.0
 11
188.49000000000001
 21
280.43000000000001
 31
0.0
  0
LINE
  5
193
  8
_________2
 62
     7
 10
188.49000000000001
 20
280.43000000000001
 30
0.0
 11
188.49000000000001
 21
17.4285
 31
0.0
  0
LINE
  5
194
  8
_________2
 62
     7
 10
70.488799999999998
 20
30.928899999999999
 30
0.0
 11
70.488799999999998
 21
57.428699999999992
 31
0.0
  0
LINE
  5
195
  8
_________2
 62
     7
 10
89.488600000000005
 20
30.928899999999999
 30
0.0
 11
89.488600000000005
 21
57.428699999999992
 31
0.0
  0
LINE
  5
196
  8
_________2
 62
     7
 10
108.489
 20
17.4285
 30
0.0
 11
108.489
 21
57.428699999999992
 31
0.0
  0
LINE
  5
197
  8
_________2
 62
     7
 10
33.488300000000002
 20
30.928899999999999
 30
0.0
 11
33.488300000000002
 21
44.928800000000003
 31
0.0
  0
LINE
  5
198
  8
_________2
 62
     7
 10
21.988499999999998
 20
30.928899999999999
 30
0.0
 11
108.489
 21
30.928899999999999
 31
0.0
  0
LINE
  5
199
  8
_________2
 62
     7
 10
21.988499999999998
 20
44.928800000000003
 30
0.0
 11
108.489
 21
44.928800000000003
 31
0.0
  0
LINE
  5
19A
  8
_________2
 62
     7
 10
108.489
 20
37.428100000000001
 30
0.0
 11
188.49000000000001
 21
37.428100000000001
 31
0.0
  0
LINE
  5
19B
  8
_________2
 62
     7
 10
21.988499999999998
 20
57.428699999999992
 30
0.0
 11
188.49000000000001
 21
57.428699999999992
 31
0.0
  0
LINE
  5
19C
  8
_________2
 62
     7
 10
210.24000000000001
 20
148.93100000000001
 30
0.0
 11
188.489
 21
148.93100000000001
 31
0.0
  0
LINE
  5
19D
  8
_________2
 62
     7
 10
105.239
 20
297.45100000000002
 30
0.0
 11
105.239
 21
280.43000000000001
 31
0.0
  0
LINE
  5
19E
  8
_________2
 62
     7
 10
21.988499999999998
 20
148.93100000000001
 30
0.0
 11
0.238402
 21
148.93100000000001
 31
0.0
  0
ENDSEC
  0
EOF
