  0
SECTION
  2
HEADER
  9
$ACADVER
  1
AC1009
  9
$INSBASE
 10
0.0
 20
0.0
 30
0.0
  9
$EXTMIN
 10
-4.70052
 20
-21.071400000000001
 30
0.0
  9
$EXTMAX
 10
205.30099999999999
 20
275.93099999999998
 30
0.0
  9
$LIMMIN
 10
0.0
 20
0.0
  9
$LIMMAX
 10
12.0
 20
9.0
  9
$ORTHOMODE
 70
     0
  9
$REGENMODE
 70
     1
  9
$FILLMODE
 70
     1
  9
$QTEXTMODE
 70
     0
  9
$MIRRTEXT
 70
     1
  9
$DRAGMODE
 70
     2
  9
$LTSCALE
 40
1.0
  9
$OSMODE
 70
    37
  9
$ATTMODE
 70
     1
  9
$TEXTSIZE
 40
0.0
  9
$TRACEWID
 40
0.05
  9
$TEXTSTYLE
  7
STANDARD
  9
$CLAYER
  8
0
  9
$CELTYPE
  6
CONTINUOUS
  9
$CECOLOR
 62
   256
  9
$DIMSCALE
 40
1.0
  9
$DIMASZ
 40
0.18
  9
$DIMEXO
 40
0.0625
  9
$DIMDLI
 40
0.38
  9
$DIMRND
 40
0.0
  9
$DIMDLE
 40
0.0
  9
$DIMEXE
 40
0.18
  9
$DIMTP
 40
0.0
  9
$DIMTM
 40
0.0
  9
$DIMTXT
 40
0.18
  9
$DIMCEN
 40
0.09
  9
$DIMTSZ
 40
0.0
  9
$DIMTOL
 70
     0
  9
$DIMLIM
 70
     0
  9
$DIMTIH
 70
     1
  9
$DIMTOH
 70
     1
  9
$DIMSE1
 70
     0
  9
$DIMSE2
 70
     0
  9
$DIMTAD
 70
     0
  9
$DIMZIN
 70
     0
  9
$DIMBLK
  1

  9
$DIMASO
 70
     1
  9
$DIMSHO
 70
     1
  9
$DIMPOST
  1

  9
$DIMAPOST
  1

  9
$DIMALT
 70
     0
  9
$DIMALTD
 70
     2
  9
$DIMALTF
 40
25.399999999999999
  9
$DIMLFAC
 40
1.0
  9
$DIMTOFL
 70
     0
  9
$DIMTVP
 40
0.0
  9
$DIMTIX
 70
     0
  9
$DIMSOXD
 70
     0
  9
$DIMSAH
 70
     0
  9
$DIMBLK1
  1

  9
$DIMBLK2
  1

  9
$DIMSTYLE
  2
STANDARD
  9
$DIMCLRD
 70
     0
  9
$DIMCLRE
 70
     0
  9
$DIMCLRT
 70
     0
  9
$DIMTFAC
 40
1.0
  9
$DIMGAP
 40
0.09
  9
$LUNITS
 70
     2
  9
$LUPREC
 70
     4
  9
$SKETCHINC
 40
0.1
  9
$FILLETRAD
 40
0.0
  9
$AUNITS
 70
     0
  9
$AUPREC
 70
     0
  9
$MENU
  1
.
  9
$ELEVATION
 40
0.0
  9
$PELEVATION
 40
0.0
  9
$THICKNESS
 40
0.0
  9
$LIMCHECK
 70
     0
  9
$BLIPMODE
 70
     0
  9
$CHAMFERA
 40
0.0
  9
$CHAMFERB
 40
0.0
  9
$SKPOLY
 70
     0
  9
$TDCREATE
 40
2444972.375
  9
$TDUPDATE
 40
2458185.2495857058
  9
$TDINDWG
 40
0.0000342708
  9
$TDUSRTIMER
 40
0.0000342708
  9
$USRTIMER
 70
     1
  9
$ANGBASE
 50
0.0
  9
$ANGDIR
 70
     0
  9
$PDMODE
 70
     0
  9
$PDSIZE
 40
0.0
  9
$PLINEWID
 40
0.0
  9
$COORDS
 70
     1
  9
$SPLFRAME
 70
     0
  9
$SPLINETYPE
 70
     6
  9
$SPLINESEGS
 70
     8
  9
$ATTDIA
 70
     1
  9
$ATTREQ
 70
     1
  9
$HANDLING
 70
     1
  9
$HANDSEED
  5
20D
  9
$SURFTAB1
 70
     6
  9
$SURFTAB2
 70
     6
  9
$SURFTYPE
 70
     6
  9
$SURFU
 70
     6
  9
$SURFV
 70
     6
  9
$UCSNAME
  2

  9
$UCSORG
 10
0.0
 20
0.0
 30
0.0
  9
$UCSXDIR
 10
1.0
 20
0.0
 30
0.0
  9
$UCSYDIR
 10
0.0
 20
1.0
 30
0.0
  9
$PUCSNAME
  2

  9
$PUCSORG
 10
0.0
 20
0.0
 30
0.0
  9
$PUCSXDIR
 10
1.0
 20
0.0
 30
0.0
  9
$PUCSYDIR
 10
0.0
 20
1.0
 30
0.0
  9
$USERI1
 70
     0
  9
$USERI2
 70
     0
  9
$USERI3
 70
     0
  9
$USERI4
 70
     0
  9
$USERI5
 70
     0
  9
$USERR1
 40
0.0
  9
$USERR2
 40
0.0
  9
$USERR3
 40
0.0
  9
$USERR4
 40
0.0
  9
$USERR5
 40
0.0
  9
$WORLDVIEW
 70
     1
  9
$SHADEDGE
 70
     3
  9
$SHADEDIF
 70
    70
  9
$TILEMODE
 70
     1
  9
$MAXACTVP
 70
    48
  9
$PLIMCHECK
 70
     0
  9
$PEXTMIN
 10
1.0000000000000000E+020
 20
1.0000000000000000E+020
 30
1.0000000000000000E+020
  9
$PEXTMAX
 10
-1.0000000000000000E+020
 20
-1.0000000000000000E+020
 30
-1.0000000000000000E+020
  9
$PLIMMIN
 10
0.0
 20
0.0
  9
$PLIMMAX
 10
12.0
 20
9.0
  9
$UNITMODE
 70
     0
  9
$VISRETAIN
 70
     1
  9
$PLINEGEN
 70
     0
  9
$PSLTSCALE
 70
     1
  0
ENDSEC
  0
SECTION
  2
TABLES
  0
TABLE
  2
VPORT
 70
     1
  0
VPORT
  2
*ACTIVE
 70
     0
 10
0.0
 20
0.0
 11
1.0
 21
1.0
 12
190.8818955579932
 22
127.4298
 13
0.0
 23
0.0
 14
1.0
 24
1.0
 15
0.0
 25
0.0
 16
0.0
 26
0.0
 36
1.0
 17
0.0
 27
0.0
 37
0.0
 40
280.9492874949953
 41
2.298642533936651
 42
50.0
 43
0.0
 44
0.0
 50
0.0
 51
0.0
 71
     0
 72
   100
 73
     1
 74
     1
 75
     0
 76
     0
 77
     0
 78
     0
  0
ENDTAB
  0
TABLE
  2
LTYPE
 70
     3
  0
LTYPE
  2
CONTINUOUS
 70
     0
  3
Solid line
 72
    65
 73
     0
 40
0.0
  0
LTYPE
  2
AIGENLINE001
 70
     0
  3
generate AI->DXF Converter
 72
    65
 73
     4
 40
5.8561449999999988
 49
3.5278
 49
-0.776115
 49
0.776115
 49
-0.776115
  0
LTYPE
  2
AIGENLINE002
 70
     0
  3
generate AI->DXF Converter
 72
    65
 73
     2
 40
1.5522299999999991
 49
0.776115
 49
-0.776115
  0
ENDTAB
  0
TABLE
  2
LAYER
 70
     2
  0
LAYER
  2
0
 70
     0
 62
     7
  6
CONTINUOUS
  0
LAYER
  2
_________2
 70
     0
 62
     7
  6
CONTINUOUS
  0
ENDTAB
  0
TABLE
  2
STYLE
 70
     1
  0
STYLE
  2
STANDARD
 70
     0
 40
0.0
 41
0.0
 50
0.0
 71
     0
 42
0.0
  3
TXT
  4
EXTFONT.SHX
  0
ENDTAB
  0
TABLE
  2
VIEW
 70
     0
  0
ENDTAB
  0
TABLE
  2
UCS
 70
     0
  0
ENDTAB
  0
TABLE
  2
APPID
 70
     3
  0
APPID
  2
ACAD
 70
     0
  0
APPID
  2
ACAD_NAV_VCDISPLAY
 70
     0
  0
APPID
  2
ACAD_MLEADERVER
 70
     0
  0
ENDTAB
  0
TABLE
  2
DIMSTYLE
 70
     1
  0
DIMSTYLE
  2
STANDARD
 70
     0
  3

  4

  5

  6

  7

 40
1.0
 41
0.18
 42
0.0625
 43
0.38
 44
0.18
 45
0.0
 46
0.0
 47
0.0
 48
0.0
140
0.18
141
0.09
142
0.0
143
25.399999999999999
144
1.0
145
0.0
146
1.0
147
0.09
 71
     0
 72
     0
 73
     1
 74
     1
 75
     0
 76
     0
 77
     0
 78
     0
170
     0
171
     2
172
     0
173
     0
174
     0
175
     0
176
     0
177
     0
178
     0
  0
ENDTAB
  0
ENDSEC
  0
SECTION
  2
BLOCKS
  0
BLOCK
  8
0
  2
$MODEL_SPACE
 70
     0
 10
0.0
 20
0.0
 30
0.0
  3
$MODEL_SPACE
  1

  0
ENDBLK
  5
1A
  8
0
  0
BLOCK
 67
     1
  8
0
  2
$PAPER_SPACE
 70
     0
 10
0.0
 20
0.0
 30
0.0
  3
$PAPER_SPACE
  1

  0
ENDBLK
  5
17
 67
     1
  8
0
  0
ENDSEC
  0
SECTION
  2
ENTITIES
  0
TEXT
  5
23
  8
0
 62
     7
 10
164.1412875
 20
76.8857
 30
0.0
 40
3.0923400000000001
  1
220
 41
0.5
 72
     1
 11
166.07400000000001
 21
76.8857
 31
0.0
  0
TEXT
  5
24
  8
0
 62
     7
 10
151.124
 20
94.228430000000003
 30
0.0
 40
3.0923400000000001
  1
115
 50
90.0
 41
0.5
 72
     1
 11
151.124
 21
95.774600000000007
 31
0.0
  0
TEXT
  5
25
  8
0
 62
     7
 10
91.104399999999998
 20
97.708725000000015
 30
0.0
 40
3.0923400000000001
  1
55
 50
90.0
 41
0.5
 72
     1
 11
91.104399999999998
 21
98.997200000000021
 31
0.0
  0
TEXT
  5
26
  8
0
 62
     7
 10
114.886
 20
93.080534999999983
 30
0.0
 40
3.0923400000000001
  1
135
 50
90.0
 41
0.5
 72
     1
 11
114.886
 21
94.884399999999999
 31
0.0
  0
TEXT
  5
27
  8
0
 62
     7
 10
121.497
 20
91.580534999999983
 30
0.0
 40
3.0923400000000001
  1
165
 50
90.0
 41
0.5
 72
     1
 11
121.497
 21
93.384399999999999
 31
0.0
  0
TEXT
  5
28
  8
0
 62
     7
 10
89.958200000000005
 20
201.015525
 30
0.0
 40
3.0923400000000001
  1
65
 50
90.0
 41
0.5
 72
     1
 11
89.958200000000005
 21
202.304
 31
0.0
  0
TEXT
  5
29
  8
0
 62
     7
 10
115.40600000000001
 20
151.84
 30
0.0
 40
3.0923400000000001
  1
25
 50
90.0
 41
0.5
  0
TEXT
  5
2A
  8
0
 62
     7
 10
115.40600000000001
 20
175.01213499999989
 30
0.0
 40
3.0923400000000001
  1
315
 50
90.0
 41
0.5
 72
     1
 11
115.40600000000001
 21
176.81599999999989
 31
0.0
  0
TEXT
  5
2B
  8
0
 62
     7
 10
115.40600000000001
 20
197.39098249999989
 30
0.0
 40
3.0923400000000001
  1
130
 50
90.0
 41
0.5
 72
     1
 11
115.40600000000001
 21
199.066
 31
0.0
  0
TEXT
  5
2C
  8
0
 62
     7
 10
122.34699999999999
 20
180.13328749999991
 30
0.0
 40
3.0923400000000001
  1
470
 50
90.0
 41
0.5
 72
     1
 11
122.34699999999999
 21
182.06599999999989
 31
0.0
  0
TEXT
  5
2D
  8
0
 62
     7
 10
64.111887499999995
 20
111.41500000000001
 30
0.0
 40
3.0923400000000001
  1
280
 41
0.5
 72
     1
 11
66.044600000000003
 21
111.41500000000001
 31
0.0
  0
TEXT
  5
2E
  8
0
 62
     7
 10
110.34805
 20
144.99000000000001
 30
0.0
 40
3.0923400000000001
  1
25
 41
0.5
 72
     2
 11
112.925
 21
144.99000000000001
 31
0.0
  0
TEXT
  5
2F
  8
0
 62
     7
 10
64.111887499999995
 20
144.99000000000001
 30
0.0
 40
3.0923400000000001
  1
750
 41
0.5
 72
     1
 11
66.044600000000003
 21
144.99000000000001
 31
0.0
  0
TEXT
  5
30
  8
0
 62
     7
 10
19.593800000000002
 20
144.99000000000001
 30
0.0
 40
3.0923400000000001
  1
25
 41
0.5
  0
TEXT
  5
31
  8
0
 62
     7
 10
64.240735000000001
 20
216.517
 30
0.0
 40
3.0923400000000001
  1
800
 41
0.5
 72
     1
 11
66.044600000000003
 21
216.517
 31
0.0
  0
TEXT
  5
32
  8
0
 62
     7
 10
38.386200000000002
 20
187.12599999999989
 30
0.0
 40
3.0923400000000001
  1
メーカーロゴ
 41
0.5
  0
TEXT
  5
33
  8
0
 62
     7
 10
49.405900000000003
 20
209.82599999999999
 30
0.0
 40
3.0923400000000001
  1
%%c35
 41
0.5
  0
TEXT
  5
34
  8
0
 62
     7
 10
52.253599999999999
 20
177.05500000000001
 30
0.0
 40
3.0923400000000001
  1
%%c46
 41
0.5
  0
LINE
  5
35
  8
0
 62
     7
 10
57.548299999999998
 20
186.4259999999999
 30
0.0
 11
38.386200000000002
 21
186.4259999999999
 31
0.0
  0
LINE
  5
36
  8
0
 62
     7
 10
62.57609999999999
 20
191.49199999999999
 30
0.0
 11
63.544800000000002
 21
193.566
 31
0.0
  0
LINE
  5
37
  8
0
 62
     7
 10
63.544800000000002
 20
193.566
 30
0.0
 11
61.668599999999991
 21
192.25399999999999
 31
0.0
  0
LINE
  5
38
  8
0
 62
     7
 10
61.668599999999991
 20
192.25399999999999
 30
0.0
 11
62.57609999999999
 21
191.49199999999999
 31
0.0
  0
LINE
  5
39
  8
0
 62
     7
 10
63.544800000000002
 20
193.566
 30
0.0
 11
57.548299999999998
 21
186.4259999999999
 31
0.0
  0
LINE
  5
3A
  8
0
 62
     7
 10
55.985199999999999
 20
209.126
 30
0.0
 11
49.405900000000003
 21
209.126
 31
0.0
  0
LINE
  5
3B
  8
0
 62
     7
 10
58.832999999999998
 20
176.35499999999999
 30
0.0
 11
52.253599999999999
 21
176.35499999999999
 31
0.0
  0
LINE
  5
3C
  8
0
 62
     7
 10
68.427099999999996
 20
195.846
 30
0.0
 11
67.2821
 21
197.82900000000001
 31
0.0
  0
LINE
  5
3D
  8
0
 62
     7
 10
67.2821
 20
197.82900000000001
 30
0.0
 11
69.265100000000004
 21
196.684
 31
0.0
  0
LINE
  5
3E
  8
0
 62
     7
 10
69.265100000000004
 20
196.684
 30
0.0
 11
68.427099999999996
 21
195.846
 31
0.0
  0
LINE
  5
3F
  8
0
 62
     7
 10
63.662100000000002
 20
202.28700000000001
 30
0.0
 11
64.807100000000005
 21
200.304
 31
0.0
  0
LINE
  5
40
  8
0
 62
     7
 10
64.807100000000005
 20
200.304
 30
0.0
 11
62.824100000000001
 21
201.44900000000001
 31
0.0
  0
LINE
  5
41
  8
0
 62
     7
 10
62.824100000000001
 20
201.44900000000001
 30
0.0
 11
63.662100000000002
 21
202.28700000000001
 31
0.0
  0
LINE
  5
42
  8
0
 62
     7
 10
55.985199999999999
 20
209.126
 30
0.0
 11
69.700599999999994
 21
195.41
 31
0.0
  0
LINE
  5
43
  8
0
 62
     7
 10
68.815899999999999
 20
187.17500000000001
 30
0.0
 11
67.670900000000003
 21
185.19200000000001
 31
0.0
  0
LINE
  5
44
  8
0
 62
     7
 10
67.670900000000003
 20
185.19200000000001
 30
0.0
 11
69.653899999999993
 21
186.33699999999999
 31
0.0
  0
LINE
  5
45
  8
0
 62
     7
 10
69.653899999999993
 20
186.33699999999999
 30
0.0
 11
68.815899999999999
 21
187.17500000000001
 31
0.0
  0
LINE
  5
46
  8
0
 62
     7
 10
63.273400000000002
 20
179.95699999999999
 30
0.0
 11
64.418400000000005
 21
181.94
 31
0.0
  0
LINE
  5
47
  8
0
 62
     7
 10
64.418400000000005
 20
181.94
 30
0.0
 11
62.435299999999991
 21
180.79499999999999
 31
0.0
  0
LINE
  5
48
  8
0
 62
     7
 10
62.435299999999991
 20
180.79499999999999
 30
0.0
 11
63.273400000000002
 21
179.95699999999999
 31
0.0
  0
LINE
  5
49
  8
0
 62
     7
 10
58.832999999999998
 20
176.35499999999999
 30
0.0
 11
69.959999999999994
 21
187.482
 31
0.0
  0
LINE
  5
4A
  8
0
 62
     7
 10
151.232
 20
92.346699999999984
 30
0.0
 11
151.82400000000001
 21
90.134900000000002
 31
0.0
  0
LINE
  5
4B
  8
0
 62
     7
 10
151.82400000000001
 20
90.134900000000002
 30
0.0
 11
152.417
 21
92.346699999999984
 31
0.0
  0
LINE
  5
4C
  8
0
 62
     7
 10
152.417
 20
92.346699999999984
 30
0.0
 11
151.232
 21
92.346699999999984
 31
0.0
  0
LINE
  5
4D
  8
0
 62
     7
 10
152.417
 20
99.417500000000004
 30
0.0
 11
151.82400000000001
 21
101.629
 31
0.0
  0
LINE
  5
4E
  8
0
 62
     7
 10
151.82400000000001
 20
101.629
 30
0.0
 11
151.232
 21
99.417500000000004
 31
0.0
  0
LINE
  5
4F
  8
0
 62
     7
 10
151.232
 20
99.417500000000004
 30
0.0
 11
152.417
 21
99.417500000000004
 31
0.0
  0
LINE
  5
50
  8
0
 62
     7
 10
157.285
 20
76.778199999999998
 30
0.0
 11
155.07400000000001
 21
76.185699999999997
 31
0.0
  0
LINE
  5
51
  8
0
 62
     7
 10
155.07400000000001
 20
76.185699999999997
 30
0.0
 11
157.285
 21
75.593100000000007
 31
0.0
  0
LINE
  5
52
  8
0
 62
     7
 10
157.285
 20
75.593100000000007
 30
0.0
 11
157.285
 21
76.778199999999998
 31
0.0
  0
LINE
  5
53
  8
0
 62
     7
 10
174.863
 20
75.593100000000007
 30
0.0
 11
177.07499999999999
 21
76.185699999999997
 31
0.0
  0
LINE
  5
54
  8
0
 62
     7
 10
177.07499999999999
 20
76.185699999999997
 30
0.0
 11
174.863
 21
76.778199999999998
 31
0.0
  0
LINE
  5
55
  8
0
 62
     7
 10
174.863
 20
76.778199999999998
 30
0.0
 11
174.863
 21
75.593100000000007
 31
0.0
  0
LINE
  5
56
  8
0
 62
     7
 10
92.397000000000006
 20
93.923199999999994
 30
0.0
 11
91.804500000000004
 21
96.135000000000005
 31
0.0
  0
LINE
  5
57
  8
0
 62
     7
 10
91.804500000000004
 20
96.135000000000005
 30
0.0
 11
91.2119
 21
93.923199999999994
 31
0.0
  0
LINE
  5
58
  8
0
 62
     7
 10
91.2119
 20
93.923199999999994
 30
0.0
 11
92.397000000000006
 21
93.923199999999994
 31
0.0
  0
LINE
  5
59
  8
0
 62
     7
 10
91.2119
 20
103.846
 30
0.0
 11
91.804500000000004
 21
101.63500000000001
 31
0.0
  0
LINE
  5
5A
  8
0
 62
     7
 10
91.804500000000004
 20
101.63500000000001
 30
0.0
 11
92.397000000000006
 21
103.846
 31
0.0
  0
LINE
  5
5B
  8
0
 62
     7
 10
92.397000000000006
 20
103.846
 30
0.0
 11
91.2119
 21
103.846
 31
0.0
  0
LINE
  5
5C
  8
0
 62
     7
 10
116.179
 20
99.422999999999988
 30
0.0
 11
115.586
 21
101.63500000000001
 31
0.0
  0
LINE
  5
5D
  8
0
 62
     7
 10
115.586
 20
101.63500000000001
 30
0.0
 11
114.994
 21
99.422999999999988
 31
0.0
  0
LINE
  5
5E
  8
0
 62
     7
 10
114.994
 20
99.422999999999988
 30
0.0
 11
116.179
 21
99.422999999999988
 31
0.0
  0
LINE
  5
5F
  8
0
 62
     7
 10
114.994
 20
90.345799999999997
 30
0.0
 11
115.586
 21
88.134699999999995
 31
0.0
  0
LINE
  5
60
  8
0
 62
     7
 10
115.586
 20
88.134699999999995
 30
0.0
 11
116.179
 21
90.345799999999997
 31
0.0
  0
LINE
  5
61
  8
0
 62
     7
 10
116.179
 20
90.345799999999997
 30
0.0
 11
114.994
 21
90.345799999999997
 31
0.0
  0
LINE
  5
62
  8
0
 62
     7
 10
122.789
 20
99.422999999999988
 30
0.0
 11
122.197
 21
101.63500000000001
 31
0.0
  0
LINE
  5
63
  8
0
 62
     7
 10
122.197
 20
101.63500000000001
 30
0.0
 11
121.604
 21
99.422999999999988
 31
0.0
  0
LINE
  5
64
  8
0
 62
     7
 10
121.604
 20
99.422999999999988
 30
0.0
 11
122.789
 21
99.422999999999988
 31
0.0
  0
LINE
  5
65
  8
0
 62
     7
 10
121.604
 20
87.345799999999997
 30
0.0
 11
122.197
 21
85.134699999999995
 31
0.0
  0
LINE
  5
66
  8
0
 62
     7
 10
122.197
 20
85.134699999999995
 30
0.0
 11
122.789
 21
87.345799999999997
 31
0.0
  0
LINE
  5
67
  8
0
 62
     7
 10
122.789
 20
87.345799999999997
 30
0.0
 11
121.604
 21
87.345799999999997
 31
0.0
  0
LINE
  5
68
  8
0
 62
     7
 10
77.833799999999997
 20
110.123
 30
0.0
 11
80.044899999999998
 21
110.715
 31
0.0
  0
LINE
  5
69
  8
0
 62
     7
 10
80.044899999999998
 20
110.715
 30
0.0
 11
77.833799999999997
 21
111.30800000000001
 31
0.0
  0
LINE
  5
6A
  8
0
 62
     7
 10
77.833799999999997
 20
111.30800000000001
 30
0.0
 11
77.833799999999997
 21
110.123
 31
0.0
  0
LINE
  5
6B
  8
0
 62
     7
 10
54.256100000000004
 20
111.30800000000001
 30
0.0
 11
52.044400000000003
 21
110.715
 31
0.0
  0
LINE
  5
6C
  8
0
 62
     7
 10
52.044400000000003
 20
110.715
 30
0.0
 11
54.256100000000004
 21
110.123
 31
0.0
  0
LINE
  5
6D
  8
0
 62
     7
 10
54.256100000000004
 20
110.123
 30
0.0
 11
54.256100000000004
 21
111.30800000000001
 31
0.0
  0
LINE
  5
6E
  8
0
 62
     7
 10
108.256
 20
144.88300000000001
 30
0.0
 11
106.045
 21
144.28999999999999
 31
0.0
  0
LINE
  5
6F
  8
0
 62
     7
 10
106.045
 20
144.28999999999999
 30
0.0
 11
108.256
 21
143.69800000000001
 31
0.0
  0
LINE
  5
70
  8
0
 62
     7
 10
108.256
 20
143.69800000000001
 30
0.0
 11
108.256
 21
144.88300000000001
 31
0.0
  0
LINE
  5
71
  8
0
 62
     7
 10
30.7559
 20
144.88300000000001
 30
0.0
 11
28.544499999999999
 21
144.28999999999999
 31
0.0
  0
LINE
  5
72
  8
0
 62
     7
 10
28.544499999999999
 20
144.28999999999999
 30
0.0
 11
30.7559
 21
143.69800000000001
 31
0.0
  0
LINE
  5
73
  8
0
 62
     7
 10
30.7559
 20
143.69800000000001
 30
0.0
 11
30.7559
 21
144.88300000000001
 31
0.0
  0
LINE
  5
74
  8
0
 62
     7
 10
23.832999999999998
 20
143.69800000000001
 30
0.0
 11
26.0444
 21
144.28999999999999
 31
0.0
  0
LINE
  5
75
  8
0
 62
     7
 10
26.0444
 20
144.28999999999999
 30
0.0
 11
23.832999999999998
 21
144.88300000000001
 31
0.0
  0
LINE
  5
76
  8
0
 62
     7
 10
23.832999999999998
 20
144.88300000000001
 30
0.0
 11
23.832999999999998
 21
143.69800000000001
 31
0.0
  0
LINE
  5
77
  8
0
 62
     7
 10
101.333
 20
143.69800000000001
 30
0.0
 11
103.545
 21
144.28999999999999
 31
0.0
  0
LINE
  5
78
  8
0
 62
     7
 10
103.545
 20
144.28999999999999
 30
0.0
 11
101.333
 21
144.88300000000001
 31
0.0
  0
LINE
  5
79
  8
0
 62
     7
 10
101.333
 20
144.88300000000001
 30
0.0
 11
101.333
 21
143.69800000000001
 31
0.0
  0
LINE
  5
7A
  8
0
 62
     7
 10
90.065700000000007
 20
207.77799999999999
 30
0.0
 11
90.658299999999997
 21
205.566
 31
0.0
  0
LINE
  5
7B
  8
0
 62
     7
 10
90.658299999999997
 20
205.566
 30
0.0
 11
91.250799999999998
 21
207.77799999999999
 31
0.0
  0
LINE
  5
7C
  8
0
 62
     7
 10
91.250799999999998
 20
207.77799999999999
 30
0.0
 11
90.065700000000007
 21
207.77799999999999
 31
0.0
  0
LINE
  5
7D
  8
0
 62
     7
 10
91.250799999999998
 20
196.85499999999999
 30
0.0
 11
90.658299999999997
 21
199.066
 31
0.0
  0
LINE
  5
7E
  8
0
 62
     7
 10
90.658299999999997
 20
199.066
 30
0.0
 11
90.065700000000007
 21
196.85499999999999
 31
0.0
  0
LINE
  5
7F
  8
0
 62
     7
 10
90.065700000000007
 20
196.85499999999999
 30
0.0
 11
91.250799999999998
 21
196.85499999999999
 31
0.0
  0
LINE
  5
80
  8
0
 62
     7
 10
116.699
 20
156.35499999999999
 30
0.0
 11
116.10599999999999
 21
158.566
 31
0.0
  0
LINE
  5
81
  8
0
 62
     7
 10
116.10599999999999
 20
158.566
 30
0.0
 11
115.514
 21
156.35499999999999
 31
0.0
  0
LINE
  5
82
  8
0
 62
     7
 10
115.514
 20
156.35499999999999
 30
0.0
 11
116.699
 21
156.35499999999999
 31
0.0
  0
LINE
  5
83
  8
0
 62
     7
 10
116.699
 20
190.35499999999999
 30
0.0
 11
116.10599999999999
 21
192.56599999999989
 31
0.0
  0
LINE
  5
84
  8
0
 62
     7
 10
116.10599999999999
 20
192.56599999999989
 30
0.0
 11
115.514
 21
190.35499999999999
 31
0.0
  0
LINE
  5
85
  8
0
 62
     7
 10
115.514
 20
190.35499999999999
 30
0.0
 11
116.699
 21
190.35499999999999
 31
0.0
  0
LINE
  5
86
  8
0
 62
     7
 10
116.699
 20
203.35499999999999
 30
0.0
 11
116.10599999999999
 21
205.566
 31
0.0
  0
LINE
  5
87
  8
0
 62
     7
 10
116.10599999999999
 20
205.566
 30
0.0
 11
115.514
 21
203.35499999999999
 31
0.0
  0
LINE
  5
88
  8
0
 62
     7
 10
115.514
 20
203.35499999999999
 30
0.0
 11
116.699
 21
203.35499999999999
 31
0.0
  0
LINE
  5
89
  8
0
 62
     7
 10
115.514
 20
194.77799999999999
 30
0.0
 11
116.10599999999999
 21
192.56599999999989
 31
0.0
  0
LINE
  5
8A
  8
0
 62
     7
 10
116.10599999999999
 20
192.56599999999989
 30
0.0
 11
116.699
 21
194.77799999999999
 31
0.0
  0
LINE
  5
8B
  8
0
 62
     7
 10
116.699
 20
194.77799999999999
 30
0.0
 11
115.514
 21
194.77799999999999
 31
0.0
  0
LINE
  5
8C
  8
0
 62
     7
 10
115.514
 20
163.27699999999999
 30
0.0
 11
116.10599999999999
 21
161.066
 31
0.0
  0
LINE
  5
8D
  8
0
 62
     7
 10
116.10599999999999
 20
161.066
 30
0.0
 11
116.699
 21
163.27699999999999
 31
0.0
  0
LINE
  5
8E
  8
0
 62
     7
 10
116.699
 20
163.27699999999999
 30
0.0
 11
115.514
 21
163.27699999999999
 31
0.0
  0
LINE
  5
8F
  8
0
 62
     7
 10
123.639
 20
203.35499999999999
 30
0.0
 11
123.047
 21
205.566
 31
0.0
  0
LINE
  5
90
  8
0
 62
     7
 10
123.047
 20
205.566
 30
0.0
 11
122.45399999999999
 21
203.35499999999999
 31
0.0
  0
LINE
  5
91
  8
0
 62
     7
 10
122.45399999999999
 20
203.35499999999999
 30
0.0
 11
123.639
 21
203.35499999999999
 31
0.0
  0
LINE
  5
92
  8
0
 62
     7
 10
122.45399999999999
 20
160.77699999999999
 30
0.0
 11
123.047
 21
158.566
 31
0.0
  0
LINE
  5
93
  8
0
 62
     7
 10
123.047
 20
158.566
 30
0.0
 11
123.639
 21
160.77699999999999
 31
0.0
  0
LINE
  5
94
  8
0
 62
     7
 10
123.639
 20
160.77699999999999
 30
0.0
 11
122.45399999999999
 21
160.77699999999999
 31
0.0
  0
LINE
  5
95
  8
0
 62
     7
 10
63.544800000000002
 20
195.066
 30
0.0
 11
63.544800000000002
 21
193.566
 31
0.0
  0
LINE
  5
96
  8
0
 62
     7
 10
68.544399999999996
 20
195.066
 30
0.0
 11
63.544800000000002
 21
195.066
 31
0.0
  0
LINE
  5
97
  8
0
 62
     7
 10
68.544399999999996
 20
193.566
 30
0.0
 11
68.544399999999996
 21
195.066
 31
0.0
  0
LINE
  5
98
  8
0
 62
     7
 10
63.544800000000002
 20
193.566
 30
0.0
 11
68.544399999999996
 21
193.566
 31
0.0
  0
LINE
  5
99
  8
0
  6
AIGENLINE001
 62
     7
 10
173.58000000000001
 20
96.135000000000005
 30
0.0
 11
180.56899999999999
 21
96.135000000000005
 31
0.0
  0
LINE
  5
9A
  8
0
  6
AIGENLINE001
 62
     7
 10
170.57400000000001
 20
105.217
 30
0.0
 11
170.57400000000001
 21
98.041499999999985
 31
0.0
  0
LINE
  5
9B
  8
0
  6
AIGENLINE001
 62
     7
 10
155.07400000000001
 20
105.217
 30
0.0
 11
155.07400000000001
 21
82.140199999999993
 31
0.0
  0
LINE
  5
9C
  8
0
  6
AIGENLINE001
 62
     7
 10
66.044600000000003
 20
105.217
 30
0.0
 11
66.044600000000003
 21
82.140199999999993
 31
0.0
  0
LINE
  5
9D
  8
0
  6
AIGENLINE001
 62
     7
 10
160.72499999999999
 20
97.984999999999999
 30
0.0
 11
167.26400000000001
 21
97.984999999999999
 31
0.0
  0
LINE
  5
9E
  8
0
  6
AIGENLINE001
 62
     7
 10
62.775500000000001
 20
97.984999999999999
 30
0.0
 11
69.313699999999997
 21
97.984999999999999
 31
0.0
  0
LINE
  5
9F
  8
0
  6
AIGENLINE001
 62
     7
 10
80.044899999999998
 20
207.858
 30
0.0
 11
80.044899999999998
 21
203.274
 31
0.0
  0
LINE
  5
A0
  8
0
  6
AIGENLINE001
 62
     7
 10
52.044400000000003
 20
207.858
 30
0.0
 11
52.044400000000003
 21
203.274
 31
0.0
  0
LINE
  5
A1
  8
0
  6
AIGENLINE001
 62
     7
 10
60.009500000000003
 20
199.066
 30
0.0
 11
72.079800000000006
 21
199.066
 31
0.0
  0
LINE
  5
A2
  8
0
  6
AIGENLINE001
 62
     7
 10
60.009500000000003
 20
183.566
 30
0.0
 11
72.079800000000006
 21
183.566
 31
0.0
  0
LINE
  5
A3
  8
0
  6
AIGENLINE001
 62
     7
 10
66.044600000000003
 20
211.536
 30
0.0
 11
66.044600000000003
 21
152.45699999999999
 31
0.0
  0
LINE
  5
A4
  8
0
 62
     7
 10
155.07400000000001
 20
76.185699999999997
 30
0.0
 11
177.07499999999999
 21
76.185699999999997
 31
0.0
  0
LINE
  5
A5
  8
0
 62
     7
 10
177.07499999999999
 20
86.809700000000007
 30
0.0
 11
177.07499999999999
 21
75.485600000000005
 31
0.0
  0
LINE
  5
A6
  8
0
 62
     7
 10
155.07400000000001
 20
81.440200000000004
 30
0.0
 11
155.07400000000001
 21
75.485600000000005
 31
0.0
  0
LINE
  5
A7
  8
0
 62
     7
 10
151.82400000000001
 20
90.134900000000002
 30
0.0
 11
151.82400000000001
 21
101.629
 31
0.0
  0
LINE
  5
A8
  8
0
 62
     7
 10
91.804500000000004
 20
92.443899999999999
 30
0.0
 11
91.804500000000004
 21
105.229
 31
0.0
  0
LINE
  5
A9
  8
0
 62
     7
 10
84.23899999999999
 20
96.135000000000005
 30
0.0
 11
92.504499999999979
 21
96.135000000000005
 31
0.0
  0
LINE
  5
AA
  8
0
 62
     7
 10
115.586
 20
101.63500000000001
 30
0.0
 11
115.586
 21
88.134699999999995
 31
0.0
  0
LINE
  5
AB
  8
0
 62
     7
 10
106.67
 20
88.134699999999995
 30
0.0
 11
116.286
 21
88.134699999999995
 31
0.0
  0
LINE
  5
AC
  8
0
 62
     7
 10
122.197
 20
101.63500000000001
 30
0.0
 11
122.197
 21
85.134699999999995
 31
0.0
  0
LINE
  5
AD
  8
0
 62
     7
 10
70.619699999999995
 20
85.134699999999995
 30
0.0
 11
122.89700000000001
 21
85.134699999999995
 31
0.0
  0
LINE
  5
AE
  8
0
 62
     7
 10
106.67
 20
101.63500000000001
 30
0.0
 11
122.89700000000001
 21
101.63500000000001
 31
0.0
  0
LINE
  5
AF
  8
0
 62
     7
 10
90.658299999999997
 20
195.27099999999999
 30
0.0
 11
90.658299999999997
 21
209.458
 31
0.0
  0
LINE
  5
B0
  8
0
 62
     7
 10
72.779799999999994
 20
199.066
 30
0.0
 11
91.3583
 21
199.066
 31
0.0
  0
LINE
  5
B1
  8
0
 62
     7
 10
106.67
 20
158.566
 30
0.0
 11
123.747
 21
158.566
 31
0.0
  0
LINE
  5
B2
  8
0
 62
     7
 10
104.17
 20
161.066
 30
0.0
 11
116.806
 21
161.066
 31
0.0
  0
LINE
  5
B3
  8
0
 62
     7
 10
104.17
 20
192.56599999999989
 30
0.0
 11
116.806
 21
192.56599999999989
 31
0.0
  0
LINE
  5
B4
  8
0
 62
     7
 10
116.10599999999999
 20
205.566
 30
0.0
 11
116.10599999999999
 21
151.84
 31
0.0
  0
LINE
  5
B5
  8
0
 62
     7
 10
123.047
 20
205.566
 30
0.0
 11
123.047
 21
158.566
 31
0.0
  0
LINE
  5
B6
  8
0
 62
     7
 10
107.37
 20
205.566
 30
0.0
 11
123.747
 21
205.566
 31
0.0
  0
LINE
  5
B7
  8
0
 62
     7
 10
52.044400000000003
 20
110.715
 30
0.0
 11
80.044899999999998
 21
110.715
 31
0.0
  0
LINE
  5
B8
  8
0
 62
     7
 10
80.044899999999998
 20
99.1267
 30
0.0
 11
80.044899999999998
 21
111.41500000000001
 31
0.0
  0
LINE
  5
B9
  8
0
 62
     7
 10
52.044400000000003
 20
99.1267
 30
0.0
 11
52.044400000000003
 21
111.41500000000001
 31
0.0
  0
LINE
  5
BA
  8
0
  6
AIGENLINE001
 62
     7
 10
80.044899999999998
 20
98.426699999999997
 30
0.0
 11
80.044899999999998
 21
93.842600000000004
 31
0.0
  0
LINE
  5
BB
  8
0
  6
AIGENLINE001
 62
     7
 10
76.550200000000004
 20
96.135000000000005
 30
0.0
 11
83.538899999999984
 21
96.135000000000005
 31
0.0
  0
LINE
  5
BC
  8
0
  6
AIGENLINE001
 62
     7
 10
52.044400000000003
 20
98.426699999999997
 30
0.0
 11
52.044400000000003
 21
93.842600000000004
 31
0.0
  0
LINE
  5
BD
  8
0
  6
AIGENLINE001
 62
     7
 10
48.5503
 20
96.135000000000005
 30
0.0
 11
55.539099999999998
 21
96.135000000000005
 31
0.0
  0
LINE
  5
BE
  8
0
 62
     7
 10
106.045
 20
157.941
 30
0.0
 11
106.045
 21
143.59
 31
0.0
  0
LINE
  5
BF
  8
0
 62
     7
 10
103.545
 20
160.441
 30
0.0
 11
103.545
 21
143.59
 31
0.0
  0
LINE
  5
C0
  8
0
 62
     7
 10
19.593800000000002
 20
144.28999999999999
 30
0.0
 11
112.925
 21
144.28999999999999
 31
0.0
  0
LINE
  5
C1
  8
0
 62
     7
 10
28.544499999999999
 20
160.441
 30
0.0
 11
28.544499999999999
 21
143.59
 31
0.0
  0
LINE
  5
C2
  8
0
 62
     7
 10
26.0444
 20
157.941
 30
0.0
 11
26.0444
 21
143.59
 31
0.0
  0
LINE
  5
C3
  8
0
 62
     7
 10
26.0444
 20
215.81700000000001
 30
0.0
 11
106.045
 21
215.81700000000001
 31
0.0
  0
LINE
  5
C4
  8
0
 62
     7
 10
106.045
 20
206.26599999999999
 30
0.0
 11
106.045
 21
216.517
 31
0.0
  0
LINE
  5
C5
  8
0
 62
     7
 10
26.0444
 20
206.26599999999999
 30
0.0
 11
26.0444
 21
216.517
 31
0.0
  0
ARC
  5
C6
  8
0
  6
AIGENLINE002
 62
     7
 10
134.69549900000001
 20
93.275982999999997
 30
0.0
 40
0.719873
 50
190.571562
 51
260.57772499999999
  0
ARC
  5
C7
  8
0
  6
AIGENLINE002
 62
     7
 10
162.63148200000001
 20
93.076442
 30
0.0
 40
0.713626
 50
299.76353799999998
 51
354.62170400000002
  0
ARC
  5
C8
  8
0
  6
AIGENLINE002
 62
     7
 10
131.961849
 20
100.91217
 30
0.0
 40
0.722835
 50
10.973753
 51
88.476663999999985
  0
ARC
  5
C9
  8
0
  6
AIGENLINE002
 62
     7
 10
164.740354
 20
100.909834
 30
0.0
 40
0.7252830000000001
 50
91.824848000000017
 51
173.33942300000001
  0
LINE
  5
CA
  8
0
  6
AIGENLINE002
 62
     7
 10
152.774
 20
88.684600000000003
 30
0.0
 11
151.32400000000001
 21
90.134900000000002
 31
0.0
  0
LINE
  5
CB
  8
0
  6
AIGENLINE002
 62
     7
 10
157.374
 20
88.684600000000003
 30
0.0
 11
158.82400000000001
 21
90.134900000000002
 31
0.0
  0
LINE
  5
CC
  8
0
  6
AIGENLINE002
 62
     7
 10
151.32400000000001
 20
90.134900000000002
 30
0.0
 11
158.82400000000001
 21
90.134900000000002
 31
0.0
  0
LINE
  5
CD
  8
0
  6
AIGENLINE002
 62
     7
 10
152.774
 20
88.684600000000003
 30
0.0
 11
157.374
 21
88.684600000000003
 31
0.0
  0
LINE
  5
CE
  8
0
  6
AIGENLINE002
 62
     7
 10
152.774
 20
88.684600000000003
 30
0.0
 11
152.774
 21
85.134699999999995
 31
0.0
  0
LINE
  5
CF
  8
0
  6
AIGENLINE002
 62
     7
 10
157.374
 20
88.684600000000003
 30
0.0
 11
157.374
 21
85.134699999999995
 31
0.0
  0
LINE
  5
D0
  8
0
  6
AIGENLINE002
 62
     7
 10
51.544499999999999
 20
97.234600000000015
 30
0.0
 11
52.544600000000003
 21
97.234600000000015
 31
0.0
  0
LINE
  5
D1
  8
0
  6
AIGENLINE002
 62
     7
 10
52.544600000000003
 20
95.034599999999998
 30
0.0
 11
51.544499999999999
 21
95.034599999999998
 31
0.0
  0
ARC
  5
D2
  8
0
  6
AIGENLINE002
 62
     7
 10
52.502687000000002
 20
96.176503000000011
 30
0.0
 40
1.1426780000000001
 50
272.10126400000001
 51
357.91668700000002
  0
ARC
  5
D3
  8
0
  6
AIGENLINE002
 62
     7
 10
52.502662999999991
 20
96.092685000000003
 30
0.0
 40
1.1427290000000001
 50
2.1203119999999989
 51
87.897625000000005
  0
ARC
  5
D4
  8
0
  6
AIGENLINE002
 62
     7
 10
51.586314000000002
 20
96.092757999999975
 30
0.0
 40
1.1426540000000001
 50
92.098826999999986
 51
177.883196
  0
ARC
  5
D5
  8
0
  6
AIGENLINE002
 62
     7
 10
51.587074000000001
 20
96.177214000000006
 30
0.0
 40
1.1434150000000001
 50
182.11763099999999
 51
267.8644569999999
  0
LINE
  5
D6
  8
0
  6
AIGENLINE002
 62
     7
 10
79.544700000000006
 20
97.234600000000015
 30
0.0
 11
80.544799999999995
 21
97.234600000000015
 31
0.0
  0
LINE
  5
D7
  8
0
  6
AIGENLINE002
 62
     7
 10
80.544799999999995
 20
95.034599999999998
 30
0.0
 11
79.544700000000006
 21
95.034599999999998
 31
0.0
  0
ARC
  5
D8
  8
0
  6
AIGENLINE002
 62
     7
 10
80.50287800000001
 20
96.176503000000011
 30
0.0
 40
1.1426780000000001
 50
272.10126400000001
 51
357.91668700000002
  0
ARC
  5
D9
  8
0
  6
AIGENLINE002
 62
     7
 10
80.502853999999985
 20
96.092685000000003
 30
0.0
 40
1.1427290000000001
 50
2.1203119999999989
 51
87.897625000000005
  0
ARC
  5
DA
  8
0
  6
AIGENLINE002
 62
     7
 10
79.586500000000001
 20
96.092763000000005
 30
0.0
 40
1.142647999999999
 50
92.098589999999987
 51
177.883433
  0
ARC
  5
DB
  8
0
  6
AIGENLINE002
 62
     7
 10
79.587265000000002
 20
96.177214000000006
 30
0.0
 40
1.1434150000000001
 50
182.11763099999999
 51
267.8644569999999
  0
LINE
  5
DC
  8
0
  6
AIGENLINE002
 62
     7
 10
158.82400000000001
 20
90.134900000000002
 30
0.0
 11
162.98599999999999
 21
92.457000000000008
 31
0.0
  0
LINE
  5
DD
  8
0
  6
AIGENLINE002
 62
     7
 10
164.02000000000001
 20
100.994
 30
0.0
 11
163.34200000000001
 21
93.009600000000006
 31
0.0
  0
LINE
  5
DE
  8
0
  6
AIGENLINE002
 62
     7
 10
151.32400000000001
 20
90.134900000000002
 30
0.0
 11
134.578
 21
92.565799999999996
 31
0.0
  0
LINE
  5
DF
  8
0
  6
AIGENLINE002
 62
     7
 10
132.67099999999999
 20
101.05
 30
0.0
 11
133.988
 21
93.143900000000016
 31
0.0
  0
ARC
  5
E0
  8
0
  6
AIGENLINE002
 62
     7
 10
66.044619999999995
 20
97.984990999999994
 30
0.0
 40
1.249889
 50
0.00001
 51
89.999980000000008
  0
ARC
  5
E1
  8
0
  6
AIGENLINE002
 62
     7
 10
66.044620999999992
 20
97.984990999999994
 30
0.0
 40
1.249889
 50
90.0
 51
179.99996999999999
  0
ARC
  5
E2
  8
0
  6
AIGENLINE002
 62
     7
 10
66.093209999999999
 20
98.032865999999984
 30
0.0
 40
1.2993600000000001
 50
182.111524
 51
267.85692899999998
  0
ARC
  5
E3
  8
0
  6
AIGENLINE002
 62
     7
 10
65.996286999999995
 20
98.032609999999991
 30
0.0
 40
1.2990950000000001
 50
272.13221399999998
 51
357.89937300000003
  0
ARC
  5
E4
  8
0
 62
     7
 10
150.773301
 20
87.410815999999997
 30
0.0
 40
0.7241970000000001
 50
9.6182759999999998
 51
88.349440000000001
  0
LINE
  5
E5
  8
0
 62
     7
 10
151.82400000000001
 20
85.134699999999995
 30
0.0
 11
151.48699999999999
 21
87.531800000000004
 31
0.0
  0
LINE
  5
E6
  8
0
 62
     7
 10
151.82400000000001
 20
85.134699999999995
 30
0.0
 11
158.32400000000001
 21
85.134699999999995
 31
0.0
  0
ARC
  5
E7
  8
0
 62
     7
 10
159.37521599999999
 20
87.411081999999993
 30
0.0
 40
0.7239250000000002
 50
91.632840000000016
 51
170.399404
  0
LINE
  5
E8
  8
0
 62
     7
 10
158.32400000000001
 20
85.134699999999995
 30
0.0
 11
158.661
 21
87.531800000000004
 31
0.0
  0
ARC
  5
E9
  8
0
 62
     7
 10
61.743547
 20
87.410815999999997
 30
0.0
 40
0.7241970000000001
 50
9.6182759999999998
 51
88.349440000000001
  0
LINE
  5
EA
  8
0
 62
     7
 10
62.794499999999999
 20
85.134699999999995
 30
0.0
 11
62.457599999999999
 21
87.531800000000004
 31
0.0
  0
ARC
  5
EB
  8
0
 62
     7
 10
70.345461999999998
 20
87.411081999999993
 30
0.0
 40
0.7239250000000002
 50
91.632840000000016
 51
170.399404
  0
ARC
  5
EC
  8
0
 62
     7
 10
161.665538
 20
87.727376000000007
 30
0.0
 40
1.5225159999999991
 50
275.93681600000002
 51
326.80354999999997
  0
LINE
  5
ED
  8
0
 62
     7
 10
162.94
 20
86.893799999999985
 30
0.0
 11
163.738
 21
88.134699999999995
 31
0.0
  0
LINE
  5
EE
  8
0
 62
     7
 10
158.43000000000001
 20
85.883700000000005
 30
0.0
 11
161.82300000000001
 21
86.212999999999994
 31
0.0
  0
LINE
  5
EF
  8
0
 62
     7
 10
130.07400000000001
 20
88.834800000000001
 30
0.0
 11
130.07400000000001
 21
100.935
 31
0.0
  0
ARC
  5
F0
  8
0
 62
     7
 10
130.80081899999999
 20
100.90812200000001
 30
0.0
 40
0.7271130000000001
 50
92.094871999999995
 51
177.90509800000001
  0
LINE
  5
F1
  8
0
 62
     7
 10
130.774
 20
101.63500000000001
 30
0.0
 11
177.07499999999999
 21
101.63500000000001
 31
0.0
  0
LINE
  5
F2
  8
0
 62
     7
 10
177.07499999999999
 20
101.63500000000001
 30
0.0
 11
177.07499999999999
 21
88.134699999999995
 31
0.0
  0
LINE
  5
F3
  8
0
 62
     7
 10
177.07499999999999
 20
88.134699999999995
 30
0.0
 11
130.774
 21
88.134699999999995
 31
0.0
  0
ARC
  5
F4
  8
0
 62
     7
 10
130.80120099999999
 20
88.861722
 30
0.0
 40
0.727509
 50
182.12388200000001
 51
267.876148
  0
LINE
  5
F5
  8
0
 62
     7
 10
69.294700000000006
 20
85.134699999999995
 30
0.0
 11
69.631699999999995
 21
87.531800000000004
 31
0.0
  0
ARC
  5
F6
  8
0
 62
     7
 10
66.044619999999995
 20
183.566183
 30
0.0
 40
3.7500110000000002
 50
0.00001
 51
89.999980000000008
  0
ARC
  5
F7
  8
0
 62
     7
 10
66.044620999999992
 20
183.566183
 30
0.0
 40
3.7500110000000002
 50
90.0
 51
179.99996999999999
  0
ARC
  5
F8
  8
0
 62
     7
 10
66.044619999999995
 20
183.566183
 30
0.0
 40
3.750008999999999
 50
179.99996999999999
 51
270.00002000000001
  0
ARC
  5
F9
  8
0
 62
     7
 10
66.044619999999995
 20
183.56618399999999
 30
0.0
 40
3.7500110000000002
 50
270.00002000000001
 51
359.99999000000003
  0
ARC
  5
FA
  8
0
 62
     7
 10
66.044619999999995
 20
183.566183
 30
0.0
 40
2.2999610000000001
 50
0.00001
 51
89.999980000000008
  0
ARC
  5
FB
  8
0
 62
     7
 10
66.044620999999992
 20
183.566183
 30
0.0
 40
2.2999610000000001
 50
90.0
 51
179.99996999999999
  0
ARC
  5
FC
  8
0
 62
     7
 10
66.044706000000005
 20
183.56609700000001
 30
0.0
 40
2.300046
 50
179.99782500000001
 51
269.99787400000002
  0
ARC
  5
FD
  8
0
 62
     7
 10
66.044533999999999
 20
183.56609700000001
 30
0.0
 40
2.3000470000000002
 50
270.00216499999999
 51
0.002136
  0
LINE
  5
FE
  8
0
 62
     7
 10
62.794499999999999
 20
85.134699999999995
 30
0.0
 11
69.294700000000006
 21
85.134699999999995
 31
0.0
  0
LINE
  5
FF
  8
0
 62
     7
 10
26.0444
 20
88.834800000000001
 30
0.0
 11
26.0444
 21
100.935
 31
0.0
  0
ARC
  5
100
  8
0
 62
     7
 10
26.771417
 20
100.907729
 30
0.0
 40
0.7275199999999999
 50
92.124624999999995
 51
177.87534500000001
  0
LINE
  5
101
  8
0
 62
     7
 10
26.744399999999999
 20
101.63500000000001
 30
0.0
 11
105.345
 21
101.63500000000001
 31
0.0
  0
ARC
  5
102
  8
0
 62
     7
 10
105.318226
 20
100.908131
 30
0.0
 40
0.7271030000000001
 50
2.094161999999999
 51
87.905828999999997
  0
LINE
  5
103
  8
0
 62
     7
 10
106.045
 20
100.935
 30
0.0
 11
106.045
 21
88.834800000000001
 31
0.0
  0
ARC
  5
104
  8
0
 62
     7
 10
105.31821600000001
 20
88.861339999999998
 30
0.0
 40
0.7271130000000001
 50
272.09490899999997
 51
357.905101
  0
LINE
  5
105
  8
0
 62
     7
 10
105.345
 20
88.134699999999995
 30
0.0
 11
26.744399999999999
 21
88.134699999999995
 31
0.0
  0
ARC
  5
106
  8
0
 62
     7
 10
26.771407
 20
88.861722
 30
0.0
 40
0.727509
 50
182.12388200000001
 51
267.876148
  0
ARC
  5
107
  8
0
 62
     7
 10
66.044706000000005
 20
199.06619599999999
 30
0.0
 40
1.7500340000000001
 50
0.00283
 51
90.002800000000008
  0
ARC
  5
108
  8
0
 62
     7
 10
66.044534999999996
 20
199.06619599999999
 30
0.0
 40
1.7500340000000001
 50
89.997179999999986
 51
179.99715
  0
ARC
  5
109
  8
0
 62
     7
 10
66.044619999999995
 20
199.066282
 30
0.0
 40
1.7501189999999991
 50
179.99996999999999
 51
270.00002000000001
  0
ARC
  5
10A
  8
0
 62
     7
 10
66.044619999999995
 20
199.066283
 30
0.0
 40
1.7501199999999999
 50
270.00002000000001
 51
359.99999000000003
  0
LINE
  5
10B
  8
0
 62
     7
 10
28.544499999999999
 20
161.76599999999999
 30
0.0
 11
28.544499999999999
 21
191.86600000000001
 31
0.0
  0
ARC
  5
10C
  8
0
 62
     7
 10
29.271539000000001
 20
191.83918799999989
 30
0.0
 40
0.7275199999999999
 50
92.124624999999995
 51
177.87534500000001
  0
LINE
  5
10D
  8
0
 62
     7
 10
29.244599999999998
 20
192.56599999999989
 30
0.0
 11
102.845
 21
192.56599999999989
 31
0.0
  0
ARC
  5
10E
  8
0
 62
     7
 10
102.81731000000001
 20
191.838795
 30
0.0
 40
0.7279270000000001
 50
2.1543759999999992
 51
87.845613999999983
  0
LINE
  5
10F
  8
0
 62
     7
 10
103.545
 20
191.86600000000001
 30
0.0
 11
103.545
 21
161.76599999999999
 31
0.0
  0
ARC
  5
110
  8
0
 62
     7
 10
102.818095
 20
161.79257699999999
 30
0.0
 40
0.7271130000000001
 50
272.09490899999997
 51
357.905101
  0
LINE
  5
111
  8
0
 62
     7
 10
102.845
 20
161.066
 30
0.0
 11
29.244599999999998
 21
161.066
 31
0.0
  0
ARC
  5
112
  8
0
 62
     7
 10
29.271135999999998
 20
161.79256699999999
 30
0.0
 40
0.7271030000000001
 50
182.09416400000001
 51
267.905866
  0
LINE
  5
113
  8
0
 62
     7
 10
26.0444
 20
159.26599999999999
 30
0.0
 11
26.0444
 21
205.566
 31
0.0
  0
LINE
  5
114
  8
0
 62
     7
 10
26.0444
 20
205.566
 30
0.0
 11
106.045
 21
205.566
 31
0.0
  0
LINE
  5
115
  8
0
 62
     7
 10
106.045
 20
205.566
 30
0.0
 11
106.045
 21
159.26599999999999
 31
0.0
  0
ARC
  5
116
  8
0
 62
     7
 10
105.318226
 20
159.292618
 30
0.0
 40
0.7271030000000001
 50
272.09417100000002
 51
357.90583800000002
  0
LINE
  5
117
  8
0
 62
     7
 10
105.345
 20
158.566
 30
0.0
 11
26.744399999999999
 21
158.566
 31
0.0
  0
ARC
  5
118
  8
0
 62
     7
 10
26.771014999999998
 20
159.292618
 30
0.0
 40
0.7271030000000001
 50
182.09416400000001
 51
267.905866
  0
LINE
  5
119
  8
0
 62
     7
 10
28.255500000000001
 20
216.41
 30
0.0
 11
26.0444
 21
215.81700000000001
 31
0.0
  0
LINE
  5
11A
  8
0
 62
     7
 10
26.0444
 20
215.81700000000001
 30
0.0
 11
28.255500000000001
 21
215.22499999999999
 31
0.0
  0
LINE
  5
11B
  8
0
 62
     7
 10
28.255500000000001
 20
215.22499999999999
 30
0.0
 11
28.255500000000001
 21
216.41
 31
0.0
  0
LINE
  5
11C
  8
0
 62
     7
 10
103.833
 20
215.22499999999999
 30
0.0
 11
106.045
 21
215.81700000000001
 31
0.0
  0
LINE
  5
11D
  8
0
 62
     7
 10
106.045
 20
215.81700000000001
 30
0.0
 11
103.833
 21
216.41
 31
0.0
  0
LINE
  5
11E
  8
0
 62
     7
 10
103.833
 20
216.41
 30
0.0
 11
103.833
 21
215.22499999999999
 31
0.0
  0
TEXT
  5
11F
  8
_________2
 62
     7
 10
24.476400000000002
 20
45.341200000000001
 30
0.0
 40
3.9357000000000002
  1
※壁取付部には厚さ30mm以上の補強木を入れてください。
 41
0.5
  0
TEXT
  5
120
  8
_________2
 62
     7
 10
24.476400000000002
 20
40.421599999999991
 30
0.0
 40
3.9357000000000002
  1
※排水栓を閉めた状態で毎分10L以上吐水させないでください。
 41
0.5
  0
LINE
  5
121
  8
_________2
 62
     7
 10
205.30099999999999
 20
127.411
 30
0.0
 11
183.55000000000001
 21
127.411
 31
0.0
  0
LINE
  5
122
  8
_________2
 62
     7
 10
100.3
 20
-4.0910799999999998
 30
0.0
 11
100.3
 21
-21.071400000000001
 31
0.0
  0
LINE
  5
123
  8
_________2
 62
     7
 10
100.3
 20
275.93099999999998
 30
0.0
 11
100.3
 21
258.911
 31
0.0
  0
LINE
  5
124
  8
_________2
 62
     7
 10
17.049499999999998
 20
127.411
 30
0.0
 11
-4.70052
 21
127.411
 31
0.0
  0
LINE
  5
125
  8
_________2
 62
     7
 10
76.741
 20
29.8047
 30
0.0
 11
74.554699999999997
 21
29.8047
 31
0.0
  0
LINE
  5
126
  8
_________2
 62
     7
 10
77.233699999999999
 20
29.8047
 30
0.0
 11
76.981499999999997
 21
29.8047
 31
0.0
  0
LINE
  5
127
  8
_________2
 62
     7
 10
77.726299999999995
 20
29.8047
 30
0.0
 11
80.651200000000003
 21
29.8047
 31
0.0
  0
LINE
  5
128
  8
_________2
 62
     7
 10
77.233699999999999
 20
29.8047
 30
0.0
 11
77.485500000000002
 21
29.8047
 31
0.0
  0
LINE
  5
129
  8
_________2
 62
     7
 10
70.837100000000007
 20
29.8047
 30
0.0
 11
68.650499999999994
 21
29.8047
 31
0.0
  0
LINE
  5
12A
  8
_________2
 62
     7
 10
71.329400000000007
 20
29.8047
 30
0.0
 11
71.077600000000004
 21
29.8047
 31
0.0
  0
LINE
  5
12B
  8
_________2
 62
     7
 10
71.329400000000007
 20
30.2974
 30
0.0
 11
71.329400000000007
 21
32.484400000000001
 31
0.0
  0
LINE
  5
12C
  8
_________2
 62
     7
 10
71.329400000000007
 20
29.8047
 30
0.0
 11
71.329400000000007
 21
30.056899999999999
 31
0.0
  0
LINE
  5
12D
  8
_________2
 62
     7
 10
71.822100000000006
 20
29.8047
 30
0.0
 11
74.009
 21
29.8047
 31
0.0
  0
LINE
  5
12E
  8
_________2
 62
     7
 10
71.329400000000007
 20
29.8047
 30
0.0
 11
71.581599999999995
 21
29.8047
 31
0.0
  0
LINE
  5
12F
  8
_________2
 62
     7
 10
71.329400000000007
 20
29.312799999999999
 30
0.0
 11
71.329400000000007
 21
27.125800000000002
 31
0.0
  0
LINE
  5
130
  8
_________2
 62
     7
 10
71.329400000000007
 20
29.8047
 30
0.0
 11
71.329400000000007
 21
29.5532
 31
0.0
  0
LINE
  5
131
  8
_________2
 62
     7
 10
75.040499999999994
 20
28.5852
 30
0.0
 11
80.218500000000006
 21
27.720400000000001
 31
0.0
  0
LINE
  5
132
  8
_________2
 62
     7
 10
75.040499999999994
 20
31.0243
 30
0.0
 11
80.218500000000006
 21
31.889700000000001
 31
0.0
  0
LINE
  5
133
  8
_________2
 62
     7
 10
80.218500000000006
 20
27.720400000000001
 30
0.0
 11
80.218500000000006
 21
31.889700000000001
 31
0.0
  0
LINE
  5
134
  8
_________2
 62
     7
 10
75.040499999999994
 20
28.5852
 30
0.0
 11
75.040499999999994
 21
31.0243
 31
0.0
  0
ARC
  5
135
  8
_________2
 62
     7
 10
71.28285600000001
 20
29.757811
 30
0.0
 40
1.2673589999999999
 50
2.122214
 51
87.893958999999995
  0
ARC
  5
136
  8
_________2
 62
     7
 10
71.375959999999992
 20
29.758213000000001
 30
0.0
 40
1.2669559999999991
 50
92.104701000000006
 51
177.89526900000001
  0
ARC
  5
137
  8
_________2
 62
     7
 10
71.376357999999996
 20
29.851671
 30
0.0
 40
1.2673680000000001
 50
182.12203600000001
 51
267.877993
  0
ARC
  5
138
  8
_________2
 62
     7
 10
71.282531999999989
 20
29.851998999999999
 30
0.0
 40
1.267695999999999
 50
272.12015300000002
 51
357.863674
  0
ARC
  5
139
  8
_________2
 62
     7
 10
71.329430000000002
 20
29.804742999999998
 30
0.0
 40
2.0849849999999992
 50
0.00001
 51
89.999980000000008
  0
ARC
  5
13A
  8
_________2
 62
     7
 10
71.329603000000006
 20
29.804915000000001
 30
0.0
 40
2.084813
 50
90.004733999999999
 51
180.00474399999999
  0
ARC
  5
13B
  8
_________2
 62
     7
 10
71.409106000000008
 20
29.884775999999999
 30
0.0
 40
2.1657950000000001
 50
182.11776599999999
 51
267.89173399999999
  0
ARC
  5
13C
  8
_________2
 62
     7
 10
71.249459000000002
 20
29.885429999999999
 30
0.0
 40
2.1664590000000001
 50
272.11546800000002
 51
357.86560400000002
  0
TEXT
  5
13D
  8
_________2
 62
     7
 10
104.605
 20
1.6794899999999999
 30
0.0
 40
3.0923400000000001
  1
図番
 41
0.5
  0
LINE
  5
13E
  8
_________2
 62
     7
 10
103.55
 20
5.9087199999999989
 30
0.0
 11
183.55099999999999
 21
5.9087199999999989
 31
0.0
  0
TEXT
  5
13F
  8
_________2
 62
     7
 10
104.605
 20
11.6793
 30
0.0
 40
3.0923400000000001
  1
品番
 41
0.5
  0
TEXT
  5
140
  8
_________2
 62
     7
 10
104.605
 20
31.818100000000001
 30
0.0
 40
3.0923400000000001
  1
名称
 41
0.5
  0
TEXT
  5
141
  8
_________2
 62
     7
 10
91.845058333333341
 20
26.821999999999999
 30
0.0
 40
3.6545800000000002
  1
mm
 41
0.5
 72
     1
 11
93.367800000000003
 21
26.821999999999999
 31
0.0
  0
TEXT
  5
142
  8
_________2
 62
     7
 10
85.643199999999993
 20
31.818100000000001
 30
0.0
 40
3.0923400000000001
  1
単位
 41
0.5
  0
TEXT
  5
143
  8
_________2
 62
     7
 10
85.643199999999993
 20
19.410799999999998
 30
0.0
 40
3.0923400000000001
  1
尺度
 41
0.5
  0
TEXT
  5
144
  8
_________2
 62
     7
 10
90.09193616666667
 20
13.2179
 30
0.0
 40
3.6545800000000002
  1
1 ： 10
 41
0.5
 72
     1
 11
93.959699999999998
 21
13.2179
 31
0.0
  0
TEXT
  5
145
  8
_________2
 62
     7
 10
133.38277500000001
 20
9.1078600000000005
 30
0.0
 40
3.9357000000000002
  1
DV235080-00
 41
0.5
 72
     1
 11
143.55000000000001
 21
9.1078600000000005
 31
0.0
  0
TEXT
  5
146
  8
_________2
 62
     7
 10
136.006575
 20
-0.8926299999999999
 30
0.0
 40
3.9357000000000002
  1
DV235080
 41
0.5
 72
     1
 11
143.55000000000001
 21
-0.8926299999999999
 31
0.0
  0
TEXT
  5
147
  8
_________2
 62
     7
 10
24.5868
 20
0.707283
 30
0.0
 40
3.9357000000000002
  1
実容量：13L、重量：24.7kg、オーバーフロー付
 41
0.5
  0
TEXT
  5
148
  8
_________2
 62
     7
 10
109.179
 20
24.2257
 30
0.0
 40
3.9357000000000002
  1
ヴェーロエア　洗面器
 41
0.5
  0
TEXT
  5
149
  8
_________2
 62
     7
 10
39.364390666666672
 20
13.603
 30
0.0
 40
3.6545800000000002
  1
篠崎
 41
0.5
 72
     1
 11
41.313499999999998
 21
13.603
 31
0.0
  0
TEXT
  5
14A
  8
_________2
 62
     7
 10
20.790090666666671
 20
13.603
 30
0.0
 40
3.6545800000000002
  1
飯塚
 41
0.5
 72
     1
 11
22.7392
 21
13.603
 31
0.0
  0
TEXT
  5
14B
  8
_________2
 62
     7
 10
67.785399999999996
 20
13.2179
 30
0.0
 40
3.6545800000000002
  1
18.02.05
 41
0.5
  0
TEXT
  5
14C
  8
_________2
 62
     7
 10
66.593100000000007
 20
19.410799999999998
 30
0.0
 40
3.0923400000000001
  1
日付
 41
0.5
  0
TEXT
  5
14D
  8
_________2
 62
     7
 10
29.639399999999998
 20
19.410799999999998
 30
0.0
 40
3.0923400000000001
  1
検図
 41
0.5
  0
TEXT
  5
14E
  8
_________2
 62
     7
 10
18.021100000000001
 20
5.21143
 30
0.0
 40
3.0923400000000001
  1
備考
 41
0.5
  0
TEXT
  5
14F
  8
_________2
 62
     7
 10
18.021100000000001
 20
19.410799999999998
 30
0.0
 40
3.0923400000000001
  1
製図
 41
0.5
  0
TEXT
  5
150
  8
_________2
 62
     7
 10
23.788465333333338
 20
27.936800000000002
 30
0.0
 40
4.4979399999999989
  1
セラトレーディング株式会社
 41
0.5
 72
     1
 11
41.180500000000002
 21
27.936800000000002
 31
0.0
  0
LINE
  5
151
  8
_________2
 62
     7
 10
183.55099999999999
 20
-4.0910799999999998
 30
0.0
 11
17.049499999999998
 21
-4.0910799999999998
 31
0.0
  0
LINE
  5
152
  8
_________2
 62
     7
 10
17.049499999999998
 20
-4.0910799999999998
 30
0.0
 11
17.049499999999998
 21
258.911
 31
0.0
  0
LINE
  5
153
  8
_________2
 62
     7
 10
17.049499999999998
 20
258.911
 30
0.0
 11
183.55099999999999
 21
258.911
 31
0.0
  0
LINE
  5
154
  8
_________2
 62
     7
 10
183.55099999999999
 20
258.911
 30
0.0
 11
183.55099999999999
 21
-4.0910799999999998
 31
0.0
  0
LINE
  5
155
  8
_________2
 62
     7
 10
65.549599999999998
 20
9.4089600000000004
 30
0.0
 11
65.549599999999998
 21
35.908799999999999
 31
0.0
  0
LINE
  5
156
  8
_________2
 62
     7
 10
84.549700000000016
 20
9.4089600000000004
 30
0.0
 11
84.549700000000016
 21
35.908799999999999
 31
0.0
  0
LINE
  5
157
  8
_________2
 62
     7
 10
103.55
 20
-4.0910799999999998
 30
0.0
 11
103.55
 21
35.908799999999999
 31
0.0
  0
LINE
  5
158
  8
_________2
 62
     7
 10
28.549299999999999
 20
9.4089600000000004
 30
0.0
 11
28.549299999999999
 21
23.409199999999998
 31
0.0
  0
LINE
  5
159
  8
_________2
 62
     7
 10
17.049499999999998
 20
9.4089600000000004
 30
0.0
 11
103.55
 21
9.4089600000000004
 31
0.0
  0
LINE
  5
15A
  8
_________2
 62
     7
 10
17.049499999999998
 20
23.409199999999998
 30
0.0
 11
103.55
 21
23.409199999999998
 31
0.0
  0
LINE
  5
15B
  8
_________2
 62
     7
 10
103.55
 20
15.9085
 30
0.0
 11
183.55099999999999
 21
15.9085
 31
0.0
  0
LINE
  5
15C
  8
_________2
 62
     7
 10
17.049499999999998
 20
35.908799999999999
 30
0.0
 11
183.55099999999999
 21
35.908799999999999
 31
0.0
  0
ENDSEC
  0
EOF
