  0
SECTION
  2
HEADER
  9
$ACADVER
  1
AC1015
  9
$ACADMAINTVER
 70
     6
  9
$DWGCODEPAGE
  3
ANSI_932
  9
$INSBASE
 10
0.0
 20
0.0
 30
0.0
  9
$EXTMIN
 10
-4.70052
 20
-21.0714
 30
0.0
  9
$EXTMAX
 10
205.301
 20
275.9309999999999
 30
0.0
  9
$LIMMIN
 10
0.0
 20
0.0
  9
$LIMMAX
 10
12.0
 20
9.0
  9
$ORTHOMODE
 70
     0
  9
$REGENMODE
 70
     1
  9
$FILLMODE
 70
     1
  9
$QTEXTMODE
 70
     0
  9
$MIRRTEXT
 70
     1
  9
$LTSCALE
 40
1.0
  9
$ATTMODE
 70
     1
  9
$TEXTSIZE
 40
0.0
  9
$TRACEWID
 40
0.05
  9
$TEXTSTYLE
  7
STANDARD
  9
$CLAYER
  8
0
  9
$CELTYPE
  6
CONTINUOUS
  9
$CECOLOR
 62
   256
  9
$CELTSCALE
 40
1.0
  9
$DISPSILH
 70
     0
  9
$DIMSCALE
 40
1.0
  9
$DIMASZ
 40
0.18
  9
$DIMEXO
 40
0.0625
  9
$DIMDLI
 40
0.38
  9
$DIMRND
 40
0.0
  9
$DIMDLE
 40
0.0
  9
$DIMEXE
 40
0.18
  9
$DIMTP
 40
0.0
  9
$DIMTM
 40
0.0
  9
$DIMTXT
 40
0.18
  9
$DIMCEN
 40
0.09
  9
$DIMTSZ
 40
0.0
  9
$DIMTOL
 70
     0
  9
$DIMLIM
 70
     0
  9
$DIMTIH
 70
     1
  9
$DIMTOH
 70
     1
  9
$DIMSE1
 70
     0
  9
$DIMSE2
 70
     0
  9
$DIMTAD
 70
     0
  9
$DIMZIN
 70
     0
  9
$DIMBLK
  1

  9
$DIMASO
 70
     1
  9
$DIMSHO
 70
     1
  9
$DIMPOST
  1

  9
$DIMAPOST
  1

  9
$DIMALT
 70
     0
  9
$DIMALTD
 70
     2
  9
$DIMALTF
 40
25.4
  9
$DIMLFAC
 40
1.0
  9
$DIMTOFL
 70
     0
  9
$DIMTVP
 40
0.0
  9
$DIMTIX
 70
     0
  9
$DIMSOXD
 70
     0
  9
$DIMSAH
 70
     0
  9
$DIMBLK1
  1

  9
$DIMBLK2
  1

  9
$DIMSTYLE
  2
STANDARD
  9
$DIMCLRD
 70
     0
  9
$DIMCLRE
 70
     0
  9
$DIMCLRT
 70
     0
  9
$DIMTFAC
 40
1.0
  9
$DIMGAP
 40
0.09
  9
$DIMJUST
 70
     0
  9
$DIMSD1
 70
     0
  9
$DIMSD2
 70
     0
  9
$DIMTOLJ
 70
     1
  9
$DIMTZIN
 70
     0
  9
$DIMALTZ
 70
     0
  9
$DIMALTTZ
 70
     0
  9
$DIMUPT
 70
     0
  9
$DIMDEC
 70
     4
  9
$DIMTDEC
 70
     4
  9
$DIMALTU
 70
     2
  9
$DIMALTTD
 70
     2
  9
$DIMTXSTY
  7
STANDARD
  9
$DIMAUNIT
 70
     0
  9
$DIMADEC
 70
     0
  9
$DIMALTRND
 40
0.0
  9
$DIMAZIN
 70
     0
  9
$DIMDSEP
 70
    46
  9
$DIMATFIT
 70
     3
  9
$DIMFRAC
 70
     0
  9
$DIMLDRBLK
  1

  9
$DIMLUNIT
 70
     2
  9
$DIMLWD
 70
    -2
  9
$DIMLWE
 70
    -2
  9
$DIMTMOVE
 70
     0
  9
$LUNITS
 70
     2
  9
$LUPREC
 70
     4
  9
$SKETCHINC
 40
0.1
  9
$FILLETRAD
 40
0.0
  9
$AUNITS
 70
     0
  9
$AUPREC
 70
     0
  9
$MENU
  1
.
  9
$ELEVATION
 40
0.0
  9
$PELEVATION
 40
0.0
  9
$THICKNESS
 40
0.0
  9
$LIMCHECK
 70
     0
  9
$CHAMFERA
 40
0.0
  9
$CHAMFERB
 40
0.0
  9
$CHAMFERC
 40
0.0
  9
$CHAMFERD
 40
0.0
  9
$SKPOLY
 70
     0
  9
$TDCREATE
 40
2444972.375000000
  9
$TDUCREATE
 40
2444972.000000000
  9
$TDUPDATE
 40
2455216.789818958
  9
$TDUUPDATE
 40
2455216.414818958
  9
$TDINDWG
 40
0.0163258449
  9
$TDUSRTIMER
 40
0.0163258449
  9
$USRTIMER
 70
     1
  9
$ANGBASE
 50
0.0
  9
$ANGDIR
 70
     0
  9
$PDMODE
 70
     0
  9
$PDSIZE
 40
0.0
  9
$PLINEWID
 40
0.0
  9
$SPLFRAME
 70
     0
  9
$SPLINETYPE
 70
     6
  9
$SPLINESEGS
 70
     8
  9
$HANDSEED
  5
22B
  9
$SURFTAB1
 70
     6
  9
$SURFTAB2
 70
     6
  9
$SURFTYPE
 70
     6
  9
$SURFU
 70
     6
  9
$SURFV
 70
     6
  9
$UCSBASE
  2

  9
$UCSNAME
  2

  9
$UCSORG
 10
0.0
 20
0.0
 30
0.0
  9
$UCSXDIR
 10
1.0
 20
0.0
 30
0.0
  9
$UCSYDIR
 10
0.0
 20
1.0
 30
0.0
  9
$UCSORTHOREF
  2

  9
$UCSORTHOVIEW
 70
     0
  9
$UCSORGTOP
 10
0.0
 20
0.0
 30
0.0
  9
$UCSORGBOTTOM
 10
0.0
 20
0.0
 30
0.0
  9
$UCSORGLEFT
 10
0.0
 20
0.0
 30
0.0
  9
$UCSORGRIGHT
 10
0.0
 20
0.0
 30
0.0
  9
$UCSORGFRONT
 10
0.0
 20
0.0
 30
0.0
  9
$UCSORGBACK
 10
0.0
 20
0.0
 30
0.0
  9
$PUCSBASE
  2

  9
$PUCSNAME
  2

  9
$PUCSORG
 10
0.0
 20
0.0
 30
0.0
  9
$PUCSXDIR
 10
1.0
 20
0.0
 30
0.0
  9
$PUCSYDIR
 10
0.0
 20
1.0
 30
0.0
  9
$PUCSORTHOREF
  2

  9
$PUCSORTHOVIEW
 70
     0
  9
$PUCSORGTOP
 10
0.0
 20
0.0
 30
0.0
  9
$PUCSORGBOTTOM
 10
0.0
 20
0.0
 30
0.0
  9
$PUCSORGLEFT
 10
0.0
 20
0.0
 30
0.0
  9
$PUCSORGRIGHT
 10
0.0
 20
0.0
 30
0.0
  9
$PUCSORGFRONT
 10
0.0
 20
0.0
 30
0.0
  9
$PUCSORGBACK
 10
0.0
 20
0.0
 30
0.0
  9
$USERI1
 70
     0
  9
$USERI2
 70
     0
  9
$USERI3
 70
     0
  9
$USERI4
 70
     0
  9
$USERI5
 70
     0
  9
$USERR1
 40
0.0
  9
$USERR2
 40
0.0
  9
$USERR3
 40
0.0
  9
$USERR4
 40
0.0
  9
$USERR5
 40
0.0
  9
$WORLDVIEW
 70
     1
  9
$SHADEDGE
 70
     3
  9
$SHADEDIF
 70
    70
  9
$TILEMODE
 70
     1
  9
$MAXACTVP
 70
    48
  9
$PINSBASE
 10
0.0
 20
0.0
 30
0.0
  9
$PLIMCHECK
 70
     0
  9
$PEXTMIN
 10
1.000000000000000E+20
 20
1.000000000000000E+20
 30
1.000000000000000E+20
  9
$PEXTMAX
 10
-1.000000000000000E+20
 20
-1.000000000000000E+20
 30
-1.000000000000000E+20
  9
$PLIMMIN
 10
0.0
 20
0.0
  9
$PLIMMAX
 10
12.0
 20
9.0
  9
$UNITMODE
 70
     0
  9
$VISRETAIN
 70
     1
  9
$PLINEGEN
 70
     0
  9
$PSLTSCALE
 70
     1
  9
$TREEDEPTH
 70
  3020
  9
$CMLSTYLE
  2
STANDARD
  9
$CMLJUST
 70
     0
  9
$CMLSCALE
 40
1.0
  9
$PROXYGRAPHICS
 70
     1
  9
$MEASUREMENT
 70
     0
  9
$CELWEIGHT
370
    -1
  9
$ENDCAPS
280
     0
  9
$JOINSTYLE
280
     0
  9
$LWDISPLAY
290
     0
  9
$INSUNITS
 70
     0
  9
$HYPERLINKBASE
  1

  9
$STYLESHEET
  1

  9
$XEDIT
290
     1
  9
$CEPSNTYPE
380
     0
  9
$PSTYLEMODE
290
     1
  9
$FINGERPRINTGUID
  2
{BEBD0ACB-1037-40BD-B646-C45C5AD2F81D}
  9
$VERSIONGUID
  2
{2C5308E3-619E-4C90-9C88-63114FE31C04}
  9
$EXTNAMES
290
     1
  9
$PSVPSCALE
 40
0.0
  9
$OLESTARTUP
290
     0
  0
ENDSEC
  0
SECTION
  2
CLASSES
  0
CLASS
  1
ACDBDICTIONARYWDFLT
  2
AcDbDictionaryWithDefault
  3
AutoCAD 2000
 90
        0
280
     0
281
     0
  0
CLASS
  1
ACDBPLACEHOLDER
  2
AcDbPlaceHolder
  3
AutoCAD 2000
 90
        0
280
     0
281
     0
  0
CLASS
  1
LAYOUT
  2
AcDbLayout
  3
AutoCAD 2000
 90
        0
280
     0
281
     0
  0
ENDSEC
  0
SECTION
  2
TABLES
  0
TABLE
  2
VPORT
  5
8
330
0
100
AcDbSymbolTable
 70
     2
  0
VPORT
  5
22A
330
8
100
AcDbSymbolTableRecord
100
AcDbViewportTableRecord
  2
*Active
 70
     0
 10
0.0
 20
0.0
 11
1.0
 21
1.0
 12
124.5026516713374
 22
127.4298006915125
 13
0.0
 23
0.0
 14
1.0
 24
1.0
 15
0.0
 25
0.0
 16
0.0
 26
0.0
 36
1.0
 17
0.0
 27
0.0
 37
0.0
 40
300.4962689424235
 41
1.912109375
 42
50.0
 43
0.0
 44
0.0
 50
0.0
 51
0.0
 71
     0
 72
   100
 73
     1
 74
     1
 75
     0
 76
     0
 77
     0
 78
     0
281
     0
 65
     1
110
0.0
120
0.0
130
0.0
111
1.0
121
0.0
131
0.0
112
0.0
122
1.0
132
0.0
 79
     0
146
0.0
  0
ENDTAB
  0
TABLE
  2
LTYPE
  5
5
330
0
100
AcDbSymbolTable
 70
     3
  0
LTYPE
  5
12
330
5
100
AcDbSymbolTableRecord
100
AcDbLinetypeTableRecord
  2
BYBLOCK
 70
     0
  3

 72
    65
 73
     0
 40
0.0
  0
LTYPE
  5
13
330
5
100
AcDbSymbolTableRecord
100
AcDbLinetypeTableRecord
  2
BYLAYER
 70
     0
  3

 72
    65
 73
     0
 40
0.0
  0
LTYPE
  5
14
330
5
100
AcDbSymbolTableRecord
100
AcDbLinetypeTableRecord
  2
CONTINUOUS
 70
     0
  3
Solid line
 72
    65
 73
     0
 40
0.0
  0
LTYPE
  5
1F
330
5
100
AcDbSymbolTableRecord
100
AcDbLinetypeTableRecord
  2
AIGENLINE001
 70
     0
  3
generate AI->DXF Converter
 72
    65
 73
     4
 40
5.856144999999999
 49
3.5278
 74
     0
 49
-0.776115
 74
     0
 49
0.776115
 74
     0
 49
-0.776115
 74
     0
  0
LTYPE
  5
20
330
5
100
AcDbSymbolTableRecord
100
AcDbLinetypeTableRecord
  2
AIGENLINE002
 70
     0
  3
generate AI->DXF Converter
 72
    65
 73
     2
 40
1.552229999999999
 49
0.776115
 74
     0
 49
-0.776115
 74
     0
  0
ENDTAB
  0
TABLE
  2
LAYER
  5
2
330
0
100
AcDbSymbolTable
 70
     2
  0
LAYER
  5
E
330
2
100
AcDbSymbolTableRecord
100
AcDbLayerTableRecord
  2
0
 70
     0
 62
     7
  6
CONTINUOUS
370
    -3
390
21D
  0
LAYER
  5
21
330
2
100
AcDbSymbolTableRecord
100
AcDbLayerTableRecord
  2
_________2
 70
     0
 62
     7
  6
CONTINUOUS
370
    -3
390
21D
  0
ENDTAB
  0
TABLE
  2
STYLE
  5
3
330
0
100
AcDbSymbolTable
 70
     1
  0
STYLE
  5
F
330
3
100
AcDbSymbolTableRecord
100
AcDbTextStyleTableRecord
  2
STANDARD
 70
     0
 40
0.0
 41
0.0
 50
0.0
 71
     0
 42
0.0
  3
TXT
  4
BIGFONT
  0
ENDTAB
  0
TABLE
  2
VIEW
  5
6
330
0
100
AcDbSymbolTable
 70
     0
  0
ENDTAB
  0
TABLE
  2
UCS
  5
7
330
0
100
AcDbSymbolTable
 70
     0
  0
ENDTAB
  0
TABLE
  2
APPID
  5
9
330
0
100
AcDbSymbolTable
 70
     1
  0
APPID
  5
10
330
9
100
AcDbSymbolTableRecord
100
AcDbRegAppTableRecord
  2
ACAD
 70
     0
  0
ENDTAB
  0
TABLE
  2
DIMSTYLE
  5
A
330
0
100
AcDbSymbolTable
 70
     1
100
AcDbDimStyleTable
 71
     0
  0
DIMSTYLE
105
219
330
A
100
AcDbSymbolTableRecord
100
AcDbDimStyleTableRecord
  2
STANDARD
 70
     0
340
F
  0
ENDTAB
  0
TABLE
  2
BLOCK_RECORD
  5
1
330
0
100
AcDbSymbolTable
 70
     0
  0
BLOCK_RECORD
  5
18
330
1
100
AcDbSymbolTableRecord
100
AcDbBlockTableRecord
  2
*MODEL_SPACE
340
220
  0
BLOCK_RECORD
  5
15
330
1
100
AcDbSymbolTableRecord
100
AcDbBlockTableRecord
  2
*PAPER_SPACE
340
221
  0
ENDTAB
  0
ENDSEC
  0
SECTION
  2
BLOCKS
  0
BLOCK
  5
19
330
18
100
AcDbEntity
  8
0
100
AcDbBlockBegin
  2
*MODEL_SPACE
 70
     0
 10
0.0
 20
0.0
 30
0.0
  3
*MODEL_SPACE
  1

  0
ENDBLK
  5
1A
330
18
100
AcDbEntity
  8
0
100
AcDbBlockEnd
  0
BLOCK
  5
16
330
15
100
AcDbEntity
 67
     1
  8
0
100
AcDbBlockBegin
  2
*PAPER_SPACE
 70
     0
 10
0.0
 20
0.0
 30
0.0
  3
*PAPER_SPACE
  1

  0
ENDBLK
  5
17
330
15
100
AcDbEntity
 67
     1
  8
0
100
AcDbBlockEnd
  0
ENDSEC
  0
SECTION
  2
ENTITIES
  0
TEXT
  5
23
330
18
100
AcDbEntity
  8
0
100
AcDbText
 10
136.902271
 20
51.7143
 30
0.0
 40
3.09234
  1
排水目皿付（尺度　1：5）
 41
0.5
 72
     1
 11
147.777
 21
51.7143
 31
0.0
100
AcDbText
  0
TEXT
  5
24
330
18
100
AcDbEntity
  8
0
100
AcDbText
 10
144.1698089999999
 20
60.34159999999999
 30
0.0
 40
3.09234
  1
G1 1/4
 41
0.5
 72
     1
 11
147.726
 21
60.34159999999999
 31
0.0
100
AcDbText
  0
TEXT
  5
25
330
18
100
AcDbEntity
  8
0
100
AcDbText
 10
146.221135
 20
93.54799999999999
 30
0.0
 40
3.09234
  1
%%c81
 41
0.5
 72
     1
 11
148.025
 21
93.54799999999999
 31
0.0
100
AcDbText
  0
TEXT
  5
26
330
18
100
AcDbEntity
  8
0
100
AcDbText
 10
160.347
 20
73.04782499999999
 30
0.0
 40
3.09234
  1
32
 50
90.0
 41
0.5
 72
     1
 11
160.347
 21
74.33629999999999
 31
0.0
100
AcDbText
  0
TEXT
  5
27
330
18
100
AcDbEntity
  8
0
100
AcDbText
 10
176.8609999999999
 20
117.1129824999999
 30
0.0
 40
3.09234
  1
160
 50
90.0
 41
0.5
 72
     1
 11
176.8609999999999
 21
118.788
 31
0.0
100
AcDbText
  0
TEXT
  5
28
330
18
100
AcDbEntity
  8
0
100
AcDbText
 10
144.0089999999999
 20
122.285525
 30
0.0
 40
3.09234
  1
65
 50
90.0
 41
0.5
 72
     1
 11
144.0089999999999
 21
123.574
 31
0.0
100
AcDbText
  0
TEXT
  5
29
330
18
100
AcDbEntity
  8
0
100
AcDbText
 10
32.3924
 20
196.7062875
 30
0.0
 40
3.09234
  1
360
 50
90.0
 41
0.5
 72
     1
 11
32.3924
 21
198.639
 31
0.0
100
AcDbText
  0
TEXT
  5
2A
330
18
100
AcDbEntity
  8
0
100
AcDbText
 10
24.52339999999999
 20
200.835135
 30
0.0
 40
3.09234
  1
500
 50
90.0
 41
0.5
 72
     1
 11
24.52339999999999
 21
202.639
 31
0.0
100
AcDbText
  0
TEXT
  5
2B
330
18
100
AcDbEntity
  8
0
100
AcDbText
 10
114.6279999999999
 20
118.6129825
 30
0.0
 40
3.09234
  1
130
 50
90.0
 41
0.5
 72
     1
 11
114.6279999999999
 21
120.2879999999999
 31
0.0
100
AcDbText
  0
TEXT
  5
2C
330
18
100
AcDbEntity
  8
0
100
AcDbText
 10
116.415
 20
214.2062875
 30
0.0
 40
3.09234
  1
230
 50
90.0
 41
0.5
 72
     1
 11
116.415
 21
216.139
 31
0.0
100
AcDbText
  0
TEXT
  5
2D
330
18
100
AcDbEntity
  8
0
100
AcDbText
 10
51.9918
 20
223.1005249999999
 30
0.0
 40
3.09234
  1
65
 50
90.0
 41
0.5
 72
     1
 11
51.9918
 21
224.3889999999999
 31
0.0
100
AcDbText
  0
TEXT
  5
2E
330
18
100
AcDbEntity
  8
0
100
AcDbText
 10
51.9918
 20
217.600525
 30
0.0
 40
3.09234
  1
45
 50
90.0
 41
0.5
 72
     1
 11
51.9918
 21
218.889
 31
0.0
100
AcDbText
  0
TEXT
  5
2F
330
18
100
AcDbEntity
  8
0
100
AcDbText
 10
32.3924
 20
220.7216775
 30
0.0
 40
3.09234
  1
110
 50
90.0
 41
0.5
 72
     1
 11
32.3924
 21
222.1389999999999
 31
0.0
100
AcDbText
  0
TEXT
  5
30
330
18
100
AcDbEntity
  8
0
100
AcDbText
 10
31.5805
 20
122.9205249999999
 30
0.0
 40
3.09234
  1
55
 50
90.0
 41
0.5
 72
     1
 11
31.5805
 21
124.209
 31
0.0
100
AcDbText
  0
TEXT
  5
31
330
18
100
AcDbEntity
  8
0
100
AcDbText
 10
62.0054
 20
199.4819999999999
 30
0.0
 40
3.09234
  1
%%c46
 41
0.5
100
AcDbText
  0
TEXT
  5
32
330
18
100
AcDbEntity
  8
0
100
AcDbText
 10
87.76557999999999
 20
233.6349999999999
 30
0.0
 40
3.09234
  1
%%c35
 41
0.5
 72
     2
 11
91.88869999999999
 21
233.6349999999999
 31
0.0
100
AcDbText
  0
TEXT
  5
33
330
18
100
AcDbEntity
  8
0
100
AcDbText
 10
157.3442875
 20
105.487
 30
0.0
 40
3.09234
  1
230
 41
0.5
 72
     1
 11
159.277
 21
105.487
 31
0.0
100
AcDbText
  0
TEXT
  5
34
330
18
100
AcDbEntity
  8
0
100
AcDbText
 10
72.4986875
 20
136.6709999999999
 30
0.0
 40
3.09234
  1
280
 41
0.5
 72
     1
 11
74.43139999999999
 21
136.6709999999999
 31
0.0
100
AcDbText
  0
TEXT
  5
35
330
18
100
AcDbEntity
  8
0
100
AcDbText
 10
72.62753499999999
 20
159.1029999999999
 30
0.0
 40
3.09234
  1
700
 41
0.5
 72
     1
 11
74.43139999999999
 21
159.1029999999999
 31
0.0
100
AcDbText
  0
TEXT
  5
36
330
18
100
AcDbEntity
  8
0
100
AcDbText
 10
72.4986875
 20
168.101
 30
0.0
 40
3.09234
  1
640
 41
0.5
 72
     1
 11
74.43139999999999
 21
168.101
 31
0.0
100
AcDbText
  0
TEXT
  5
37
330
18
100
AcDbEntity
  8
0
100
AcDbText
 10
72.4986875
 20
241.3559999999999
 30
0.0
 40
3.09234
  1
520
 41
0.5
 72
     1
 11
74.43139999999999
 21
241.3559999999999
 31
0.0
100
AcDbText
  0
LINE
  5
38
330
18
100
AcDbEntity
  8
0
100
AcDbLine
 10
52.2128
 20
221.139
 30
0.0
 11
70.0775
 21
221.139
 31
0.0
  0
LINE
  5
39
330
18
100
AcDbEntity
  8
0
100
AcDbLine
 10
73.19410000000001
 20
219.9009999999999
 30
0.0
 11
70.34019999999999
 21
217.0469999999999
 31
0.0
  0
LINE
  5
3A
330
18
100
AcDbEntity
  8
0
100
AcDbLine
 10
72.0493
 20
217.918
 30
0.0
 11
73.19410000000001
 21
219.9009999999999
 31
0.0
  0
LINE
  5
3B
330
18
100
AcDbEntity
  8
0
100
AcDbLine
 10
73.19410000000001
 20
219.9009999999999
 30
0.0
 11
71.2111
 21
218.7559999999999
 31
0.0
  0
LINE
  5
3C
330
18
100
AcDbEntity
  8
0
100
AcDbLine
 10
71.2111
 20
218.7559999999999
 30
0.0
 11
72.0493
 21
217.918
 31
0.0
  0
LINE
  5
3D
330
18
100
AcDbEntity
  8
0
100
AcDbLine
 10
76.8139
 20
224.359
 30
0.0
 11
75.6691
 21
222.3759999999999
 31
0.0
  0
LINE
  5
3E
330
18
100
AcDbEntity
  8
0
100
AcDbLine
 10
75.6691
 20
222.3759999999999
 30
0.0
 11
77.6521
 21
223.5209999999999
 31
0.0
  0
LINE
  5
3F
330
18
100
AcDbEntity
  8
0
100
AcDbLine
 10
77.6521
 20
223.5209999999999
 30
0.0
 11
76.8139
 21
224.359
 31
0.0
  0
LINE
  5
40
330
18
100
AcDbEntity
  8
0
100
AcDbLine
 10
85.77569999999999
 20
232.4799999999999
 30
0.0
 11
75.6691
 21
222.3759999999999
 31
0.0
  0
LINE
  5
41
330
18
100
AcDbEntity
  8
0
100
AcDbLine
 10
75.6691
 20
222.3759999999999
 30
0.0
 11
73.19410000000001
 21
219.9009999999999
 31
0.0
  0
LINE
  5
42
330
18
100
AcDbEntity
  8
0
  6
AIGENLINE001
100
AcDbLine
 10
74.43139999999999
 20
175.189
 30
0.0
 11
74.43139999999999
 21
230.599
 31
0.0
  0
LINE
  5
43
330
18
100
AcDbEntity
  8
0
100
AcDbLine
 10
155.5819999999999
 20
84.84630000000001
 30
0.0
 11
155.846
 21
85.6215
 31
0.0
  0
ARC
  5
44
330
18
100
AcDbEntity
  8
0
100
AcDbCircle
 10
155.274026
 20
85.81134499999999
 30
0.0
 40
0.603061
100
AcDbArc
 50
341.651038
 51
359.998116
  0
ARC
  5
45
330
18
100
AcDbEntity
  8
0
100
AcDbCircle
 10
155.245473
 20
85.780314
 30
0.0
 40
0.6323750000000001
100
AcDbArc
 50
2.810861
 51
84.80004800000001
  0
LINE
  5
46
330
18
100
AcDbEntity
  8
0
100
AcDbLine
 10
155.0
 20
84.43600000000001
 30
0.0
 11
147.777
 21
84.43600000000001
 31
0.0
  0
ARC
  5
47
330
18
100
AcDbEntity
  8
0
100
AcDbCircle
 10
154.997079
 20
85.05836100000001
 30
0.0
 40
0.6223330000000001
100
AcDbArc
 50
270.265286
 51
340.082014
  0
ARC
  5
48
330
18
100
AcDbEntity
  8
0
100
AcDbCircle
 10
147.7717409999999
 20
-38.956303
 30
0.0
 40
125.5923899999999
100
AcDbArc
 50
86.562234
 51
89.99746700000001
  0
LINE
  5
49
330
18
100
AcDbEntity
  8
0
100
AcDbLine
 10
139.9729999999999
 20
84.84630000000001
 30
0.0
 11
139.709
 21
85.6215
 31
0.0
  0
ARC
  5
4A
330
18
100
AcDbEntity
  8
0
100
AcDbCircle
 10
140.2599679999999
 20
85.81108499999999
 30
0.0
 40
0.5828560000000001
100
AcDbArc
 50
179.976382
 51
198.9819839999999
  0
ARC
  5
4B
330
18
100
AcDbEntity
  8
0
100
AcDbCircle
 10
140.310687
 20
85.77839899999998
 30
0.0
 40
0.6344310000000001
100
AcDbArc
 50
95.32968000000002
 51
177.0250409999999
  0
LINE
  5
4C
330
18
100
AcDbEntity
  8
0
100
AcDbLine
 10
140.554
 20
84.43600000000001
 30
0.0
 11
147.777
 21
84.43600000000001
 31
0.0
  0
ARC
  5
4D
330
18
100
AcDbEntity
  8
0
100
AcDbCircle
 10
140.5566649999999
 20
85.05624499999999
 30
0.0
 40
0.620215
100
AcDbArc
 50
199.781001
 51
269.77584
  0
ARC
  5
4E
330
18
100
AcDbEntity
  8
0
100
AcDbCircle
 10
147.7828139999999
 20
-38.956697
 30
0.0
 40
125.592784
100
AcDbArc
 50
90.002519
 51
93.43774099999999
  0
LINE
  5
4F
330
18
100
AcDbEntity
  8
0
100
AcDbLine
 10
145.888
 20
59.9213
 30
0.0
 11
143.6779999999999
 21
59.32909999999999
 31
0.0
  0
LINE
  5
50
330
18
100
AcDbEntity
  8
0
100
AcDbLine
 10
143.6779999999999
 20
59.32909999999999
 30
0.0
 11
145.888
 21
58.7368
 31
0.0
  0
LINE
  5
51
330
18
100
AcDbEntity
  8
0
100
AcDbLine
 10
145.888
 20
58.7368
 30
0.0
 11
145.888
 21
59.9213
 31
0.0
  0
LINE
  5
52
330
18
100
AcDbEntity
  8
0
100
AcDbLine
 10
149.6669999999999
 20
58.7513
 30
0.0
 11
151.8779999999999
 21
59.3435
 31
0.0
  0
LINE
  5
53
330
18
100
AcDbEntity
  8
0
100
AcDbLine
 10
151.8779999999999
 20
59.3435
 30
0.0
 11
149.6669999999999
 21
59.9357
 31
0.0
  0
LINE
  5
54
330
18
100
AcDbEntity
  8
0
100
AcDbLine
 10
149.6669999999999
 20
59.9357
 30
0.0
 11
149.6669999999999
 21
58.7513
 31
0.0
  0
LINE
  5
55
330
18
100
AcDbEntity
  8
0
100
AcDbLine
 10
143.6779999999999
 20
59.3363
 30
0.0
 11
151.8779999999999
 21
59.3363
 31
0.0
  0
LINE
  5
56
330
18
100
AcDbEntity
  8
0
100
AcDbLine
 10
141.888
 20
92.86039999999999
 30
0.0
 11
139.677
 21
92.2682
 31
0.0
  0
LINE
  5
57
330
18
100
AcDbEntity
  8
0
100
AcDbLine
 10
139.677
 20
92.2682
 30
0.0
 11
141.888
 21
91.6759
 31
0.0
  0
LINE
  5
58
330
18
100
AcDbEntity
  8
0
100
AcDbLine
 10
141.888
 20
91.6759
 30
0.0
 11
141.888
 21
92.86039999999999
 31
0.0
  0
LINE
  5
59
330
18
100
AcDbEntity
  8
0
100
AcDbLine
 10
153.6669999999999
 20
91.6759
 30
0.0
 11
155.877
 21
92.2682
 31
0.0
  0
LINE
  5
5A
330
18
100
AcDbEntity
  8
0
100
AcDbLine
 10
155.877
 20
92.2682
 30
0.0
 11
153.6669999999999
 21
92.86039999999999
 31
0.0
  0
LINE
  5
5B
330
18
100
AcDbEntity
  8
0
100
AcDbLine
 10
153.6669999999999
 20
92.86039999999999
 30
0.0
 11
153.6669999999999
 21
91.6759
 31
0.0
  0
LINE
  5
5C
330
18
100
AcDbEntity
  8
0
100
AcDbLine
 10
139.677
 20
92.2682
 30
0.0
 11
155.877
 21
92.2682
 31
0.0
  0
LINE
  5
5D
330
18
100
AcDbEntity
  8
0
100
AcDbLine
 10
151.8779999999999
 20
73.13639999999999
 30
0.0
 11
151.6779999999999
 21
72.9362
 31
0.0
  0
LINE
  5
5E
330
18
100
AcDbEntity
  8
0
100
AcDbLine
 10
151.8779999999999
 20
71.3363
 30
0.0
 11
151.6779999999999
 21
71.1362
 31
0.0
  0
ARC
  5
5F
330
18
100
AcDbEntity
  8
0
100
AcDbCircle
 10
153.363139
 20
77.52126899999999
 30
0.0
 40
0.4151170000000001
100
AcDbArc
 50
2.102500999999999
 51
87.996189
  0
LINE
  5
60
330
18
100
AcDbEntity
  8
0
100
AcDbLine
 10
151.8779999999999
 20
70.4988
 30
0.0
 11
151.8779999999999
 21
58.5722
 31
0.0
  0
LINE
  5
61
330
18
100
AcDbEntity
  8
0
100
AcDbLine
 10
143.6779999999999
 20
70.4988
 30
0.0
 11
143.6779999999999
 21
58.5722
 31
0.0
  0
LINE
  5
62
330
18
100
AcDbEntity
  8
0
100
AcDbLine
 10
151.8779999999999
 20
73.13639999999999
 30
0.0
 11
151.8779999999999
 21
71.3363
 31
0.0
  0
LINE
  5
63
330
18
100
AcDbEntity
  8
0
100
AcDbLine
 10
153.9779999999999
 20
77.5365
 30
0.0
 11
153.9779999999999
 21
76.3362
 31
0.0
  0
ARC
  5
64
330
18
100
AcDbEntity
  8
0
100
AcDbCircle
 10
154.0618959999999
 20
79.651746
 30
0.0
 40
2.285715
100
AcDbArc
 50
92.108644
 51
177.8823529999999
  0
LINE
  5
65
330
18
100
AcDbEntity
  8
0
100
AcDbLine
 10
153.9779999999999
 20
82.23629999999999
 30
0.0
 11
153.9779999999999
 21
81.9359
 31
0.0
  0
ARC
  5
66
330
18
100
AcDbEntity
  8
0
100
AcDbCircle
 10
152.98552
 20
84.22801599999999
 30
0.0
 40
0.208153
100
AcDbArc
 50
92.064614
 51
177.836826
  0
LINE
  5
67
330
18
100
AcDbEntity
  8
0
100
AcDbLine
 10
155.877
 20
92.66849999999999
 30
0.0
 11
155.877
 21
86.98579999999999
 31
0.0
  0
LINE
  5
68
330
18
100
AcDbEntity
  8
0
100
AcDbLine
 10
139.677
 20
92.66849999999999
 30
0.0
 11
139.677
 21
86.98579999999999
 31
0.0
  0
LINE
  5
69
330
18
100
AcDbEntity
  8
0
100
AcDbLine
 10
151.6779999999999
 20
71.1362
 30
0.0
 11
151.6779999999999
 21
72.9362
 31
0.0
  0
LINE
  5
6A
330
18
100
AcDbEntity
  8
0
100
AcDbLine
 10
151.7779999999999
 20
77.9361
 30
0.0
 11
151.7779999999999
 21
79.7362
 31
0.0
  0
LINE
  5
6B
330
18
100
AcDbEntity
  8
0
100
AcDbLine
 10
148.3769999999999
 20
65.53650000000001
 30
0.0
 11
147.177
 21
65.53650000000001
 31
0.0
  0
LINE
  5
6C
330
18
100
AcDbEntity
  8
0
100
AcDbLine
 10
148.3769999999999
 20
65.53650000000001
 30
0.0
 11
148.178
 21
65.33629999999999
 31
0.0
  0
LINE
  5
6D
330
18
100
AcDbEntity
  8
0
100
AcDbLine
 10
147.3779999999999
 20
65.33629999999999
 30
0.0
 11
147.177
 21
65.53650000000001
 31
0.0
  0
LINE
  5
6E
330
18
100
AcDbEntity
  8
0
100
AcDbLine
 10
147.3779999999999
 20
65.33629999999999
 30
0.0
 11
148.178
 21
65.33629999999999
 31
0.0
  0
LINE
  5
6F
330
18
100
AcDbEntity
  8
0
100
AcDbLine
 10
143.6779999999999
 20
73.13639999999999
 30
0.0
 11
143.877
 21
72.9362
 31
0.0
  0
LINE
  5
70
330
18
100
AcDbEntity
  8
0
100
AcDbLine
 10
143.6779999999999
 20
71.3363
 30
0.0
 11
143.877
 21
71.1362
 31
0.0
  0
ARC
  5
71
330
18
100
AcDbEntity
  8
0
100
AcDbCircle
 10
142.1920929999999
 20
77.52126899999999
 30
0.0
 40
0.4151170000000001
100
AcDbArc
 50
92.00377299999999
 51
177.897496
  0
LINE
  5
72
330
18
100
AcDbEntity
  8
0
100
AcDbLine
 10
148.9779999999999
 20
71.1362
 30
0.0
 11
148.9779999999999
 21
70.3362
 31
0.0
  0
LINE
  5
73
330
18
100
AcDbEntity
  8
0
100
AcDbLine
 10
146.578
 20
71.1362
 30
0.0
 11
146.578
 21
70.3362
 31
0.0
  0
LINE
  5
74
330
18
100
AcDbEntity
  8
0
100
AcDbLine
 10
143.6779999999999
 20
73.13639999999999
 30
0.0
 11
143.6779999999999
 21
71.3363
 31
0.0
  0
LINE
  5
75
330
18
100
AcDbEntity
  8
0
100
AcDbLine
 10
152.7779999999999
 20
76.3362
 30
0.0
 11
152.7779999999999
 21
73.13639999999999
 31
0.0
  0
LINE
  5
76
330
18
100
AcDbEntity
  8
0
100
AcDbLine
 10
142.777
 20
76.3362
 30
0.0
 11
142.777
 21
73.13639999999999
 31
0.0
  0
LINE
  5
77
330
18
100
AcDbEntity
  8
0
100
AcDbLine
 10
141.577
 20
77.5365
 30
0.0
 11
141.577
 21
76.3362
 31
0.0
  0
ARC
  5
78
330
18
100
AcDbEntity
  8
0
100
AcDbCircle
 10
141.4933259999999
 20
79.651735
 30
0.0
 40
2.285725999999999
100
AcDbArc
 50
2.117884999999999
 51
87.89107800000001
  0
LINE
  5
79
330
18
100
AcDbEntity
  8
0
100
AcDbLine
 10
141.577
 20
82.23629999999999
 30
0.0
 11
141.577
 21
81.9359
 31
0.0
  0
ARC
  5
7A
330
18
100
AcDbEntity
  8
0
100
AcDbCircle
 10
142.569528
 20
84.228547
 30
0.0
 40
0.20763
100
AcDbArc
 50
2.022046
 51
87.879243
  0
LINE
  5
7B
330
18
100
AcDbEntity
  8
0
100
AcDbLine
 10
151.8779999999999
 20
72.9362
 30
0.0
 11
143.6779999999999
 21
72.9362
 31
0.0
  0
LINE
  5
7C
330
18
100
AcDbEntity
  8
0
100
AcDbLine
 10
151.8779999999999
 20
71.3363
 30
0.0
 11
143.6779999999999
 21
71.3363
 31
0.0
  0
LINE
  5
7D
330
18
100
AcDbEntity
  8
0
100
AcDbLine
 10
151.6779999999999
 20
71.1362
 30
0.0
 11
143.877
 21
71.1362
 31
0.0
  0
LINE
  5
7E
330
18
100
AcDbEntity
  8
0
100
AcDbLine
 10
152.7779999999999
 20
73.13639999999999
 30
0.0
 11
142.777
 21
73.13639999999999
 31
0.0
  0
LINE
  5
7F
330
18
100
AcDbEntity
  8
0
100
AcDbLine
 10
153.9779999999999
 20
76.3362
 30
0.0
 11
141.577
 21
76.3362
 31
0.0
  0
LINE
  5
80
330
18
100
AcDbEntity
  8
0
100
AcDbLine
 10
153.9779999999999
 20
77.5365
 30
0.0
 11
141.577
 21
77.5365
 31
0.0
  0
LINE
  5
81
330
18
100
AcDbEntity
  8
0
100
AcDbLine
 10
153.3779999999999
 20
77.9361
 30
0.0
 11
142.178
 21
77.9361
 31
0.0
  0
LINE
  5
82
330
18
100
AcDbEntity
  8
0
100
AcDbLine
 10
148.9779999999999
 20
70.3362
 30
0.0
 11
146.578
 21
70.3362
 31
0.0
  0
LINE
  5
83
330
18
100
AcDbEntity
  8
0
100
AcDbLine
 10
153.9779999999999
 20
82.23629999999999
 30
0.0
 11
141.577
 21
82.23629999999999
 31
0.0
  0
LINE
  5
84
330
18
100
AcDbEntity
  8
0
100
AcDbLine
 10
152.7779999999999
 20
84.2359
 30
0.0
 11
142.777
 21
84.2359
 31
0.0
  0
LINE
  5
85
330
18
100
AcDbEntity
  8
0
100
AcDbLine
 10
148.178
 20
65.33629999999999
 30
0.0
 11
148.178
 21
70.3362
 31
0.0
  0
LINE
  5
86
330
18
100
AcDbEntity
  8
0
100
AcDbLine
 10
148.3769999999999
 20
65.53650000000001
 30
0.0
 11
148.3769999999999
 21
70.3362
 31
0.0
  0
LINE
  5
87
330
18
100
AcDbEntity
  8
0
100
AcDbLine
 10
147.3779999999999
 20
65.33629999999999
 30
0.0
 11
147.3779999999999
 21
70.3362
 31
0.0
  0
LINE
  5
88
330
18
100
AcDbEntity
  8
0
100
AcDbLine
 10
147.177
 20
65.53650000000001
 30
0.0
 11
147.177
 21
70.3362
 31
0.0
  0
LINE
  5
89
330
18
100
AcDbEntity
  8
0
100
AcDbLine
 10
143.877
 20
71.1362
 30
0.0
 11
143.877
 21
72.9362
 31
0.0
  0
LINE
  5
8A
330
18
100
AcDbEntity
  8
0
100
AcDbLine
 10
149.2779999999999
 20
82.23629999999999
 30
0.0
 11
149.2779999999999
 21
84.2359
 31
0.0
  0
LINE
  5
8B
330
18
100
AcDbEntity
  8
0
100
AcDbLine
 10
143.777
 20
77.9361
 30
0.0
 11
143.777
 21
79.7362
 31
0.0
  0
LINE
  5
8C
330
18
100
AcDbEntity
  8
0
100
AcDbLine
 10
146.277
 20
82.23629999999999
 30
0.0
 11
146.277
 21
84.2359
 31
0.0
  0
LINE
  5
8D
330
18
100
AcDbEntity
  8
0
  6
AIGENLINE001
100
AcDbLine
 10
147.777
 20
64.56529999999999
 30
0.0
 11
147.777
 21
88.75449999999998
 31
0.0
  0
LINE
  5
8E
330
18
100
AcDbEntity
  8
0
100
AcDbLine
 10
162.245
 20
75.3244
 30
0.0
 11
161.653
 21
77.53619999999999
 31
0.0
  0
LINE
  5
8F
330
18
100
AcDbEntity
  8
0
100
AcDbLine
 10
161.653
 20
77.53619999999999
 30
0.0
 11
161.0599999999999
 21
75.3244
 31
0.0
  0
LINE
  5
90
330
18
100
AcDbEntity
  8
0
100
AcDbLine
 10
161.0599999999999
 20
75.3244
 30
0.0
 11
162.245
 21
75.3244
 31
0.0
  0
LINE
  5
91
330
18
100
AcDbEntity
  8
0
100
AcDbLine
 10
161.0749999999999
 20
73.3476
 30
0.0
 11
161.667
 21
71.1358
 31
0.0
  0
LINE
  5
92
330
18
100
AcDbEntity
  8
0
100
AcDbLine
 10
161.667
 20
71.1358
 30
0.0
 11
162.26
 21
73.3476
 31
0.0
  0
LINE
  5
93
330
18
100
AcDbEntity
  8
0
100
AcDbLine
 10
162.26
 20
73.3476
 30
0.0
 11
161.0749999999999
 21
73.3476
 31
0.0
  0
LINE
  5
94
330
18
100
AcDbEntity
  8
0
100
AcDbLine
 10
161.653
 20
77.53619999999999
 30
0.0
 11
161.653
 21
71.1362
 31
0.0
  0
LINE
  5
95
330
18
100
AcDbEntity
  8
0
100
AcDbLine
 10
154.9779999999999
 20
77.5365
 30
0.0
 11
162.6529999999999
 21
77.5365
 31
0.0
  0
LINE
  5
96
330
18
100
AcDbEntity
  8
0
100
AcDbLine
 10
152.678
 20
71.1362
 30
0.0
 11
162.6529999999999
 21
71.1362
 31
0.0
  0
LINE
  5
97
330
18
100
AcDbEntity
  8
0
100
AcDbLine
 10
176.9829999999999
 20
113.0
 30
0.0
 11
177.576
 21
110.7879999999999
 31
0.0
  0
LINE
  5
98
330
18
100
AcDbEntity
  8
0
100
AcDbLine
 10
177.576
 20
110.7879999999999
 30
0.0
 11
178.168
 21
113.0
 31
0.0
  0
LINE
  5
99
330
18
100
AcDbEntity
  8
0
100
AcDbLine
 10
178.168
 20
113.0
 30
0.0
 11
176.9829999999999
 21
113.0
 31
0.0
  0
LINE
  5
9A
330
18
100
AcDbEntity
  8
0
100
AcDbLine
 10
178.154
 20
124.576
 30
0.0
 11
177.5609999999999
 21
126.7879999999999
 31
0.0
  0
LINE
  5
9B
330
18
100
AcDbEntity
  8
0
100
AcDbLine
 10
177.5609999999999
 20
126.7879999999999
 30
0.0
 11
176.969
 21
124.576
 31
0.0
  0
LINE
  5
9C
330
18
100
AcDbEntity
  8
0
100
AcDbLine
 10
176.969
 20
124.576
 30
0.0
 11
178.154
 21
124.576
 31
0.0
  0
LINE
  5
9D
330
18
100
AcDbEntity
  8
0
100
AcDbLine
 10
177.5609999999999
 20
110.7879999999999
 30
0.0
 11
177.5609999999999
 21
126.7879999999999
 31
0.0
  0
LINE
  5
9E
330
18
100
AcDbEntity
  8
0
100
AcDbLine
 10
47.575
 20
180.639
 30
0.0
 11
32.41839999999999
 21
180.639
 31
0.0
  0
LINE
  5
9F
330
18
100
AcDbEntity
  8
0
100
AcDbLine
 10
32.41839999999999
 20
216.639
 30
0.0
 11
55.81369999999999
 21
216.639
 31
0.0
  0
LINE
  5
A0
330
18
100
AcDbEntity
  8
0
100
AcDbLine
 10
145.632
 20
124.5849999999999
 30
0.0
 11
145.0389999999999
 21
126.797
 31
0.0
  0
LINE
  5
A1
330
18
100
AcDbEntity
  8
0
100
AcDbLine
 10
145.0389999999999
 20
126.797
 30
0.0
 11
144.447
 21
124.5849999999999
 31
0.0
  0
LINE
  5
A2
330
18
100
AcDbEntity
  8
0
100
AcDbLine
 10
144.447
 20
124.5849999999999
 30
0.0
 11
145.632
 21
124.5849999999999
 31
0.0
  0
LINE
  5
A3
330
18
100
AcDbEntity
  8
0
100
AcDbLine
 10
144.447
 20
122.5079999999999
 30
0.0
 11
145.0389999999999
 21
120.297
 31
0.0
  0
LINE
  5
A4
330
18
100
AcDbEntity
  8
0
100
AcDbLine
 10
145.0389999999999
 20
120.297
 30
0.0
 11
145.632
 21
122.5079999999999
 31
0.0
  0
LINE
  5
A5
330
18
100
AcDbEntity
  8
0
100
AcDbLine
 10
145.632
 20
122.5079999999999
 30
0.0
 11
144.447
 21
122.5079999999999
 31
0.0
  0
LINE
  5
A6
330
18
100
AcDbEntity
  8
0
100
AcDbLine
 10
145.0389999999999
 20
126.797
 30
0.0
 11
145.0389999999999
 21
120.297
 31
0.0
  0
ARC
  5
A7
330
18
100
AcDbEntity
  8
0
  6
AIGENLINE002
100
AcDbCircle
 10
151.079683
 20
131.60246
 30
0.0
 40
11.374489
100
AcDbArc
 50
279.0744169999999
 51
295.2061049999999
  0
ARC
  5
A8
330
18
100
AcDbEntity
  8
0
  6
AIGENLINE002
100
AcDbCircle
 10
152.767611
 20
127.6622149999999
 30
0.0
 40
7.092185
100
AcDbArc
 50
296.4248539999999
 51
323.763237
  0
ARC
  5
A9
330
18
100
AcDbEntity
  8
0
  6
AIGENLINE002
100
AcDbCircle
 10
153.0788179999999
 20
127.219635
 30
0.0
 40
6.581825999999999
100
AcDbArc
 50
325.2695299999999
 51
351.3685959999999
  0
ARC
  5
AA
330
18
100
AcDbEntity
  8
0
  6
AIGENLINE002
100
AcDbCircle
 10
133.535227
 20
132.5733139999999
 30
0.0
 40
11.536632
100
AcDbArc
 50
211.884569
 51
250.2419209999999
  0
ARC
  5
AB
330
18
100
AcDbEntity
  8
0
  6
AIGENLINE002
100
AcDbCircle
 10
135.21148
 20
136.8913779999999
 30
0.0
 40
16.16757
100
AcDbArc
 50
249.824274
 51
264.89746
  0
ARC
  5
AC
330
18
100
AcDbEntity
  8
0
100
AcDbCircle
 10
126.2429389999999
 20
127.261327
 30
0.0
 40
5.551787
100
AcDbArc
 50
190.1006989999999
 51
201.981249
  0
ARC
  5
AD
330
18
100
AcDbEntity
  8
0
100
AcDbCircle
 10
128.8112939999999
 20
128.215145
 30
0.0
 40
8.290811999999998
100
AcDbArc
 50
201.4500769999999
 51
212.11162
  0
ARC
  5
AE
330
18
100
AcDbEntity
  8
0
100
AcDbCircle
 10
132.1231629999999
 20
130.2177189999999
 30
0.0
 40
12.160691
100
AcDbArc
 50
211.808747
 51
225.7226109999999
  0
ARC
  5
AF
330
18
100
AcDbEntity
  8
0
100
AcDbCircle
 10
135.929315
 20
133.864006
 30
0.0
 40
17.42944
100
AcDbArc
 50
225.132564
 51
240.010513
  0
ARC
  5
B0
330
18
100
AcDbEntity
  8
0
100
AcDbCircle
 10
138.9777719999999
 20
138.697431
 30
0.0
 40
23.140585
100
AcDbArc
 50
239.4549529999999
 51
254.5505009999999
  0
ARC
  5
B1
330
18
100
AcDbEntity
  8
0
100
AcDbCircle
 10
140.670475
 20
143.7907899999999
 30
0.0
 40
28.50214
100
AcDbArc
 50
253.998238
 51
259.541784
  0
LINE
  5
B2
330
18
100
AcDbEntity
  8
0
100
AcDbLine
 10
168.5659999999999
 20
103.9379999999999
 30
0.0
 11
170.7779999999999
 21
104.53
 31
0.0
  0
LINE
  5
B3
330
18
100
AcDbEntity
  8
0
100
AcDbLine
 10
170.7779999999999
 20
104.53
 30
0.0
 11
168.5659999999999
 21
105.1229999999999
 31
0.0
  0
LINE
  5
B4
330
18
100
AcDbEntity
  8
0
100
AcDbLine
 10
168.5659999999999
 20
105.1229999999999
 30
0.0
 11
168.5659999999999
 21
103.9379999999999
 31
0.0
  0
LINE
  5
B5
330
18
100
AcDbEntity
  8
0
100
AcDbLine
 10
149.989
 20
105.108
 30
0.0
 11
147.777
 21
104.516
 31
0.0
  0
LINE
  5
B6
330
18
100
AcDbEntity
  8
0
100
AcDbLine
 10
147.777
 20
104.516
 30
0.0
 11
149.989
 21
103.9229999999999
 31
0.0
  0
LINE
  5
B7
330
18
100
AcDbEntity
  8
0
100
AcDbLine
 10
149.989
 20
103.9229999999999
 30
0.0
 11
149.989
 21
105.108
 31
0.0
  0
LINE
  5
B8
330
18
100
AcDbEntity
  8
0
100
AcDbLine
 10
170.7779999999999
 20
104.516
 30
0.0
 11
147.777
 21
104.516
 31
0.0
  0
LINE
  5
B9
330
18
100
AcDbEntity
  8
0
100
AcDbLine
 10
147.777
 20
103.516
 30
0.0
 11
147.777
 21
111.765
 31
0.0
  0
LINE
  5
BA
330
18
100
AcDbEntity
  8
0
100
AcDbLine
 10
170.7779999999999
 20
103.516
 30
0.0
 11
170.7779999999999
 21
110.288
 31
0.0
  0
LINE
  5
BB
330
18
100
AcDbEntity
  8
0
100
AcDbLine
 10
95.1154
 20
113.788
 30
0.0
 11
116.934
 21
113.788
 31
0.0
  0
LINE
  5
BC
330
18
100
AcDbEntity
  8
0
100
AcDbLine
 10
110.4279999999999
 20
126.7879999999999
 30
0.0
 11
116.934
 21
126.7879999999999
 31
0.0
  0
LINE
  5
BD
330
18
100
AcDbEntity
  8
0
100
AcDbLine
 10
115.356
 20
116.0
 30
0.0
 11
115.948
 21
113.788
 31
0.0
  0
LINE
  5
BE
330
18
100
AcDbEntity
  8
0
100
AcDbLine
 10
115.948
 20
113.788
 30
0.0
 11
116.541
 21
116.0
 31
0.0
  0
LINE
  5
BF
330
18
100
AcDbEntity
  8
0
100
AcDbLine
 10
116.541
 20
116.0
 30
0.0
 11
115.356
 21
116.0
 31
0.0
  0
LINE
  5
C0
330
18
100
AcDbEntity
  8
0
100
AcDbLine
 10
116.526
 20
124.576
 30
0.0
 11
115.934
 21
126.7879999999999
 31
0.0
  0
LINE
  5
C1
330
18
100
AcDbEntity
  8
0
100
AcDbLine
 10
115.934
 20
126.7879999999999
 30
0.0
 11
115.341
 21
124.576
 31
0.0
  0
LINE
  5
C2
330
18
100
AcDbEntity
  8
0
100
AcDbLine
 10
115.341
 20
124.576
 30
0.0
 11
116.526
 21
124.576
 31
0.0
  0
LINE
  5
C3
330
18
100
AcDbEntity
  8
0
100
AcDbLine
 10
115.934
 20
113.788
 30
0.0
 11
115.934
 21
126.7879999999999
 31
0.0
  0
LINE
  5
C4
330
18
100
AcDbEntity
  8
0
100
AcDbLine
 10
62.64289999999999
 20
136.292
 30
0.0
 11
60.4311
 21
135.6999999999999
 31
0.0
  0
LINE
  5
C5
330
18
100
AcDbEntity
  8
0
100
AcDbLine
 10
60.4311
 20
135.6999999999999
 30
0.0
 11
62.64289999999999
 21
135.108
 31
0.0
  0
LINE
  5
C6
330
18
100
AcDbEntity
  8
0
100
AcDbLine
 10
62.64289999999999
 20
135.108
 30
0.0
 11
62.64289999999999
 21
136.292
 31
0.0
  0
LINE
  5
C7
330
18
100
AcDbEntity
  8
0
100
AcDbLine
 10
86.2199
 20
135.122
 30
0.0
 11
88.4317
 21
135.715
 31
0.0
  0
LINE
  5
C8
330
18
100
AcDbEntity
  8
0
100
AcDbLine
 10
88.4317
 20
135.715
 30
0.0
 11
86.2199
 21
136.307
 31
0.0
  0
LINE
  5
C9
330
18
100
AcDbEntity
  8
0
100
AcDbLine
 10
86.2199
 20
136.307
 30
0.0
 11
86.2199
 21
135.122
 31
0.0
  0
LINE
  5
CA
330
18
100
AcDbEntity
  8
0
100
AcDbLine
 10
60.4313
 20
135.6999999999999
 30
0.0
 11
88.43149999999999
 21
135.6999999999999
 31
0.0
  0
LINE
  5
CB
330
18
100
AcDbEntity
  8
0
  6
AIGENLINE001
100
AcDbLine
 10
88.43149999999999
 20
224.5149999999999
 30
0.0
 11
88.43149999999999
 21
231.129
 31
0.0
  0
LINE
  5
CC
330
18
100
AcDbEntity
  8
0
  6
AIGENLINE001
100
AcDbLine
 10
60.4313
 20
224.5149999999999
 30
0.0
 11
60.4313
 21
231.129
 31
0.0
  0
LINE
  5
CD
330
18
100
AcDbEntity
  8
0
100
AcDbLine
 10
88.43149999999999
 20
124.038
 30
0.0
 11
88.43149999999999
 21
136.6999999999999
 31
0.0
  0
LINE
  5
CE
330
18
100
AcDbEntity
  8
0
100
AcDbLine
 10
60.4313
 20
124.038
 30
0.0
 11
60.4313
 21
136.6999999999999
 31
0.0
  0
LINE
  5
CF
330
18
100
AcDbEntity
  8
0
100
AcDbLine
 10
32.2921
 20
123.499
 30
0.0
 11
32.8847
 21
121.287
 31
0.0
  0
LINE
  5
D0
330
18
100
AcDbEntity
  8
0
100
AcDbLine
 10
32.8847
 20
121.287
 30
0.0
 11
33.4774
 21
123.499
 31
0.0
  0
LINE
  5
D1
330
18
100
AcDbEntity
  8
0
100
AcDbLine
 10
33.4774
 20
123.499
 30
0.0
 11
32.2921
 21
123.499
 31
0.0
  0
LINE
  5
D2
330
18
100
AcDbEntity
  8
0
100
AcDbLine
 10
33.5062
 20
124.576
 30
0.0
 11
32.9136
 21
126.7879999999999
 31
0.0
  0
LINE
  5
D3
330
18
100
AcDbEntity
  8
0
100
AcDbLine
 10
32.9136
 20
126.7879999999999
 30
0.0
 11
32.3209
 21
124.576
 31
0.0
  0
LINE
  5
D4
330
18
100
AcDbEntity
  8
0
100
AcDbLine
 10
32.3209
 20
124.576
 30
0.0
 11
33.5062
 21
124.576
 31
0.0
  0
LINE
  5
D5
330
18
100
AcDbEntity
  8
0
100
AcDbLine
 10
32.8847
 20
121.287
 30
0.0
 11
32.8847
 21
126.7879999999999
 31
0.0
  0
LINE
  5
D6
330
18
100
AcDbEntity
  8
0
100
AcDbLine
 10
31.8847
 20
126.7879999999999
 30
0.0
 11
38.7304
 21
126.7879999999999
 31
0.0
  0
LINE
  5
D7
330
18
100
AcDbEntity
  8
0
100
AcDbLine
 10
31.8846
 20
121.2879999999999
 30
0.0
 11
57.6813
 21
121.2879999999999
 31
0.0
  0
LINE
  5
D8
330
18
100
AcDbEntity
  8
0
100
AcDbLine
 10
117.9259999999999
 20
225.427
 30
0.0
 11
117.334
 21
227.639
 31
0.0
  0
LINE
  5
D9
330
18
100
AcDbEntity
  8
0
100
AcDbLine
 10
117.334
 20
227.639
 30
0.0
 11
116.741
 21
225.427
 31
0.0
  0
LINE
  5
DA
330
18
100
AcDbEntity
  8
0
100
AcDbLine
 10
116.741
 20
225.427
 30
0.0
 11
117.9259999999999
 21
225.427
 31
0.0
  0
LINE
  5
DB
330
18
100
AcDbEntity
  8
0
100
AcDbLine
 10
116.7559999999999
 20
206.8499999999999
 30
0.0
 11
117.348
 21
204.639
 31
0.0
  0
LINE
  5
DC
330
18
100
AcDbEntity
  8
0
100
AcDbLine
 10
117.348
 20
204.639
 30
0.0
 11
117.941
 21
206.8499999999999
 31
0.0
  0
LINE
  5
DD
330
18
100
AcDbEntity
  8
0
100
AcDbLine
 10
117.941
 20
206.8499999999999
 30
0.0
 11
116.7559999999999
 21
206.8499999999999
 31
0.0
  0
LINE
  5
DE
330
18
100
AcDbEntity
  8
0
100
AcDbLine
 10
117.334
 20
227.639
 30
0.0
 11
117.334
 21
204.639
 31
0.0
  0
LINE
  5
DF
330
18
100
AcDbEntity
  8
0
100
AcDbLine
 10
101.034
 20
227.639
 30
0.0
 11
118.334
 21
227.639
 31
0.0
  0
LINE
  5
E0
330
18
100
AcDbEntity
  8
0
100
AcDbLine
 10
62.0066
 20
198.327
 30
0.0
 11
68.1196
 21
198.327
 31
0.0
  0
LINE
  5
E1
330
18
100
AcDbEntity
  8
0
100
AcDbLine
 10
85.77569999999999
 20
232.4799999999999
 30
0.0
 11
91.88869999999999
 21
232.4799999999999
 31
0.0
  0
LINE
  5
E2
330
18
100
AcDbEntity
  8
0
100
AcDbLine
 10
81.4314
 20
204.639
 30
0.0
 11
118.334
 21
204.639
 31
0.0
  0
LINE
  5
E3
330
18
100
AcDbEntity
  8
0
100
AcDbLine
 10
53.5054
 20
214.427
 30
0.0
 11
52.9129
 21
216.639
 31
0.0
  0
LINE
  5
E4
330
18
100
AcDbEntity
  8
0
100
AcDbLine
 10
52.9129
 20
216.639
 30
0.0
 11
52.32009999999999
 21
214.427
 31
0.0
  0
LINE
  5
E5
330
18
100
AcDbEntity
  8
0
100
AcDbLine
 10
52.32009999999999
 20
214.427
 30
0.0
 11
53.5054
 21
214.427
 31
0.0
  0
LINE
  5
E6
330
18
100
AcDbEntity
  8
0
100
AcDbLine
 10
52.3203
 20
223.3509999999999
 30
0.0
 11
52.9129
 21
221.139
 31
0.0
  0
LINE
  5
E7
330
18
100
AcDbEntity
  8
0
100
AcDbLine
 10
52.9129
 20
221.139
 30
0.0
 11
53.5056
 21
223.3509999999999
 31
0.0
  0
LINE
  5
E8
330
18
100
AcDbEntity
  8
0
100
AcDbLine
 10
53.5056
 20
223.3509999999999
 30
0.0
 11
52.3203
 21
223.3509999999999
 31
0.0
  0
LINE
  5
E9
330
18
100
AcDbEntity
  8
0
100
AcDbLine
 10
53.5054
 20
225.427
 30
0.0
 11
52.9129
 21
227.639
 31
0.0
  0
LINE
  5
EA
330
18
100
AcDbEntity
  8
0
100
AcDbLine
 10
52.9129
 20
227.639
 30
0.0
 11
52.32009999999999
 21
225.427
 31
0.0
  0
LINE
  5
EB
330
18
100
AcDbEntity
  8
0
100
AcDbLine
 10
52.32009999999999
 20
225.427
 30
0.0
 11
53.5054
 21
225.427
 31
0.0
  0
LINE
  5
EC
330
18
100
AcDbEntity
  8
0
100
AcDbLine
 10
32.833
 20
218.8509999999999
 30
0.0
 11
33.4256
 21
216.639
 31
0.0
  0
LINE
  5
ED
330
18
100
AcDbEntity
  8
0
100
AcDbLine
 10
33.4256
 20
216.639
 30
0.0
 11
34.0183
 21
218.8509999999999
 31
0.0
  0
LINE
  5
EE
330
18
100
AcDbEntity
  8
0
100
AcDbLine
 10
34.0183
 20
218.8509999999999
 30
0.0
 11
32.833
 21
218.8509999999999
 31
0.0
  0
LINE
  5
EF
330
18
100
AcDbEntity
  8
0
100
AcDbLine
 10
34.01089999999999
 20
225.427
 30
0.0
 11
33.4183
 21
227.639
 31
0.0
  0
LINE
  5
F0
330
18
100
AcDbEntity
  8
0
100
AcDbLine
 10
33.4183
 20
227.639
 30
0.0
 11
32.8256
 21
225.427
 31
0.0
  0
LINE
  5
F1
330
18
100
AcDbEntity
  8
0
100
AcDbLine
 10
32.8256
 20
225.427
 30
0.0
 11
34.01089999999999
 21
225.427
 31
0.0
  0
LINE
  5
F2
330
18
100
AcDbEntity
  8
0
100
AcDbLine
 10
52.9129
 20
212.522
 30
0.0
 11
52.9129
 21
227.639
 31
0.0
  0
LINE
  5
F3
330
18
100
AcDbEntity
  8
0
100
AcDbLine
 10
33.4183
 20
216.639
 30
0.0
 11
33.4183
 21
227.639
 31
0.0
  0
LINE
  5
F4
330
18
100
AcDbEntity
  8
0
100
AcDbLine
 10
44.6436
 20
167.722
 30
0.0
 11
42.4318
 21
167.13
 31
0.0
  0
LINE
  5
F5
330
18
100
AcDbEntity
  8
0
100
AcDbLine
 10
42.4318
 20
167.13
 30
0.0
 11
44.6436
 21
166.537
 31
0.0
  0
LINE
  5
F6
330
18
100
AcDbEntity
  8
0
100
AcDbLine
 10
44.6436
 20
166.537
 30
0.0
 11
44.6436
 21
167.722
 31
0.0
  0
LINE
  5
F7
330
18
100
AcDbEntity
  8
0
100
AcDbLine
 10
104.22
 20
166.537
 30
0.0
 11
106.4319999999999
 21
167.13
 31
0.0
  0
LINE
  5
F8
330
18
100
AcDbEntity
  8
0
100
AcDbLine
 10
106.4319999999999
 20
167.13
 30
0.0
 11
104.22
 21
167.722
 31
0.0
  0
LINE
  5
F9
330
18
100
AcDbEntity
  8
0
100
AcDbLine
 10
104.22
 20
167.722
 30
0.0
 11
104.22
 21
166.537
 31
0.0
  0
LINE
  5
FA
330
18
100
AcDbEntity
  8
0
100
AcDbLine
 10
42.4318
 20
167.13
 30
0.0
 11
106.4319999999999
 21
167.13
 31
0.0
  0
LINE
  5
FB
330
18
100
AcDbEntity
  8
0
100
AcDbLine
 10
41.6425
 20
158.7239999999999
 30
0.0
 11
39.4307
 21
158.132
 31
0.0
  0
LINE
  5
FC
330
18
100
AcDbEntity
  8
0
100
AcDbLine
 10
39.4307
 20
158.132
 30
0.0
 11
41.6425
 21
157.5389999999999
 31
0.0
  0
LINE
  5
FD
330
18
100
AcDbEntity
  8
0
100
AcDbLine
 10
41.6425
 20
157.5389999999999
 30
0.0
 11
41.6425
 21
158.7239999999999
 31
0.0
  0
LINE
  5
FE
330
18
100
AcDbEntity
  8
0
100
AcDbLine
 10
107.222
 20
157.554
 30
0.0
 11
109.433
 21
158.146
 31
0.0
  0
LINE
  5
FF
330
18
100
AcDbEntity
  8
0
100
AcDbLine
 10
109.433
 20
158.146
 30
0.0
 11
107.222
 21
158.739
 31
0.0
  0
LINE
  5
100
330
18
100
AcDbEntity
  8
0
100
AcDbLine
 10
107.222
 20
158.739
 30
0.0
 11
107.222
 21
157.554
 31
0.0
  0
LINE
  5
101
330
18
100
AcDbEntity
  8
0
100
AcDbLine
 10
39.4309
 20
158.132
 30
0.0
 11
109.433
 21
158.132
 31
0.0
  0
LINE
  5
102
330
18
100
AcDbEntity
  8
0
100
AcDbLine
 10
42.4318
 20
166.429
 30
0.0
 11
42.4318
 21
183.673
 31
0.0
  0
LINE
  5
103
330
18
100
AcDbEntity
  8
0
100
AcDbLine
 10
106.4319999999999
 20
166.429
 30
0.0
 11
106.4319999999999
 21
183.673
 31
0.0
  0
LINE
  5
104
330
18
100
AcDbEntity
  8
0
100
AcDbLine
 10
39.4309
 20
157.132
 30
0.0
 11
39.4309
 21
182.1649999999999
 31
0.0
  0
LINE
  5
105
330
18
100
AcDbEntity
  8
0
100
AcDbLine
 10
77.203
 20
208.2479999999999
 30
0.0
 11
76.0579
 21
206.265
 31
0.0
  0
LINE
  5
106
330
18
100
AcDbEntity
  8
0
100
AcDbLine
 10
76.0579
 20
206.265
 30
0.0
 11
78.041
 21
207.41
 31
0.0
  0
LINE
  5
107
330
18
100
AcDbEntity
  8
0
100
AcDbLine
 10
78.041
 20
207.41
 30
0.0
 11
77.203
 21
208.2479999999999
 31
0.0
  0
LINE
  5
108
330
18
100
AcDbEntity
  8
0
100
AcDbLine
 10
71.65980000000001
 20
201.0299999999999
 30
0.0
 11
72.805
 21
203.013
 31
0.0
  0
LINE
  5
109
330
18
100
AcDbEntity
  8
0
100
AcDbLine
 10
72.805
 20
203.013
 30
0.0
 11
70.8218
 21
201.8679999999999
 31
0.0
  0
LINE
  5
10A
330
18
100
AcDbEntity
  8
0
100
AcDbLine
 10
70.8218
 20
201.8679999999999
 30
0.0
 11
71.65980000000001
 21
201.0299999999999
 31
0.0
  0
LINE
  5
10B
330
18
100
AcDbEntity
  8
0
100
AcDbLine
 10
68.1196
 20
198.327
 30
0.0
 11
72.805
 21
203.013
 31
0.0
  0
LINE
  5
10C
330
18
100
AcDbEntity
  8
0
100
AcDbLine
 10
76.0579
 20
206.265
 30
0.0
 11
79.2405
 21
209.4479999999999
 31
0.0
  0
LINE
  5
10D
330
18
100
AcDbEntity
  8
0
100
AcDbLine
 10
72.805
 20
203.013
 30
0.0
 11
76.0579
 21
206.265
 31
0.0
  0
LINE
  5
10E
330
18
100
AcDbEntity
  8
0
100
AcDbLine
 10
34.0037
 20
214.427
 30
0.0
 11
33.4111
 21
216.639
 31
0.0
  0
LINE
  5
10F
330
18
100
AcDbEntity
  8
0
100
AcDbLine
 10
33.4111
 20
216.639
 30
0.0
 11
32.81839999999999
 21
214.427
 31
0.0
  0
LINE
  5
110
330
18
100
AcDbEntity
  8
0
100
AcDbLine
 10
32.81839999999999
 20
214.427
 30
0.0
 11
34.0037
 21
214.427
 31
0.0
  0
LINE
  5
111
330
18
100
AcDbEntity
  8
0
100
AcDbLine
 10
32.8402
 20
182.85
 30
0.0
 11
33.4328
 21
180.639
 31
0.0
  0
LINE
  5
112
330
18
100
AcDbEntity
  8
0
100
AcDbLine
 10
33.4328
 20
180.639
 30
0.0
 11
34.0255
 21
182.85
 31
0.0
  0
LINE
  5
113
330
18
100
AcDbEntity
  8
0
100
AcDbLine
 10
34.0255
 20
182.85
 30
0.0
 11
32.8402
 21
182.85
 31
0.0
  0
LINE
  5
114
330
18
100
AcDbEntity
  8
0
100
AcDbLine
 10
33.4183
 20
216.639
 30
0.0
 11
33.4183
 21
180.639
 31
0.0
  0
LINE
  5
115
330
18
100
AcDbEntity
  8
0
100
AcDbLine
 10
26.4216
 20
225.427
 30
0.0
 11
25.8291
 21
227.639
 31
0.0
  0
LINE
  5
116
330
18
100
AcDbEntity
  8
0
100
AcDbLine
 10
25.8291
 20
227.639
 30
0.0
 11
25.2363
 21
225.427
 31
0.0
  0
LINE
  5
117
330
18
100
AcDbEntity
  8
0
100
AcDbLine
 10
25.2363
 20
225.427
 30
0.0
 11
26.4216
 21
225.427
 31
0.0
  0
LINE
  5
118
330
18
100
AcDbEntity
  8
0
100
AcDbLine
 10
25.251
 20
179.8499999999999
 30
0.0
 11
25.8435
 21
177.639
 31
0.0
  0
LINE
  5
119
330
18
100
AcDbEntity
  8
0
100
AcDbLine
 10
25.8435
 20
177.639
 30
0.0
 11
26.43629999999999
 21
179.8499999999999
 31
0.0
  0
LINE
  5
11A
330
18
100
AcDbEntity
  8
0
100
AcDbLine
 10
26.43629999999999
 20
179.8499999999999
 30
0.0
 11
25.251
 21
179.8499999999999
 31
0.0
  0
LINE
  5
11B
330
18
100
AcDbEntity
  8
0
100
AcDbLine
 10
25.8291
 20
227.639
 30
0.0
 11
25.8291
 21
177.639
 31
0.0
  0
LINE
  5
11C
330
18
100
AcDbEntity
  8
0
100
AcDbLine
 10
24.8293
 20
177.639
 30
0.0
 11
45.4583
 21
177.639
 31
0.0
  0
LINE
  5
11D
330
18
100
AcDbEntity
  8
0
100
AcDbLine
 10
109.433
 20
157.132
 30
0.0
 11
109.433
 21
182.1649999999999
 31
0.0
  0
LINE
  5
11E
330
18
100
AcDbEntity
  8
0
100
AcDbLine
 10
24.8291
 20
227.639
 30
0.0
 11
47.82939999999999
 21
227.639
 31
0.0
  0
LINE
  5
11F
330
18
100
AcDbEntity
  8
0
100
AcDbLine
 10
50.6432
 20
240.978
 30
0.0
 11
48.4315
 21
240.3849999999999
 31
0.0
  0
LINE
  5
120
330
18
100
AcDbEntity
  8
0
100
AcDbLine
 10
48.4315
 20
240.3849999999999
 30
0.0
 11
50.6432
 21
239.793
 31
0.0
  0
LINE
  5
121
330
18
100
AcDbEntity
  8
0
100
AcDbLine
 10
50.6432
 20
239.793
 30
0.0
 11
50.6432
 21
240.978
 31
0.0
  0
LINE
  5
122
330
18
100
AcDbEntity
  8
0
100
AcDbLine
 10
98.22029999999999
 20
239.807
 30
0.0
 11
100.432
 21
240.3999999999999
 31
0.0
  0
LINE
  5
123
330
18
100
AcDbEntity
  8
0
100
AcDbLine
 10
100.432
 20
240.3999999999999
 30
0.0
 11
98.22029999999999
 21
240.992
 31
0.0
  0
LINE
  5
124
330
18
100
AcDbEntity
  8
0
100
AcDbLine
 10
98.22029999999999
 20
240.992
 30
0.0
 11
98.22029999999999
 21
239.807
 31
0.0
  0
LINE
  5
125
330
18
100
AcDbEntity
  8
0
100
AcDbLine
 10
48.43160000000001
 20
240.3849999999999
 30
0.0
 11
100.432
 21
240.3849999999999
 31
0.0
  0
LINE
  5
126
330
18
100
AcDbEntity
  8
0
100
AcDbLine
 10
100.432
 20
228.639
 30
0.0
 11
100.432
 21
241.385
 31
0.0
  0
LINE
  5
127
330
18
100
AcDbEntity
  8
0
100
AcDbLine
 10
48.43160000000001
 20
228.639
 30
0.0
 11
48.43160000000001
 21
241.385
 31
0.0
  0
LINE
  5
128
330
18
100
AcDbEntity
  8
0
  6
AIGENLINE001
100
AcDbLine
 10
147.777
 20
112.766
 30
0.0
 11
147.777
 21
121.066
 31
0.0
  0
ARC
  5
129
330
18
100
AcDbEntity
  8
0
  6
AIGENLINE002
100
AcDbCircle
 10
153.0121429999999
 20
119.775173
 30
0.0
 40
0.6110630000000001
100
AcDbArc
 50
103.101072
 51
160.9973399999999
  0
LINE
  5
12A
330
18
100
AcDbEntity
  8
0
  6
AIGENLINE002
100
AcDbLine
 10
145.6369999999999
 20
117.297
 30
0.0
 11
147.792
 21
117.297
 31
0.0
  0
LINE
  5
12B
330
18
100
AcDbEntity
  8
0
  6
AIGENLINE002
100
AcDbLine
 10
147.792
 20
117.297
 30
0.0
 11
149.947
 21
117.297
 31
0.0
  0
LINE
  5
12C
330
18
100
AcDbEntity
  8
0
  6
AIGENLINE002
100
AcDbLine
 10
151.292
 20
116.797
 30
0.0
 11
152.246
 21
117.4479999999999
 31
0.0
  0
LINE
  5
12D
330
18
100
AcDbEntity
  8
0
  6
AIGENLINE002
100
AcDbLine
 10
153.001
 20
118.2029999999999
 30
0.0
 11
152.246
 21
117.4479999999999
 31
0.0
  0
LINE
  5
12E
330
18
100
AcDbEntity
  8
0
  6
AIGENLINE002
100
AcDbLine
 10
152.042
 20
118.797
 30
0.0
 11
152.434
 21
119.974
 31
0.0
  0
LINE
  5
12F
330
18
100
AcDbEntity
  8
0
  6
AIGENLINE002
100
AcDbLine
 10
151.292
 20
113.796
 30
0.0
 11
151.292
 21
116.797
 31
0.0
  0
LINE
  5
130
330
18
100
AcDbEntity
  8
0
  6
AIGENLINE002
100
AcDbLine
 10
152.042
 20
118.797
 30
0.0
 11
151.5419999999999
 21
118.297
 31
0.0
  0
LINE
  5
131
330
18
100
AcDbEntity
  8
0
  6
AIGENLINE002
100
AcDbLine
 10
150.092
 20
117.297
 30
0.0
 11
151.5419999999999
 21
118.297
 31
0.0
  0
LINE
  5
132
330
18
100
AcDbEntity
  8
0
  6
AIGENLINE002
100
AcDbLine
 10
150.092
 20
113.796
 30
0.0
 11
150.092
 21
117.297
 31
0.0
  0
LINE
  5
133
330
18
100
AcDbEntity
  8
0
  6
AIGENLINE002
100
AcDbLine
 10
144.2919999999999
 20
116.797
 30
0.0
 11
143.3379999999999
 21
117.4479999999999
 31
0.0
  0
LINE
  5
134
330
18
100
AcDbEntity
  8
0
  6
AIGENLINE002
100
AcDbLine
 10
142.5819999999999
 20
118.2029999999999
 30
0.0
 11
143.3379999999999
 21
117.4479999999999
 31
0.0
  0
LINE
  5
135
330
18
100
AcDbEntity
  8
0
  6
AIGENLINE002
100
AcDbLine
 10
143.542
 20
118.797
 30
0.0
 11
143.1489999999999
 21
119.974
 31
0.0
  0
ARC
  5
136
330
18
100
AcDbEntity
  8
0
  6
AIGENLINE002
100
AcDbCircle
 10
142.571875
 20
119.775385
 30
0.0
 40
0.6108120000000001
100
AcDbArc
 50
18.98963999999999
 51
76.911908
  0
LINE
  5
137
330
18
100
AcDbEntity
  8
0
  6
AIGENLINE002
100
AcDbLine
 10
144.2919999999999
 20
113.796
 30
0.0
 11
144.2919999999999
 21
116.797
 31
0.0
  0
LINE
  5
138
330
18
100
AcDbEntity
  8
0
  6
AIGENLINE002
100
AcDbLine
 10
143.542
 20
118.797
 30
0.0
 11
144.042
 21
118.297
 31
0.0
  0
LINE
  5
139
330
18
100
AcDbEntity
  8
0
  6
AIGENLINE002
100
AcDbLine
 10
145.492
 20
117.297
 30
0.0
 11
144.042
 21
118.297
 31
0.0
  0
LINE
  5
13A
330
18
100
AcDbEntity
  8
0
  6
AIGENLINE002
100
AcDbLine
 10
145.492
 20
113.796
 30
0.0
 11
145.492
 21
117.297
 31
0.0
  0
LINE
  5
13B
330
18
100
AcDbEntity
  8
0
  6
AIGENLINE002
100
AcDbLine
 10
162.1699999999999
 20
125.7879999999999
 30
0.0
 11
167.778
 21
125.7879999999999
 31
0.0
  0
LINE
  5
13C
330
18
100
AcDbEntity
  8
0
  6
AIGENLINE002
100
AcDbLine
 10
168.277
 20
113.788
 30
0.0
 11
168.277
 21
125.2879999999999
 31
0.0
  0
ARC
  5
13D
330
18
100
AcDbEntity
  8
0
  6
AIGENLINE002
100
AcDbCircle
 10
167.757844
 20
125.2688939999999
 30
0.0
 40
0.519601
100
AcDbArc
 50
2.095136999999999
 51
87.82587900000001
  0
LINE
  5
13E
330
18
100
AcDbEntity
  8
0
  6
AIGENLINE001
100
AcDbLine
 10
164.277
 20
124.0989999999999
 30
0.0
 11
164.277
 21
128.942
 31
0.0
  0
LINE
  5
13F
330
18
100
AcDbEntity
  8
0
  6
AIGENLINE001
100
AcDbLine
 10
166.2509999999999
 20
121.2879999999999
 30
0.0
 11
172.799
 21
121.2879999999999
 31
0.0
  0
LINE
  5
140
330
18
100
AcDbEntity
  8
0
100
AcDbLine
 10
171.4779999999999
 20
110.7879999999999
 30
0.0
 11
178.261
 21
110.7879999999999
 31
0.0
  0
LINE
  5
141
330
18
100
AcDbEntity
  8
0
100
AcDbLine
 10
171.4779999999999
 20
126.7879999999999
 30
0.0
 11
178.261
 21
126.7879999999999
 31
0.0
  0
LINE
  5
142
330
18
100
AcDbEntity
  8
0
100
AcDbLine
 10
160.1849999999999
 20
126.7879999999999
 30
0.0
 11
170.7779999999999
 21
126.7879999999999
 31
0.0
  0
LINE
  5
143
330
18
100
AcDbEntity
  8
0
100
AcDbLine
 10
123.277
 20
126.7879999999999
 30
0.0
 11
160.1849999999999
 21
126.7879999999999
 31
0.0
  0
ARC
  5
144
330
18
100
AcDbEntity
  8
0
  6
AIGENLINE002
100
AcDbCircle
 10
160.2042919999999
 20
126.1665809999999
 30
0.0
 40
0.621628
100
AcDbArc
 50
91.822975
 51
173.972747
  0
LINE
  5
145
330
18
100
AcDbEntity
  8
0
100
AcDbLine
 10
137.2379999999999
 20
114.125
 30
0.0
 11
136.975
 21
114.665
 31
0.0
  0
ARC
  5
146
330
18
100
AcDbEntity
  8
0
100
AcDbCircle
 10
135.1560389999999
 20
113.7594389999999
 30
0.0
 40
2.031486999999999
100
AcDbArc
 50
26.457229
 51
80.34336500000001
  0
LINE
  5
147
330
18
100
AcDbEntity
  8
0
100
AcDbLine
 10
121.277
 20
126.7879999999999
 30
0.0
 11
123.277
 21
126.7879999999999
 31
0.0
  0
ARC
  5
148
330
18
100
AcDbEntity
  8
0
100
AcDbCircle
 10
121.2961469999999
 20
126.268959
 30
0.0
 40
0.519285
100
AcDbArc
 50
92.103646
 51
177.935798
  0
ARC
  5
149
330
18
100
AcDbEntity
  8
0
  6
AIGENLINE002
100
AcDbCircle
 10
123.2684479999999
 20
126.2743179999999
 30
0.0
 40
0.513648
100
AcDbArc
 50
23.551385
 51
89.048765
  0
ARC
  5
14A
330
18
100
AcDbEntity
  8
0
  6
AIGENLINE002
100
AcDbCircle
 10
147.806451
 20
317.7695959999999
 30
0.0
 40
197.472993
100
AcDbArc
 50
269.9941429999999
 51
271.459689
  0
ARC
  5
14B
330
18
100
AcDbEntity
  8
0
  6
AIGENLINE002
100
AcDbCircle
 10
147.788271
 20
320.4431759999999
 30
0.0
 40
200.146571
100
AcDbArc
 50
265.9847459999999
 51
269.9994249999999
  0
ARC
  5
14C
330
18
100
AcDbEntity
  8
0
100
AcDbCircle
 10
137.786067
 20
114.4022409999999
 30
0.0
 40
0.6142170000000001
100
AcDbArc
 50
206.8295669999999
 51
269.1662759999999
  0
LINE
  5
14D
330
18
100
AcDbEntity
  8
0
100
AcDbLine
 10
170.7779999999999
 20
113.788
 30
0.0
 11
170.7779999999999
 21
111.288
 31
0.0
  0
LINE
  5
14E
330
18
100
AcDbEntity
  8
0
100
AcDbLine
 10
168.777
 20
110.7879999999999
 30
0.0
 11
170.277
 21
110.7879999999999
 31
0.0
  0
ARC
  5
14F
330
18
100
AcDbEntity
  8
0
100
AcDbCircle
 10
170.2586879999999
 20
111.306983
 30
0.0
 40
0.519237
100
AcDbArc
 50
272.057831
 51
357.8632049999999
  0
LINE
  5
150
330
18
100
AcDbEntity
  8
0
100
AcDbLine
 10
168.277
 20
113.788
 30
0.0
 11
168.277
 21
111.288
 31
0.0
  0
ARC
  5
151
330
18
100
AcDbEntity
  8
0
100
AcDbCircle
 10
168.7957019999999
 20
111.3067119999999
 30
0.0
 40
0.5189560000000001
100
AcDbArc
 50
182.108009
 51
267.970995
  0
LINE
  5
152
330
18
100
AcDbEntity
  8
0
100
AcDbLine
 10
137.777
 20
113.788
 30
0.0
 11
170.7779999999999
 21
113.788
 31
0.0
  0
LINE
  5
153
330
18
100
AcDbEntity
  8
0
100
AcDbLine
 10
170.7779999999999
 20
113.788
 30
0.0
 11
170.7779999999999
 21
126.7879999999999
 31
0.0
  0
LINE
  5
154
330
18
100
AcDbEntity
  8
0
100
AcDbLine
 10
48.43160000000001
 20
227.4259999999999
 30
0.0
 11
48.43160000000001
 21
227.639
 31
0.0
  0
ARC
  5
155
330
18
100
AcDbEntity
  8
0
100
AcDbCircle
 10
46.631729
 20
227.426316
 30
0.0
 40
1.800245999999999
100
AcDbArc
 50
269.9945379999999
 51
359.9945079999999
  0
ARC
  5
156
330
18
100
AcDbEntity
  8
0
100
AcDbCircle
 10
47.662993
 20
217.7755529999999
 30
0.0
 40
8.200310999999999
100
AcDbArc
 50
119.1140129999999
 51
132.7552739999999
  0
ARC
  5
157
330
18
100
AcDbEntity
  8
0
100
AcDbCircle
 10
46.464216
 20
219.62779
 30
0.0
 40
6.000612999999999
100
AcDbArc
 50
88.40195600000001
 51
117.718759
  0
LINE
  5
158
330
18
100
AcDbEntity
  8
0
100
AcDbLine
 10
74.4316
 20
227.639
 30
0.0
 11
48.43160000000001
 21
227.639
 31
0.0
  0
LINE
  5
159
330
18
100
AcDbEntity
  8
0
100
AcDbLine
 10
100.432
 20
227.4259999999999
 30
0.0
 11
100.432
 21
227.639
 31
0.0
  0
ARC
  5
15A
330
18
100
AcDbEntity
  8
0
100
AcDbCircle
 10
102.2316149999999
 20
227.4263149999999
 30
0.0
 40
1.800245999999999
100
AcDbArc
 50
180.005492
 51
270.0055019999999
  0
ARC
  5
15B
330
18
100
AcDbEntity
  8
0
100
AcDbCircle
 10
103.01844
 20
184.246255
 30
0.0
 40
6.058508999999999
100
AcDbArc
 50
271.6475779999999
 51
311.835508
  0
ARC
  5
15C
330
18
100
AcDbEntity
  8
0
100
AcDbCircle
 10
102.969067
 20
184.222758
 30
0.0
 40
6.074161
100
AcDbArc
 50
312.330334
 51
356.754069
  0
ARC
  5
15D
330
18
100
AcDbEntity
  8
0
100
AcDbCircle
 10
-221.842056
 20
200.147289
 30
0.0
 40
331.275173
100
AcDbArc
 50
357.185391
 51
359.9968539999999
  0
ARC
  5
15E
330
18
100
AcDbEntity
  8
0
100
AcDbCircle
 10
-220.865987
 20
200.138916
 30
0.0
 40
330.299104
100
AcDbArc
 50
359.998297
 51
3.486019
  0
ARC
  5
15F
330
18
100
AcDbEntity
  8
0
100
AcDbCircle
 10
102.034928
 20
218.6977549999999
 30
0.0
 40
6.95662
100
AcDbArc
 50
12.677445
 51
47.135509
  0
ARC
  5
160
330
18
100
AcDbEntity
  8
0
100
AcDbCircle
 10
101.203849
 20
217.780378
 30
0.0
 40
8.194394
100
AcDbArc
 50
47.239758
 51
60.89091599999999
  0
ARC
  5
161
330
18
100
AcDbEntity
  8
0
100
AcDbCircle
 10
102.399129
 20
219.62779
 30
0.0
 40
6.000612999999999
100
AcDbArc
 50
62.281221
 51
91.598024
  0
ARC
  5
162
330
18
100
AcDbEntity
  8
0
100
AcDbCircle
 10
103.053462
 20
212.981481
 30
0.0
 40
3.109229999999999
100
AcDbArc
 50
4.097838999999999
 51
86.68445
  0
ARC
  5
163
330
18
100
AcDbEntity
  8
0
100
AcDbCircle
 10
102.938814
 20
184.2932419999999
 30
0.0
 40
3.109118
100
AcDbArc
 50
273.282497
 51
355.4883299999999
  0
ARC
  5
164
330
18
100
AcDbEntity
  8
0
100
AcDbCircle
 10
-212.862691
 20
199.920077
 30
0.0
 40
319.2957999999999
100
AcDbArc
 50
357.1504229999999
 51
359.996645
  0
ARC
  5
165
330
18
100
AcDbEntity
  8
0
100
AcDbCircle
 10
-212.5123789999999
 20
199.8869769999999
 30
0.0
 40
318.9454879999999
100
AcDbArc
 50
0.002587
 51
2.392488999999999
  0
LINE
  5
166
330
18
100
AcDbEntity
  8
0
100
AcDbLine
 10
74.4316
 20
227.639
 30
0.0
 11
100.432
 21
227.639
 31
0.0
  0
ARC
  5
167
330
18
100
AcDbEntity
  8
0
100
AcDbCircle
 10
74.45003199999999
 20
929.058294
 30
0.0
 40
751.419461
100
AcDbArc
 50
267.804865
 51
272.1999509999999
  0
ARC
  5
168
330
18
100
AcDbEntity
  8
0
100
AcDbCircle
 10
45.84590900000001
 20
184.2474969999999
 30
0.0
 40
6.059759999999999
100
AcDbArc
 50
228.1689099999999
 51
268.3498
  0
ARC
  5
169
330
18
100
AcDbEntity
  8
0
100
AcDbCircle
 10
45.894186
 20
184.222217
 30
0.0
 40
6.073351
100
AcDbArc
 50
183.241268
 51
227.670488
  0
ARC
  5
16A
330
18
100
AcDbEntity
  8
0
100
AcDbCircle
 10
370.2708069999999
 20
200.128778
 30
0.0
 40
330.8396789999999
100
AcDbArc
 50
176.517905
 51
182.815127
  0
ARC
  5
16B
330
18
100
AcDbEntity
  8
0
100
AcDbCircle
 10
46.83144699999999
 20
218.6961799999999
 30
0.0
 40
6.959249999999999
100
AcDbArc
 50
132.8687389999999
 51
167.3141159999999
  0
LINE
  5
16C
330
18
100
AcDbEntity
  8
0
  6
AIGENLINE001
100
AcDbLine
 10
68.4314
 20
204.639
 30
0.0
 11
80.43139999999999
 21
204.639
 31
0.0
  0
ARC
  5
16D
330
18
100
AcDbEntity
  8
0
100
AcDbCircle
 10
74.431328
 20
221.13889
 30
0.0
 40
1.750034
100
AcDbArc
 50
359.9971899999999
 51
89.99715999999999
  0
ARC
  5
16E
330
18
100
AcDbEntity
  8
0
100
AcDbCircle
 10
74.4315
 20
221.13889
 30
0.0
 40
1.750034
100
AcDbArc
 50
90.00282000000002
 51
180.00283
  0
ARC
  5
16F
330
18
100
AcDbEntity
  8
0
100
AcDbCircle
 10
74.431328
 20
221.13889
 30
0.0
 40
1.749861
100
AcDbArc
 50
180.00283
 51
270.0028399999999
  0
ARC
  5
170
330
18
100
AcDbEntity
  8
0
100
AcDbCircle
 10
74.4315
 20
221.138891
 30
0.0
 40
1.749861
100
AcDbArc
 50
269.9972
 51
359.99717
  0
ARC
  5
171
330
18
100
AcDbEntity
  8
0
100
AcDbCircle
 10
45.811368
 20
212.980303
 30
0.0
 40
3.110451999999999
100
AcDbArc
 50
93.32890799999999
 51
175.882008
  0
ARC
  5
172
330
18
100
AcDbEntity
  8
0
100
AcDbCircle
 10
45.926223
 20
184.2942449999999
 30
0.0
 40
3.110197
100
AcDbArc
 50
184.528656
 51
266.6938009999999
  0
ARC
  5
173
330
18
100
AcDbEntity
  8
0
100
AcDbCircle
 10
361.099789
 20
199.900848
 30
0.0
 40
318.6685109999999
100
AcDbArc
 50
177.6079689999999
 51
182.851749
  0
ARC
  5
174
330
18
100
AcDbEntity
  8
0
100
AcDbCircle
 10
74.431414
 20
204.638759
 30
0.0
 40
2.299961
100
AcDbArc
 50
0.00001
 51
89.99998000000001
  0
ARC
  5
175
330
18
100
AcDbEntity
  8
0
100
AcDbCircle
 10
74.431414
 20
204.638759
 30
0.0
 40
2.299961
100
AcDbArc
 50
90.0
 51
179.9999699999999
  0
ARC
  5
176
330
18
100
AcDbEntity
  8
0
100
AcDbCircle
 10
74.431414
 20
204.638759
 30
0.0
 40
2.29996
100
AcDbArc
 50
179.9999699999999
 51
270.00002
  0
ARC
  5
177
330
18
100
AcDbEntity
  8
0
100
AcDbCircle
 10
74.431414
 20
204.63876
 30
0.0
 40
2.299961
100
AcDbArc
 50
270.00002
 51
359.9999899999999
  0
ARC
  5
178
330
18
100
AcDbEntity
  8
0
100
AcDbCircle
 10
74.431413
 20
204.638759
 30
0.0
 40
3.750011
100
AcDbArc
 50
0.00001
 51
89.99998000000001
  0
ARC
  5
179
330
18
100
AcDbEntity
  8
0
100
AcDbCircle
 10
74.431415
 20
204.638759
 30
0.0
 40
3.750011
100
AcDbArc
 50
90.0
 51
179.9999699999999
  0
ARC
  5
17A
330
18
100
AcDbEntity
  8
0
100
AcDbCircle
 10
74.431413
 20
204.638759
 30
0.0
 40
3.750008999999999
100
AcDbArc
 50
179.9999699999999
 51
270.00002
  0
ARC
  5
17B
330
18
100
AcDbEntity
  8
0
100
AcDbCircle
 10
74.431413
 20
204.63876
 30
0.0
 40
3.750011
100
AcDbArc
 50
270.00002
 51
359.9999899999999
  0
LINE
  5
17C
330
18
100
AcDbEntity
  8
0
  6
AIGENLINE001
100
AcDbLine
 10
78.2441
 20
221.139
 30
0.0
 11
70.7775
 21
221.139
 31
0.0
  0
ARC
  5
17D
330
18
100
AcDbEntity
  8
0
100
AcDbCircle
 10
74.43132699999999
 20
204.638845
 30
0.0
 40
4.750041999999999
100
AcDbArc
 50
359.998971
 51
89.998941
  0
ARC
  5
17E
330
18
100
AcDbEntity
  8
0
100
AcDbCircle
 10
74.431501
 20
204.638845
 30
0.0
 40
4.750041999999999
100
AcDbArc
 50
90.001039
 51
180.0010489999999
  0
ARC
  5
17F
330
18
100
AcDbEntity
  8
0
100
AcDbCircle
 10
74.43132699999999
 20
204.638845
 30
0.0
 40
4.749868
100
AcDbArc
 50
180.0010489999999
 51
270.001059
  0
ARC
  5
180
330
18
100
AcDbEntity
  8
0
100
AcDbCircle
 10
74.431499
 20
204.638847
 30
0.0
 40
4.749869999999999
100
AcDbArc
 50
269.998981
 51
359.9989509999999
  0
ARC
  5
181
330
18
100
AcDbEntity
  8
0
100
AcDbCircle
 10
74.431758
 20
-533.1868349999999
 30
0.0
 40
749.825732
100
AcDbArc
 50
87.798584
 51
92.20139600000001
  0
ARC
  5
182
330
18
100
AcDbEntity
  8
0
100
AcDbCircle
 10
74.431758
 20
928.010862
 30
0.0
 40
747.3722719999999
100
AcDbArc
 50
267.800492
 51
272.1995279999999
  0
LINE
  5
183
330
18
100
AcDbEntity
  8
0
  6
AIGENLINE002
100
AcDbLine
 10
88.93159999999999
 20
120.5379999999999
 30
0.0
 11
87.9315
 21
120.5379999999999
 31
0.0
  0
LINE
  5
184
330
18
100
AcDbEntity
  8
0
  6
AIGENLINE002
100
AcDbLine
 10
88.93159999999999
 20
122.038
 30
0.0
 11
87.9315
 21
122.038
 31
0.0
  0
ARC
  5
185
330
18
100
AcDbEntity
  8
0
  6
AIGENLINE002
100
AcDbCircle
 10
88.902564
 20
121.316756
 30
0.0
 40
0.779533
100
AcDbArc
 50
272.132329
 51
357.893994
  0
ARC
  5
186
330
18
100
AcDbEntity
  8
0
  6
AIGENLINE002
100
AcDbCircle
 10
88.903329
 20
121.259512
 30
0.0
 40
0.7787670000000001
100
AcDbArc
 50
2.104419
 51
87.92189599999998
  0
ARC
  5
187
330
18
100
AcDbEntity
  8
0
  6
AIGENLINE002
100
AcDbCircle
 10
87.96040600000001
 20
121.258796
 30
0.0
 40
0.779509
100
AcDbArc
 50
92.128794
 51
177.844851
  0
ARC
  5
188
330
18
100
AcDbEntity
  8
0
  6
AIGENLINE002
100
AcDbCircle
 10
87.960387
 20
121.3166879999999
 30
0.0
 40
0.779462
100
AcDbArc
 50
182.101199
 51
267.872518
  0
LINE
  5
189
330
18
100
AcDbEntity
  8
0
  6
AIGENLINE002
100
AcDbLine
 10
60.9314
 20
120.5379999999999
 30
0.0
 11
59.9313
 21
120.5379999999999
 31
0.0
  0
LINE
  5
18A
330
18
100
AcDbEntity
  8
0
  6
AIGENLINE002
100
AcDbLine
 10
60.9314
 20
122.038
 30
0.0
 11
59.9313
 21
122.038
 31
0.0
  0
ARC
  5
18B
330
18
100
AcDbEntity
  8
0
  6
AIGENLINE002
100
AcDbCircle
 10
60.902373
 20
121.316756
 30
0.0
 40
0.779533
100
AcDbArc
 50
272.132329
 51
357.893994
  0
ARC
  5
18C
330
18
100
AcDbEntity
  8
0
  6
AIGENLINE002
100
AcDbCircle
 10
60.903138
 20
121.259512
 30
0.0
 40
0.7787670000000001
100
AcDbArc
 50
2.104419
 51
87.92189599999998
  0
ARC
  5
18D
330
18
100
AcDbEntity
  8
0
  6
AIGENLINE002
100
AcDbCircle
 10
59.960216
 20
121.258796
 30
0.0
 40
0.779509
100
AcDbArc
 50
92.128794
 51
177.844851
  0
ARC
  5
18E
330
18
100
AcDbEntity
  8
0
  6
AIGENLINE002
100
AcDbCircle
 10
59.960196
 20
121.3166879999999
 30
0.0
 40
0.779462
100
AcDbArc
 50
182.101199
 51
267.872518
  0
LINE
  5
18F
330
18
100
AcDbEntity
  8
0
  6
AIGENLINE002
100
AcDbLine
 10
72.2765
 20
117.2879999999999
 30
0.0
 11
74.43139999999999
 21
117.2879999999999
 31
0.0
  0
LINE
  5
190
330
18
100
AcDbEntity
  8
0
  6
AIGENLINE002
100
AcDbLine
 10
74.43139999999999
 20
117.2879999999999
 30
0.0
 11
76.58629999999999
 21
117.2879999999999
 31
0.0
  0
LINE
  5
191
330
18
100
AcDbEntity
  8
0
100
AcDbLine
 10
54.7474
 20
113.788
 30
0.0
 11
68.2977
 21
113.788
 31
0.0
  0
LINE
  5
192
330
18
100
AcDbEntity
  8
0
100
AcDbLine
 10
68.2977
 20
113.788
 30
0.0
 11
80.56510000000001
 21
113.788
 31
0.0
  0
LINE
  5
193
330
18
100
AcDbEntity
  8
0
  6
AIGENLINE002
100
AcDbLine
 10
74.4252
 20
120.2879999999999
 30
0.0
 11
69.8041
 21
120.2879999999999
 31
0.0
  0
LINE
  5
194
330
18
100
AcDbEntity
  8
0
  6
AIGENLINE002
100
AcDbLine
 10
79.04609999999999
 20
120.2879999999999
 30
0.0
 11
74.4252
 21
120.2879999999999
 31
0.0
  0
LINE
  5
195
330
18
100
AcDbEntity
  8
0
100
AcDbLine
 10
109.132
 20
126.7879999999999
 30
0.0
 11
106.6689999999999
 21
126.7879999999999
 31
0.0
  0
LINE
  5
196
330
18
100
AcDbEntity
  8
0
100
AcDbLine
 10
106.6689999999999
 20
126.7879999999999
 30
0.0
 11
42.1946
 21
126.7879999999999
 31
0.0
  0
LINE
  5
197
330
18
100
AcDbEntity
  8
0
  6
AIGENLINE002
100
AcDbLine
 10
80.45140000000001
 20
120.5049999999999
 30
0.0
 11
79.51309999999999
 21
120.361
 31
0.0
  0
LINE
  5
198
330
18
100
AcDbEntity
  8
0
  6
AIGENLINE002
100
AcDbLine
 10
82.2963
 20
121.103
 30
0.0
 11
83.5923
 21
121.772
 31
0.0
  0
ARC
  5
199
330
18
100
AcDbEntity
  8
0
  6
AIGENLINE002
100
AcDbCircle
 10
79.53862499999999
 20
126.458077
 30
0.0
 40
6.02293
100
AcDbArc
 50
278.7152249999999
 51
297.2471399999999
  0
LINE
  5
19A
330
18
100
AcDbEntity
  8
0
  6
AIGENLINE002
100
AcDbLine
 10
106.013
 20
126.2829999999999
 30
0.0
 11
106.285
 21
126.6089999999999
 31
0.0
  0
LINE
  5
19B
330
18
100
AcDbEntity
  8
0
  6
AIGENLINE002
100
AcDbLine
 10
104.5129999999999
 20
125.4459999999999
 30
0.0
 11
87.38660000000001
 21
122.985
 31
0.0
  0
ARC
  5
19C
330
18
100
AcDbEntity
  8
0
  6
AIGENLINE002
100
AcDbCircle
 10
104.1577189999999
 20
127.8464339999999
 30
0.0
 40
2.426140999999999
100
AcDbArc
 50
278.407598
 51
319.8735049999999
  0
ARC
  5
19D
330
18
100
AcDbEntity
  8
0
  6
AIGENLINE002
100
AcDbCircle
 10
89.10495899999999
 20
111.066845
 30
0.0
 40
12.041517
100
AcDbArc
 50
98.202587
 51
117.244446
  0
LINE
  5
19E
330
18
100
AcDbEntity
  8
0
  6
AIGENLINE002
100
AcDbLine
 10
77.9315
 20
116.788
 30
0.0
 11
78.8851
 21
117.439
 31
0.0
  0
LINE
  5
19F
330
18
100
AcDbEntity
  8
0
  6
AIGENLINE002
100
AcDbLine
 10
79.64109999999999
 20
118.195
 30
0.0
 11
78.8851
 21
117.439
 31
0.0
  0
ARC
  5
1A0
330
18
100
AcDbEntity
  8
0
  6
AIGENLINE002
100
AcDbCircle
 10
106.672233
 20
126.279775
 30
0.0
 40
0.5081310000000001
100
AcDbArc
 50
90.39224099999998
 51
139.6527819999999
  0
LINE
  5
1A1
330
18
100
AcDbEntity
  8
0
  6
AIGENLINE002
100
AcDbLine
 10
78.6817
 20
118.788
 30
0.0
 11
79.0741
 21
119.966
 31
0.0
  0
ARC
  5
1A2
330
18
100
AcDbEntity
  8
0
  6
AIGENLINE002
100
AcDbCircle
 10
79.65142800000001
 20
119.766359
 30
0.0
 40
0.610874
100
AcDbArc
 50
103.0844199999999
 51
160.93715
  0
LINE
  5
1A3
330
18
100
AcDbEntity
  8
0
  6
AIGENLINE002
100
AcDbLine
 10
77.9315
 20
113.788
 30
0.0
 11
77.9315
 21
116.788
 31
0.0
  0
LINE
  5
1A4
330
18
100
AcDbEntity
  8
0
  6
AIGENLINE002
100
AcDbLine
 10
78.6817
 20
118.788
 30
0.0
 11
78.18139999999999
 21
118.2879999999999
 31
0.0
  0
LINE
  5
1A5
330
18
100
AcDbEntity
  8
0
  6
AIGENLINE002
100
AcDbLine
 10
76.7314
 20
117.2879999999999
 30
0.0
 11
78.18139999999999
 21
118.2879999999999
 31
0.0
  0
LINE
  5
1A6
330
18
100
AcDbEntity
  8
0
  6
AIGENLINE002
100
AcDbLine
 10
76.7314
 20
113.788
 30
0.0
 11
76.7314
 21
117.2879999999999
 31
0.0
  0
LINE
  5
1A7
330
18
100
AcDbEntity
  8
0
100
AcDbLine
 10
69.38590000000001
 20
111.1589999999999
 30
0.0
 11
68.78060000000001
 21
113.417
 31
0.0
  0
ARC
  5
1A8
330
18
100
AcDbEntity
  8
0
100
AcDbCircle
 10
68.28617699999999
 20
113.27325
 30
0.0
 40
0.514968
100
AcDbArc
 50
16.254758
 51
88.714811
  0
LINE
  5
1A9
330
18
100
AcDbEntity
  8
0
100
AcDbLine
 10
74.43139999999999
 20
110.7879999999999
 30
0.0
 11
69.86889999999999
 21
110.7879999999999
 31
0.0
  0
ARC
  5
1AA
330
18
100
AcDbEntity
  8
0
100
AcDbCircle
 10
69.879776
 20
111.3023059999999
 30
0.0
 40
0.514341
100
AcDbArc
 50
196.20398
 51
268.785371
  0
LINE
  5
1AB
330
18
100
AcDbEntity
  8
0
100
AcDbLine
 10
80.56510000000001
 20
113.788
 30
0.0
 11
94.1154
 21
113.788
 31
0.0
  0
LINE
  5
1AC
330
18
100
AcDbEntity
  8
0
100
AcDbLine
 10
79.47700000000001
 20
111.1589999999999
 30
0.0
 11
80.0821
 21
113.417
 31
0.0
  0
ARC
  5
1AD
330
18
100
AcDbEntity
  8
0
100
AcDbCircle
 10
80.57628499999999
 20
113.273498
 30
0.0
 40
0.514713
100
AcDbArc
 50
91.24503799999997
 51
163.7656109999999
  0
LINE
  5
1AE
330
18
100
AcDbEntity
  8
0
100
AcDbLine
 10
74.43139999999999
 20
110.7879999999999
 30
0.0
 11
78.99399999999999
 21
110.7879999999999
 31
0.0
  0
ARC
  5
1AF
330
18
100
AcDbEntity
  8
0
100
AcDbCircle
 10
78.98303199999999
 20
111.302332
 30
0.0
 40
0.5143670000000001
100
AcDbArc
 50
271.2167839999999
 51
343.793905
  0
LINE
  5
1B0
330
18
100
AcDbEntity
  8
0
  6
AIGENLINE002
100
AcDbLine
 10
68.4114
 20
120.5049999999999
 30
0.0
 11
69.34969999999999
 21
120.361
 31
0.0
  0
LINE
  5
1B1
330
18
100
AcDbEntity
  8
0
  6
AIGENLINE002
100
AcDbLine
 10
66.56659999999999
 20
121.103
 30
0.0
 11
65.2705
 21
121.772
 31
0.0
  0
ARC
  5
1B2
330
18
100
AcDbEntity
  8
0
  6
AIGENLINE002
100
AcDbCircle
 10
69.319888
 20
126.4447829999999
 30
0.0
 40
6.009135999999999
100
AcDbArc
 50
242.731421
 51
261.3062529999999
  0
LINE
  5
1B3
330
18
100
AcDbEntity
  8
0
  6
AIGENLINE002
100
AcDbLine
 10
42.8507
 20
126.2829999999999
 30
0.0
 11
42.5784
 21
126.6089999999999
 31
0.0
  0
LINE
  5
1B4
330
18
100
AcDbEntity
  8
0
  6
AIGENLINE002
100
AcDbLine
 10
44.3511
 20
125.4459999999999
 30
0.0
 11
61.47619999999999
 21
122.985
 31
0.0
  0
ARC
  5
1B5
330
18
100
AcDbEntity
  8
0
  6
AIGENLINE002
100
AcDbCircle
 10
44.704757
 20
127.8445679999999
 30
0.0
 40
2.424144
100
AcDbArc
 50
220.108641
 51
261.610295
  0
ARC
  5
1B6
330
18
100
AcDbEntity
  8
0
  6
AIGENLINE002
100
AcDbCircle
 10
59.75898100000001
 20
111.070324
 30
0.0
 40
12.037915
100
AcDbArc
 50
62.752658
 51
81.80026899999999
  0
LINE
  5
1B7
330
18
100
AcDbEntity
  8
0
  6
AIGENLINE002
100
AcDbLine
 10
70.93129999999999
 20
116.788
 30
0.0
 11
69.9777
 21
117.439
 31
0.0
  0
LINE
  5
1B8
330
18
100
AcDbEntity
  8
0
  6
AIGENLINE002
100
AcDbLine
 10
69.2217
 20
118.195
 30
0.0
 11
69.9777
 21
117.439
 31
0.0
  0
LINE
  5
1B9
330
18
100
AcDbEntity
  8
0
100
AcDbLine
 10
42.1946
 20
126.7879999999999
 30
0.0
 11
39.7312
 21
126.7879999999999
 31
0.0
  0
ARC
  5
1BA
330
18
100
AcDbEntity
  8
0
  6
AIGENLINE002
100
AcDbCircle
 10
42.191625
 20
126.280876
 30
0.0
 40
0.507028
100
AcDbArc
 50
40.290004
 51
89.66493299999999
  0
LINE
  5
1BB
330
18
100
AcDbEntity
  8
0
  6
AIGENLINE002
100
AcDbLine
 10
70.18129999999999
 20
118.788
 30
0.0
 11
69.7888
 21
119.966
 31
0.0
  0
ARC
  5
1BC
330
18
100
AcDbEntity
  8
0
  6
AIGENLINE002
100
AcDbCircle
 10
69.21119
 20
119.766126
 30
0.0
 40
0.611148
100
AcDbArc
 50
19.077038
 51
76.901353
  0
LINE
  5
1BD
330
18
100
AcDbEntity
  8
0
  6
AIGENLINE002
100
AcDbLine
 10
70.93129999999999
 20
113.788
 30
0.0
 11
70.93129999999999
 21
116.788
 31
0.0
  0
LINE
  5
1BE
330
18
100
AcDbEntity
  8
0
  6
AIGENLINE002
100
AcDbLine
 10
70.18129999999999
 20
118.788
 30
0.0
 11
70.68139999999999
 21
118.2879999999999
 31
0.0
  0
LINE
  5
1BF
330
18
100
AcDbEntity
  8
0
  6
AIGENLINE002
100
AcDbLine
 10
72.1315
 20
117.2879999999999
 30
0.0
 11
70.68139999999999
 21
118.2879999999999
 31
0.0
  0
LINE
  5
1C0
330
18
100
AcDbEntity
  8
0
  6
AIGENLINE002
100
AcDbLine
 10
72.1315
 20
113.788
 30
0.0
 11
72.1315
 21
117.2879999999999
 31
0.0
  0
ARC
  5
1C1
330
18
100
AcDbEntity
  8
0
100
AcDbCircle
 10
102.5567969999999
 20
124.3624449999999
 30
0.0
 40
3.058335
100
AcDbArc
 50
276.413418
 51
289.584269
  0
ARC
  5
1C2
330
18
100
AcDbEntity
  8
0
100
AcDbCircle
 10
105.533732
 20
97.447019
 30
0.0
 40
24.021225
100
AcDbArc
 50
96.298457
 51
105.117123
  0
ARC
  5
1C3
330
18
100
AcDbEntity
  8
0
100
AcDbCircle
 10
115.874546
 20
103.775856
 30
0.0
 40
23.665332
100
AcDbArc
 50
134.562754
 51
154.2138449999999
  0
ARC
  5
1C4
330
18
100
AcDbEntity
  8
0
100
AcDbCircle
 10
94.10831400000001
 20
114.292596
 30
0.0
 40
0.5084300000000001
100
AcDbArc
 50
315.171843
 51
334.109449
  0
ARC
  5
1C5
330
18
100
AcDbEntity
  8
0
100
AcDbCircle
 10
94.113176
 20
114.294259
 30
0.0
 40
0.506175
100
AcDbArc
 50
270.25585
 51
314.650412
  0
ARC
  5
1C6
330
18
100
AcDbEntity
  8
0
100
AcDbCircle
 10
54.74581
 20
114.28438
 30
0.0
 40
0.496294
100
AcDbArc
 50
250.814636
 51
270.202495
  0
ARC
  5
1C7
330
18
100
AcDbEntity
  8
0
100
AcDbCircle
 10
54.753142
 20
114.2940179999999
 30
0.0
 40
0.5078199999999999
100
AcDbArc
 50
206.102452
 51
250.390714
  0
ARC
  5
1C8
330
18
100
AcDbEntity
  8
0
100
AcDbCircle
 10
32.98595999999999
 20
103.774193
 30
0.0
 40
23.668145
100
AcDbArc
 50
25.78731499999999
 51
45.436047
  0
ARC
  5
1C9
330
18
100
AcDbEntity
  8
0
100
AcDbCircle
 10
43.33857199999999
 20
97.497289
 30
0.0
 40
23.970314
100
AcDbArc
 50
74.87259300000001
 51
83.70880900000001
  0
ARC
  5
1CA
330
18
100
AcDbEntity
  8
0
100
AcDbCircle
 10
46.30766099999999
 20
124.366524
 30
0.0
 40
3.062492999999999
100
AcDbArc
 50
250.4247319999999
 51
263.577621
  0
ARC
  5
1CB
330
18
100
AcDbEntity
  8
0
100
AcDbCircle
 10
49.145946
 20
132.14868
 30
0.0
 40
11.34541799999999
100
AcDbArc
 50
211.1002549999999
 51
250.0850709999999
  0
LINE
  5
1CC
330
18
100
AcDbEntity
  8
0
100
AcDbLine
 10
39.4313
 20
126.488
 30
0.0
 11
39.4313
 21
126.288
 31
0.0
  0
ARC
  5
1CD
330
18
100
AcDbEntity
  8
0
100
AcDbCircle
 10
39.735993
 20
126.4863149999999
 30
0.0
 40
0.304737
100
AcDbArc
 50
135.373268
 51
179.651399
  0
ARC
  5
1CE
330
18
100
AcDbEntity
  8
0
100
AcDbCircle
 10
39.732625
 20
126.4836709999999
 30
0.0
 40
0.304227
100
AcDbArc
 50
90.27599300000002
 51
134.5731809999999
  0
ARC
  5
1CF
330
18
100
AcDbEntity
  8
0
100
AcDbCircle
 10
109.131426
 20
126.485385
 30
0.0
 40
0.302511
100
AcDbArc
 50
45.29433400000001
 51
89.82360400000001
  0
ARC
  5
1D0
330
18
100
AcDbEntity
  8
0
100
AcDbCircle
 10
109.1294299999999
 20
126.486684
 30
0.0
 40
0.303001
100
AcDbArc
 50
0.280804
 51
44.85320999999999
  0
LINE
  5
1D1
330
18
100
AcDbEntity
  8
0
100
AcDbLine
 10
109.4319999999999
 20
126.288
 30
0.0
 11
109.4319999999999
 21
126.488
 31
0.0
  0
ARC
  5
1D2
330
18
100
AcDbEntity
  8
0
100
AcDbCircle
 10
99.714985
 20
132.1516249999999
 30
0.0
 40
11.349657
100
AcDbArc
 50
289.920156
 51
328.891249
  0
ARC
  5
1D3
330
18
100
AcDbEntity
  8
0
100
AcDbCircle
 10
105.6139759999999
 20
97.326546
 30
0.0
 40
24.158591
100
AcDbArc
 50
105.2271219999999
 51
137.049467
  0
ARC
  5
1D4
330
18
100
AcDbEntity
  8
0
100
AcDbCircle
 10
46.211948
 20
130.8722449999999
 30
0.0
 40
51.15666599999999
100
AcDbArc
 50
340.693756
 51
347.197761
  0
ARC
  5
1D5
330
18
100
AcDbEntity
  8
0
100
AcDbCircle
 10
102.492068
 20
130.8265439999999
 30
0.0
 40
50.991677
100
AcDbArc
 50
192.791725
 51
199.316797
  0
LINE
  5
1D6
330
18
100
AcDbEntity
  8
0
  6
AIGENLINE001
100
AcDbLine
 10
90.18159999999999
 20
121.2879999999999
 30
0.0
 11
86.68139999999999
 21
121.2879999999999
 31
0.0
  0
LINE
  5
1D7
330
18
100
AcDbEntity
  8
0
  6
AIGENLINE001
100
AcDbLine
 10
88.43149999999999
 20
119.5379999999999
 30
0.0
 11
88.43149999999999
 21
123.038
 31
0.0
  0
LINE
  5
1D8
330
18
100
AcDbEntity
  8
0
  6
AIGENLINE001
100
AcDbLine
 10
58.6812
 20
121.2879999999999
 30
0.0
 11
62.1814
 21
121.2879999999999
 31
0.0
  0
LINE
  5
1D9
330
18
100
AcDbEntity
  8
0
  6
AIGENLINE001
100
AcDbLine
 10
60.4313
 20
119.5379999999999
 30
0.0
 11
60.4313
 21
123.038
 31
0.0
  0
LINE
  5
1DA
330
18
100
AcDbEntity
  8
0
  6
AIGENLINE001
100
AcDbLine
 10
74.43139999999999
 20
109.5199999999999
 30
0.0
 11
74.43139999999999
 21
129.552
 31
0.0
  0
ARC
  5
1DB
330
18
100
AcDbEntity
  8
0
100
AcDbCircle
 10
43.25285599999999
 20
97.33208799999999
 30
0.0
 40
24.152101
100
AcDbArc
 50
42.949115
 51
74.779358
  0
TEXT
  5
1DC
330
18
100
AcDbEntity
  8
_________2
100
AcDbText
 10
24.4764
 20
39.068
 30
0.0
 40
3.9357
  1
※壁取付部には厚さ30mm以上の補強木を入れてください。
 41
0.5
100
AcDbText
  0
LINE
  5
1DD
330
18
100
AcDbEntity
  8
_________2
100
AcDbLine
 10
205.301
 20
127.411
 30
0.0
 11
183.55
 21
127.411
 31
0.0
  0
LINE
  5
1DE
330
18
100
AcDbEntity
  8
_________2
100
AcDbLine
 10
100.2999999999999
 20
-4.09108
 30
0.0
 11
100.2999999999999
 21
-21.0714
 31
0.0
  0
LINE
  5
1DF
330
18
100
AcDbEntity
  8
_________2
100
AcDbLine
 10
100.2999999999999
 20
275.9309999999999
 30
0.0
 11
100.2999999999999
 21
258.911
 31
0.0
  0
LINE
  5
1E0
330
18
100
AcDbEntity
  8
_________2
100
AcDbLine
 10
17.0495
 20
127.411
 30
0.0
 11
-4.70052
 21
127.411
 31
0.0
  0
LINE
  5
1E1
330
18
100
AcDbEntity
  8
_________2
100
AcDbLine
 10
76.741
 20
29.8047
 30
0.0
 11
74.5547
 21
29.8047
 31
0.0
  0
LINE
  5
1E2
330
18
100
AcDbEntity
  8
_________2
100
AcDbLine
 10
77.2337
 20
29.8047
 30
0.0
 11
76.9815
 21
29.8047
 31
0.0
  0
LINE
  5
1E3
330
18
100
AcDbEntity
  8
_________2
100
AcDbLine
 10
77.72629999999999
 20
29.8047
 30
0.0
 11
80.6512
 21
29.8047
 31
0.0
  0
LINE
  5
1E4
330
18
100
AcDbEntity
  8
_________2
100
AcDbLine
 10
77.2337
 20
29.8047
 30
0.0
 11
77.4855
 21
29.8047
 31
0.0
  0
LINE
  5
1E5
330
18
100
AcDbEntity
  8
_________2
100
AcDbLine
 10
70.8371
 20
29.8047
 30
0.0
 11
68.6505
 21
29.8047
 31
0.0
  0
LINE
  5
1E6
330
18
100
AcDbEntity
  8
_________2
100
AcDbLine
 10
71.32940000000001
 20
29.8047
 30
0.0
 11
71.0776
 21
29.8047
 31
0.0
  0
LINE
  5
1E7
330
18
100
AcDbEntity
  8
_________2
100
AcDbLine
 10
71.32940000000001
 20
30.2974
 30
0.0
 11
71.32940000000001
 21
32.4844
 31
0.0
  0
LINE
  5
1E8
330
18
100
AcDbEntity
  8
_________2
100
AcDbLine
 10
71.32940000000001
 20
29.8047
 30
0.0
 11
71.32940000000001
 21
30.05689999999999
 31
0.0
  0
LINE
  5
1E9
330
18
100
AcDbEntity
  8
_________2
100
AcDbLine
 10
71.82210000000001
 20
29.8047
 30
0.0
 11
74.009
 21
29.8047
 31
0.0
  0
LINE
  5
1EA
330
18
100
AcDbEntity
  8
_________2
100
AcDbLine
 10
71.32940000000001
 20
29.8047
 30
0.0
 11
71.58159999999999
 21
29.8047
 31
0.0
  0
LINE
  5
1EB
330
18
100
AcDbEntity
  8
_________2
100
AcDbLine
 10
71.32940000000001
 20
29.3128
 30
0.0
 11
71.32940000000001
 21
27.1258
 31
0.0
  0
LINE
  5
1EC
330
18
100
AcDbEntity
  8
_________2
100
AcDbLine
 10
71.32940000000001
 20
29.8047
 30
0.0
 11
71.32940000000001
 21
29.5532
 31
0.0
  0
LINE
  5
1ED
330
18
100
AcDbEntity
  8
_________2
100
AcDbLine
 10
75.04049999999999
 20
28.5852
 30
0.0
 11
80.2185
 21
27.7204
 31
0.0
  0
LINE
  5
1EE
330
18
100
AcDbEntity
  8
_________2
100
AcDbLine
 10
75.04049999999999
 20
31.0243
 30
0.0
 11
80.2185
 21
31.8897
 31
0.0
  0
LINE
  5
1EF
330
18
100
AcDbEntity
  8
_________2
100
AcDbLine
 10
80.2185
 20
27.7204
 30
0.0
 11
80.2185
 21
31.8897
 31
0.0
  0
LINE
  5
1F0
330
18
100
AcDbEntity
  8
_________2
100
AcDbLine
 10
75.04049999999999
 20
28.5852
 30
0.0
 11
75.04049999999999
 21
31.0243
 31
0.0
  0
ARC
  5
1F1
330
18
100
AcDbEntity
  8
_________2
100
AcDbCircle
 10
71.28285600000001
 20
29.757811
 30
0.0
 40
1.267359
100
AcDbArc
 50
2.122214
 51
87.893959
  0
ARC
  5
1F2
330
18
100
AcDbEntity
  8
_________2
100
AcDbCircle
 10
71.37595999999999
 20
29.758213
 30
0.0
 40
1.266955999999999
100
AcDbArc
 50
92.104701
 51
177.8952689999999
  0
ARC
  5
1F3
330
18
100
AcDbEntity
  8
_________2
100
AcDbCircle
 10
71.37635799999999
 20
29.851671
 30
0.0
 40
1.267368
100
AcDbArc
 50
182.122036
 51
267.877993
  0
ARC
  5
1F4
330
18
100
AcDbEntity
  8
_________2
100
AcDbCircle
 10
71.28253199999999
 20
29.85199899999999
 30
0.0
 40
1.267695999999999
100
AcDbArc
 50
272.120153
 51
357.863674
  0
ARC
  5
1F5
330
18
100
AcDbEntity
  8
_________2
100
AcDbCircle
 10
71.32943
 20
29.804743
 30
0.0
 40
2.084984999999999
100
AcDbArc
 50
0.00001
 51
89.99998000000001
  0
ARC
  5
1F6
330
18
100
AcDbEntity
  8
_________2
100
AcDbCircle
 10
71.329603
 20
29.804915
 30
0.0
 40
2.084813
100
AcDbArc
 50
90.004734
 51
180.004744
  0
ARC
  5
1F7
330
18
100
AcDbEntity
  8
_________2
100
AcDbCircle
 10
71.40910600000001
 20
29.884776
 30
0.0
 40
2.165795
100
AcDbArc
 50
182.117766
 51
267.891734
  0
ARC
  5
1F8
330
18
100
AcDbEntity
  8
_________2
100
AcDbCircle
 10
71.249459
 20
29.88542999999999
 30
0.0
 40
2.166459
100
AcDbArc
 50
272.115468
 51
357.865604
  0
TEXT
  5
1F9
330
18
100
AcDbEntity
  8
_________2
100
AcDbText
 10
104.605
 20
1.67949
 30
0.0
 40
3.09234
  1
図番
 41
0.5
100
AcDbText
  0
LINE
  5
1FA
330
18
100
AcDbEntity
  8
_________2
100
AcDbLine
 10
103.55
 20
5.908719999999999
 30
0.0
 11
183.551
 21
5.908719999999999
 31
0.0
  0
TEXT
  5
1FB
330
18
100
AcDbEntity
  8
_________2
100
AcDbText
 10
104.605
 20
11.67929999999999
 30
0.0
 40
3.09234
  1
品番
 41
0.5
100
AcDbText
  0
TEXT
  5
1FC
330
18
100
AcDbEntity
  8
_________2
100
AcDbText
 10
104.605
 20
31.8181
 30
0.0
 40
3.09234
  1
名称
 41
0.5
100
AcDbText
  0
TEXT
  5
1FD
330
18
100
AcDbEntity
  8
_________2
100
AcDbText
 10
91.84505833333334
 20
26.82199999999999
 30
0.0
 40
3.65458
  1
mm
 41
0.5
 72
     1
 11
93.3678
 21
26.82199999999999
 31
0.0
100
AcDbText
  0
TEXT
  5
1FE
330
18
100
AcDbEntity
  8
_________2
100
AcDbText
 10
85.6432
 20
31.8181
 30
0.0
 40
3.09234
  1
単位
 41
0.5
100
AcDbText
  0
TEXT
  5
1FF
330
18
100
AcDbEntity
  8
_________2
100
AcDbText
 10
85.6432
 20
19.41079999999999
 30
0.0
 40
3.09234
  1
尺度
 41
0.5
100
AcDbText
  0
TEXT
  5
200
330
18
100
AcDbEntity
  8
_________2
100
AcDbText
 10
90.09193616666667
 20
13.2179
 30
0.0
 40
3.65458
  1
1 ： 10
 41
0.5
 72
     1
 11
93.9597
 21
13.2179
 31
0.0
100
AcDbText
  0
TEXT
  5
201
330
18
100
AcDbEntity
  8
_________2
100
AcDbText
 10
133.5467624999999
 20
9.10786
 30
0.0
 40
3.9357
  1
DV270070-00
 41
0.5
 72
     1
 11
143.55
 21
9.10786
 31
0.0
100
AcDbText
  0
TEXT
  5
202
330
18
100
AcDbEntity
  8
_________2
100
AcDbText
 10
136.1705625
 20
-0.8926299999999999
 30
0.0
 40
3.9357
  1
DV270070
 41
0.5
 72
     1
 11
143.55
 21
-0.8926299999999999
 31
0.0
100
AcDbText
  0
TEXT
  5
203
330
18
100
AcDbEntity
  8
_________2
100
AcDbText
 10
24.5868
 20
0.707283
 30
0.0
 40
3.9357
  1
重量18kg、オーバーフローなし
 41
0.5
100
AcDbText
  0
TEXT
  5
204
330
18
100
AcDbEntity
  8
_________2
100
AcDbText
 10
109.179
 20
24.2257
 30
0.0
 40
3.9357
  1
プラビダ　壁付洗面器
 41
0.5
100
AcDbText
  0
TEXT
  5
205
330
18
100
AcDbEntity
  8
_________2
100
AcDbText
 10
39.30348099999999
 20
13.603
 30
0.0
 40
3.65458
  1
田尻
 41
0.5
 72
     1
 11
41.3135
 21
13.603
 31
0.0
100
AcDbText
  0
TEXT
  5
206
330
18
100
AcDbEntity
  8
_________2
100
AcDbText
 10
20.79009066666666
 20
13.603
 30
0.0
 40
3.65458
  1
石原
 41
0.5
 72
     1
 11
22.73919999999999
 21
13.603
 31
0.0
100
AcDbText
  0
TEXT
  5
207
330
18
100
AcDbEntity
  8
_________2
100
AcDbText
 10
67.78539999999999
 20
13.2179
 30
0.0
 40
3.65458
  1
09.10.26
 41
0.5
100
AcDbText
  0
TEXT
  5
208
330
18
100
AcDbEntity
  8
_________2
100
AcDbText
 10
66.59310000000001
 20
19.41079999999999
 30
0.0
 40
3.09234
  1
日付
 41
0.5
100
AcDbText
  0
TEXT
  5
209
330
18
100
AcDbEntity
  8
_________2
100
AcDbText
 10
29.6394
 20
19.41079999999999
 30
0.0
 40
3.09234
  1
検図
 41
0.5
100
AcDbText
  0
TEXT
  5
20A
330
18
100
AcDbEntity
  8
_________2
100
AcDbText
 10
18.0211
 20
5.21143
 30
0.0
 40
3.09234
  1
備考
 41
0.5
100
AcDbText
  0
TEXT
  5
20B
330
18
100
AcDbEntity
  8
_________2
100
AcDbText
 10
18.0211
 20
19.41079999999999
 30
0.0
 40
3.09234
  1
製図
 41
0.5
100
AcDbText
  0
TEXT
  5
20C
330
18
100
AcDbEntity
  8
_________2
100
AcDbText
 10
23.863431
 20
27.9368
 30
0.0
 40
4.497939999999999
  1
セラトレーディング株式会社
 41
0.5
 72
     1
 11
41.1805
 21
27.9368
 31
0.0
100
AcDbText
  0
LINE
  5
20D
330
18
100
AcDbEntity
  8
_________2
100
AcDbLine
 10
183.551
 20
-4.09108
 30
0.0
 11
17.0495
 21
-4.09108
 31
0.0
  0
LINE
  5
20E
330
18
100
AcDbEntity
  8
_________2
100
AcDbLine
 10
17.0495
 20
-4.09108
 30
0.0
 11
17.0495
 21
258.911
 31
0.0
  0
LINE
  5
20F
330
18
100
AcDbEntity
  8
_________2
100
AcDbLine
 10
17.0495
 20
258.911
 30
0.0
 11
183.551
 21
258.911
 31
0.0
  0
LINE
  5
210
330
18
100
AcDbEntity
  8
_________2
100
AcDbLine
 10
183.551
 20
258.911
 30
0.0
 11
183.551
 21
-4.09108
 31
0.0
  0
LINE
  5
211
330
18
100
AcDbEntity
  8
_________2
100
AcDbLine
 10
65.5496
 20
9.40896
 30
0.0
 11
65.5496
 21
35.9088
 31
0.0
  0
LINE
  5
212
330
18
100
AcDbEntity
  8
_________2
100
AcDbLine
 10
84.54970000000001
 20
9.40896
 30
0.0
 11
84.54970000000001
 21
35.9088
 31
0.0
  0
LINE
  5
213
330
18
100
AcDbEntity
  8
_________2
100
AcDbLine
 10
103.55
 20
-4.09108
 30
0.0
 11
103.55
 21
35.9088
 31
0.0
  0
LINE
  5
214
330
18
100
AcDbEntity
  8
_________2
100
AcDbLine
 10
28.54929999999999
 20
9.40896
 30
0.0
 11
28.54929999999999
 21
23.4092
 31
0.0
  0
LINE
  5
215
330
18
100
AcDbEntity
  8
_________2
100
AcDbLine
 10
17.0495
 20
9.40896
 30
0.0
 11
103.55
 21
9.40896
 31
0.0
  0
LINE
  5
216
330
18
100
AcDbEntity
  8
_________2
100
AcDbLine
 10
17.0495
 20
23.4092
 30
0.0
 11
103.55
 21
23.4092
 31
0.0
  0
LINE
  5
217
330
18
100
AcDbEntity
  8
_________2
100
AcDbLine
 10
103.55
 20
15.9085
 30
0.0
 11
183.551
 21
15.9085
 31
0.0
  0
LINE
  5
218
330
18
100
AcDbEntity
  8
_________2
100
AcDbLine
 10
17.0495
 20
35.9088
 30
0.0
 11
183.551
 21
35.9088
 31
0.0
  0
ENDSEC
  0
SECTION
  2
OBJECTS
  0
DICTIONARY
  5
C
330
0
100
AcDbDictionary
281
     1
  3
ACAD_GROUP
350
D
  3
ACAD_LAYOUT
350
21E
  3
ACAD_MLINESTYLE
350
1B
  3
ACAD_PLOTSETTINGS
350
21F
  3
ACAD_PLOTSTYLENAME
350
21C
  0
DICTIONARY
  5
D
102
{ACAD_REACTORS
330
C
102
}
330
C
100
AcDbDictionary
281
     1
  0
DICTIONARY
  5
21E
102
{ACAD_REACTORS
330
C
102
}
330
C
100
AcDbDictionary
281
     1
  3
Model
350
220
  3
ﾚｲｱｳﾄ1
350
221
  0
DICTIONARY
  5
1B
102
{ACAD_REACTORS
330
C
102
}
330
C
100
AcDbDictionary
281
     1
  3
STANDARD
350
1C
  0
DICTIONARY
  5
21F
102
{ACAD_REACTORS
330
C
102
}
330
C
100
AcDbDictionary
281
     1
  0
ACDBDICTIONARYWDFLT
  5
21C
102
{ACAD_REACTORS
330
C
102
}
330
C
100
AcDbDictionary
281
     1
  3
Normal
350
21D
100
AcDbDictionaryWithDefault
340
21D
  0
LAYOUT
  5
220
102
{ACAD_REACTORS
330
21E
102
}
330
21E
100
AcDbPlotSettings
  1

  2
DocuPrint2060
  4

  6

 40
0.0
 41
0.0
 42
0.0
 43
0.0
 44
0.0
 45
0.0
 46
0.0
 47
0.0
 48
0.0
 49
0.0
140
0.0
141
0.0
142
1.0
143
1.0
 70
  1712
 72
     0
 73
     0
 74
     0
  7

 75
     0
147
1.0
148
0.0
149
0.0
100
AcDbLayout
  1
Model
 70
     1
 71
     0
 10
0.0
 20
0.0
 11
12.0
 21
9.0
 12
0.0
 22
0.0
 32
0.0
 14
0.0
 24
0.0
 34
0.0
 15
0.0
 25
0.0
 35
0.0
146
0.0
 13
0.0
 23
0.0
 33
0.0
 16
1.0
 26
0.0
 36
0.0
 17
0.0
 27
1.0
 37
0.0
 76
     0
330
18
  0
LAYOUT
  5
221
102
{ACAD_REACTORS
330
21E
102
}
330
21E
100
AcDbPlotSettings
  1

  2
DocuPrint2060
  4

  6

 40
0.0
 41
0.0
 42
0.0
 43
0.0
 44
0.0
 45
0.0
 46
0.0
 47
0.0
 48
0.0
 49
0.0
140
0.0
141
0.0
142
1.0
143
1.0
 70
   688
 72
     0
 73
     0
 74
     5
  7

 75
    16
147
1.0
148
0.0
149
0.0
100
AcDbLayout
  1
ﾚｲｱｳﾄ1
 70
     1
 71
     1
 10
0.0
 20
0.0
 11
12.0
 21
9.0
 12
0.0
 22
0.0
 32
0.0
 14
1.000000000000000E+20
 24
1.000000000000000E+20
 34
1.000000000000000E+20
 15
-1.000000000000000E+20
 25
-1.000000000000000E+20
 35
-1.000000000000000E+20
146
0.0
 13
0.0
 23
0.0
 33
0.0
 16
1.0
 26
0.0
 36
0.0
 17
0.0
 27
1.0
 37
0.0
 76
     0
330
15
  0
MLINESTYLE
  5
1C
102
{ACAD_REACTORS
330
1B
102
}
330
1B
100
AcDbMlineStyle
  2
STANDARD
 70
     0
  3

 62
   256
 51
90.0
 52
90.0
 71
     2
 49
0.5
 62
   256
  6
BYLAYER
 49
-0.5
 62
   256
  6
BYLAYER
  0
ACDBPLACEHOLDER
  5
21D
102
{ACAD_REACTORS
330
21C
102
}
330
21C
  0
ENDSEC
  0
EOF
