  0
SECTION
  2
HEADER
  9
$ACADVER
  1
AC1009
  9
$INSBASE
 10
0.0
 20
0.0
 30
0.0
  9
$EXTMIN
 10
0.238402
 20
0.447865
 30
0.0
  9
$EXTMAX
 10
210.24000000000001
 20
297.44999999999999
 30
0.0
  9
$LIMMIN
 10
0.0
 20
0.0
  9
$LIMMAX
 10
12.0
 20
9.0
  9
$ORTHOMODE
 70
     0
  9
$REGENMODE
 70
     1
  9
$FILLMODE
 70
     1
  9
$QTEXTMODE
 70
     0
  9
$MIRRTEXT
 70
     1
  9
$DRAGMODE
 70
     2
  9
$LTSCALE
 40
1.0
  9
$OSMODE
 70
    37
  9
$ATTMODE
 70
     1
  9
$TEXTSIZE
 40
0.0
  9
$TRACEWID
 40
0.05
  9
$TEXTSTYLE
  7
STANDARD
  9
$CLAYER
  8
0
  9
$CELTYPE
  6
CONTINUOUS
  9
$CECOLOR
 62
   256
  9
$DIMSCALE
 40
1.0
  9
$DIMASZ
 40
0.18
  9
$DIMEXO
 40
0.0625
  9
$DIMDLI
 40
0.38
  9
$DIMRND
 40
0.0
  9
$DIMDLE
 40
0.0
  9
$DIMEXE
 40
0.18
  9
$DIMTP
 40
0.0
  9
$DIMTM
 40
0.0
  9
$DIMTXT
 40
0.18
  9
$DIMCEN
 40
0.09
  9
$DIMTSZ
 40
0.0
  9
$DIMTOL
 70
     0
  9
$DIMLIM
 70
     0
  9
$DIMTIH
 70
     1
  9
$DIMTOH
 70
     1
  9
$DIMSE1
 70
     0
  9
$DIMSE2
 70
     0
  9
$DIMTAD
 70
     0
  9
$DIMZIN
 70
     0
  9
$DIMBLK
  1

  9
$DIMASO
 70
     1
  9
$DIMSHO
 70
     1
  9
$DIMPOST
  1

  9
$DIMAPOST
  1

  9
$DIMALT
 70
     0
  9
$DIMALTD
 70
     2
  9
$DIMALTF
 40
25.399999999999999
  9
$DIMLFAC
 40
1.0
  9
$DIMTOFL
 70
     0
  9
$DIMTVP
 40
0.0
  9
$DIMTIX
 70
     0
  9
$DIMSOXD
 70
     0
  9
$DIMSAH
 70
     0
  9
$DIMBLK1
  1

  9
$DIMBLK2
  1

  9
$DIMSTYLE
  2
STANDARD
  9
$DIMCLRD
 70
     0
  9
$DIMCLRE
 70
     0
  9
$DIMCLRT
 70
     0
  9
$DIMTFAC
 40
1.0
  9
$DIMGAP
 40
0.09
  9
$LUNITS
 70
     2
  9
$LUPREC
 70
     4
  9
$SKETCHINC
 40
0.1
  9
$FILLETRAD
 40
0.0
  9
$AUNITS
 70
     0
  9
$AUPREC
 70
     0
  9
$MENU
  1
.
  9
$ELEVATION
 40
0.0
  9
$PELEVATION
 40
0.0
  9
$THICKNESS
 40
0.0
  9
$LIMCHECK
 70
     0
  9
$BLIPMODE
 70
     0
  9
$CHAMFERA
 40
0.0
  9
$CHAMFERB
 40
0.0
  9
$SKPOLY
 70
     0
  9
$TDCREATE
 40
2444972.375
  9
$TDUPDATE
 40
2457829.2486175122
  9
$TDINDWG
 40
0.000031412
  9
$TDUSRTIMER
 40
0.000031412
  9
$USRTIMER
 70
     1
  9
$ANGBASE
 50
0.0
  9
$ANGDIR
 70
     0
  9
$PDMODE
 70
     0
  9
$PDSIZE
 40
0.0
  9
$PLINEWID
 40
0.0
  9
$COORDS
 70
     1
  9
$SPLFRAME
 70
     0
  9
$SPLINETYPE
 70
     6
  9
$SPLINESEGS
 70
     8
  9
$ATTDIA
 70
     1
  9
$ATTREQ
 70
     1
  9
$HANDLING
 70
     1
  9
$HANDSEED
  5
466
  9
$SURFTAB1
 70
     6
  9
$SURFTAB2
 70
     6
  9
$SURFTYPE
 70
     6
  9
$SURFU
 70
     6
  9
$SURFV
 70
     6
  9
$UCSNAME
  2

  9
$UCSORG
 10
0.0
 20
0.0
 30
0.0
  9
$UCSXDIR
 10
1.0
 20
0.0
 30
0.0
  9
$UCSYDIR
 10
0.0
 20
1.0
 30
0.0
  9
$PUCSNAME
  2

  9
$PUCSORG
 10
0.0
 20
0.0
 30
0.0
  9
$PUCSXDIR
 10
1.0
 20
0.0
 30
0.0
  9
$PUCSYDIR
 10
0.0
 20
1.0
 30
0.0
  9
$USERI1
 70
     0
  9
$USERI2
 70
     0
  9
$USERI3
 70
     0
  9
$USERI4
 70
     0
  9
$USERI5
 70
     0
  9
$USERR1
 40
0.0
  9
$USERR2
 40
0.0
  9
$USERR3
 40
0.0
  9
$USERR4
 40
0.0
  9
$USERR5
 40
0.0
  9
$WORLDVIEW
 70
     1
  9
$SHADEDGE
 70
     3
  9
$SHADEDIF
 70
    70
  9
$TILEMODE
 70
     1
  9
$MAXACTVP
 70
    48
  9
$PLIMCHECK
 70
     0
  9
$PEXTMIN
 10
1.0000000000000000E+020
 20
1.0000000000000000E+020
 30
1.0000000000000000E+020
  9
$PEXTMAX
 10
-1.0000000000000000E+020
 20
-1.0000000000000000E+020
 30
-1.0000000000000000E+020
  9
$PLIMMIN
 10
0.0
 20
0.0
  9
$PLIMMAX
 10
12.0
 20
9.0
  9
$UNITMODE
 70
     0
  9
$VISRETAIN
 70
     1
  9
$PLINEGEN
 70
     0
  9
$PSLTSCALE
 70
     1
  0
ENDSEC
  0
SECTION
  2
TABLES
  0
TABLE
  2
VPORT
 70
     1
  0
VPORT
  2
*ACTIVE
 70
     0
 10
0.0
 20
0.0
 11
1.0
 21
1.0
 12
177.98836336455309
 22
148.72499999999999
 13
0.0
 23
0.0
 14
1.0
 24
1.0
 15
0.0
 25
0.0
 16
0.0
 26
0.0
 36
1.0
 17
0.0
 27
0.0
 37
0.0
 40
290.0781911758238
 41
2.1063583815028899
 42
50.0
 43
0.0
 44
0.0
 50
0.0
 51
0.0
 71
     0
 72
   100
 73
     1
 74
     1
 75
     0
 76
     0
 77
     0
 78
     0
  0
ENDTAB
  0
TABLE
  2
LTYPE
 70
     4
  0
LTYPE
  2
CONTINUOUS
 70
     0
  3
Solid line
 72
    65
 73
     0
 40
0.0
  0
LTYPE
  2
AIGENLINE001
 70
     0
  3
generate AI->DXF Converter
 72
    65
 73
     2
 40
1.5522299999999991
 49
0.776115
 49
-0.776115
  0
LTYPE
  2
AIGENLINE002
 70
     0
  3
generate AI->DXF Converter
 72
    65
 73
     2
 40
1.5522299999999991
 49
0.776115
 49
-0.776115
  0
LTYPE
  2
AIGENLINE003
 70
     0
  3
generate AI->DXF Converter
 72
    65
 73
     6
 40
7.4083750000000004
 49
3.5278
 49
-0.776115
 49
0.776115
 49
-0.776115
 49
0.776115
 49
-0.776115
  0
ENDTAB
  0
TABLE
  2
LAYER
 70
     2
  0
LAYER
  2
0
 70
     0
 62
     7
  6
CONTINUOUS
  0
LAYER
  2
_________2
 70
     0
 62
     7
  6
CONTINUOUS
  0
ENDTAB
  0
TABLE
  2
STYLE
 70
     1
  0
STYLE
  2
STANDARD
 70
     0
 40
0.0
 41
0.0
 50
0.0
 71
     0
 42
0.0
  3
TXT
  4
EXTFONT.SHX
  0
ENDTAB
  0
TABLE
  2
VIEW
 70
     0
  0
ENDTAB
  0
TABLE
  2
UCS
 70
     0
  0
ENDTAB
  0
TABLE
  2
APPID
 70
     3
  0
APPID
  2
ACAD
 70
     0
  0
APPID
  2
ACAD_NAV_VCDISPLAY
 70
     0
  0
APPID
  2
ACAD_MLEADERVER
 70
     0
  0
ENDTAB
  0
TABLE
  2
DIMSTYLE
 70
     1
  0
DIMSTYLE
  2
STANDARD
 70
     0
  3

  4

  5

  6

  7

 40
1.0
 41
0.18
 42
0.0625
 43
0.38
 44
0.18
 45
0.0
 46
0.0
 47
0.0
 48
0.0
140
0.18
141
0.09
142
0.0
143
25.399999999999999
144
1.0
145
0.0
146
1.0
147
0.09
 71
     0
 72
     0
 73
     1
 74
     1
 75
     0
 76
     0
 77
     0
 78
     0
170
     0
171
     2
172
     0
173
     0
174
     0
175
     0
176
     0
177
     0
178
     0
  0
ENDTAB
  0
ENDSEC
  0
SECTION
  2
BLOCKS
  0
BLOCK
  8
0
  2
$MODEL_SPACE
 70
     0
 10
0.0
 20
0.0
 30
0.0
  3
$MODEL_SPACE
  1

  0
ENDBLK
  5
1A
  8
0
  0
BLOCK
 67
     1
  8
0
  2
$PAPER_SPACE
 70
     0
 10
0.0
 20
0.0
 30
0.0
  3
$PAPER_SPACE
  1

  0
ENDBLK
  5
17
 67
     1
  8
0
  0
ENDSEC
  0
SECTION
  2
ENTITIES
  0
TEXT
  5
24
  8
0
 62
     7
 10
156.65600000000001
 20
200.6661
 30
0.0
 40
3.0923400000000001
  1
緩衝材
 50
90.0
 41
0.5
 72
     2
 11
156.65600000000001
 21
205.81999999999999
 31
0.0
  0
TEXT
  5
25
  8
0
 62
     7
 10
150.68600000000001
 20
177.05799999999999
 30
0.0
 40
3.0923400000000001
  1
メーカー
 50
90.0
 41
0.5
  0
TEXT
  5
26
  8
0
 62
     7
 10
154.55099999999999
 20
177.05799999999999
 30
0.0
 40
3.0923400000000001
  1
ロゴ
 50
90.0
 41
0.5
  0
TEXT
  5
27
  8
0
 62
     7
 10
66.71444799999999
 20
186.792
 30
0.0
 40
3.0923400000000001
  1
壁仕上面
 41
0.5
 72
     1
 11
70.219099999999997
 21
186.792
 31
0.0
  0
TEXT
  5
28
  8
0
 62
     7
 10
177.85599999999999
 20
207.185
 30
0.0
 40
3.0923400000000001
  1
%%c4.5\U+00D735
 50
90.0
 41
0.5
  0
TEXT
  5
29
  8
0
 62
     7
 10
181.721
 20
207.185
 30
0.0
 40
3.0923400000000001
  1
十字穴付タッピンねじ 1本
 50
90.0
 41
0.5
  0
TEXT
  5
2A
  8
0
 62
     7
 10
185.58600000000001
 20
207.185
 30
0.0
 40
3.0923400000000001
  1
（樹脂プラグ付）
 50
90.0
 41
0.5
  0
TEXT
  5
2B
  8
0
 62
     7
 10
76.500200000000007
 20
201.08500000000001
 30
0.0
 40
3.0923400000000001
  1
%%c5.2\U+00D748
 50
90.0
 41
0.5
  0
TEXT
  5
2C
  8
0
 62
     7
 10
80.365599999999986
 20
201.08500000000001
 30
0.0
 40
3.0923400000000001
  1
十字穴付木ねじ 4本
 50
90.0
 41
0.5
  0
TEXT
  5
2D
  8
0
 62
     7
 10
84.231000000000009
 20
201.08500000000001
 30
0.0
 40
3.0923400000000001
  1
（樹脂プラグ付）
 50
90.0
 41
0.5
  0
TEXT
  5
2E
  8
0
 62
     7
 10
166.99737250000001
 20
207.322
 30
0.0
 40
3.0923400000000001
  1
70
 41
0.5
 72
     1
 11
168.15700000000001
 21
207.322
 31
0.0
  0
TEXT
  5
2F
  8
0
 62
     7
 10
127.79544
 20
207.322
 30
0.0
 40
3.0923400000000001
  1
696
 41
0.5
 72
     1
 11
129.857
 21
207.322
 31
0.0
  0
TEXT
  5
30
  8
0
 62
     7
 10
92.068325000000002
 20
207.322
 30
0.0
 40
3.0923400000000001
  1
34
 41
0.5
 72
     1
 11
93.356800000000007
 21
207.322
 31
0.0
  0
TEXT
  5
31
  8
0
 62
     7
 10
81.006399999999999
 20
198.18222
 30
0.0
 40
3.0923400000000001
  1
4
 50
90.0
 41
0.5
 72
     2
 11
81.006399999999999
 21
199.21299999999999
 31
0.0
  0
TEXT
  5
32
  8
0
 62
     7
 10
81.006399999999999
 20
190.21899999999999
 30
0.0
 40
3.0923400000000001
  1
42
 50
90.0
 41
0.5
  0
TEXT
  5
33
  8
0
 62
     7
 10
178.45699999999999
 20
198.08022
 30
0.0
 40
3.0923400000000001
  1
4
 50
90.0
 41
0.5
 72
     2
 11
178.45699999999999
 21
199.11099999999999
 31
0.0
  0
TEXT
  5
34
  8
0
 62
     7
 10
178.45699999999999
 20
185.71013500000001
 30
0.0
 40
3.0923400000000001
  1
135
 50
90.0
 41
0.5
 72
     1
 11
178.45699999999999
 21
187.51400000000001
 31
0.0
  0
TEXT
  5
35
  8
0
 62
     7
 10
89.653299999999987
 20
177.49205000000001
 30
0.0
 40
3.0923400000000001
  1
天井面
 50
90.0
 41
0.5
 72
     1
 11
89.653299999999987
 21
180.06899999999999
 31
0.0
  0
TEXT
  5
36
  8
0
 62
     7
 10
70.942400000000006
 20
70.288700000000006
 30
0.0
 40
3.0923400000000001
  1
施工空間
 50
90.0
 41
0.5
  0
TEXT
  5
37
  8
0
 62
     7
 10
57.061999999999991
 20
179.62334799999999
 30
0.0
 40
3.0923400000000001
  1
壁仕上面
 50
90.0
 41
0.5
 72
     1
 11
57.061999999999991
 21
183.1279999999999
 31
0.0
  0
TEXT
  5
38
  8
0
 62
     7
 10
35.9009
 20
176.52699999999999
 30
0.0
 40
3.0923400000000001
  1
29
 50
90.0
 41
0.5
  0
TEXT
  5
39
  8
0
 62
     7
 10
35.9009
 20
166.01952499999999
 30
0.0
 40
3.0923400000000001
  1
74
 50
90.0
 41
0.5
 72
     1
 11
35.9009
 21
167.30799999999999
 31
0.0
  0
TEXT
  5
3A
  8
0
 62
     7
 10
35.9009
 20
121.84644
 30
0.0
 40
3.0923400000000001
  1
794
 50
90.0
 41
0.5
 72
     1
 11
35.9009
 21
123.908
 31
0.0
  0
TEXT
  5
3B
  8
0
 62
     7
 10
35.9009
 20
79.219124999999991
 30
0.0
 40
3.0923400000000001
  1
74
 50
90.0
 41
0.5
 72
     1
 11
35.9009
 21
80.507599999999996
 31
0.0
  0
TEXT
  5
3C
  8
0
 62
     7
 10
35.9009
 20
67.407499999999999
 30
0.0
 40
3.0923400000000001
  1
29
 50
90.0
 41
0.5
  0
TEXT
  5
3D
  8
0
 62
     7
 10
75.442400000000006
 20
121.71759249999999
 30
0.0
 40
3.0923400000000001
  1
1000
 50
90.0
 41
0.5
 72
     1
 11
75.442400000000006
 21
123.908
 31
0.0
  0
TEXT
  5
3E
  8
0
 62
     7
 10
161.50313499999999
 20
67.807500000000005
 30
0.0
 40
3.0923400000000001
  1
135
 41
0.5
 72
     1
 11
163.30699999999999
 21
67.807500000000005
 31
0.0
  0
TEXT
  5
3F
  8
0
 62
     7
 10
175.94543999999999
 20
67.807500000000005
 30
0.0
 40
3.0923400000000001
  1
16
 41
0.5
 72
     2
 11
178.00700000000001
 21
67.807500000000005
 31
0.0
  0
TEXT
  5
40
  8
0
 62
     7
 10
122.04544
 20
67.807500000000005
 30
0.0
 40
3.0923400000000001
  1
649
 41
0.5
 72
     1
 11
124.107
 21
67.807500000000005
 31
0.0
  0
TEXT
  5
41
  8
0
 62
     7
 10
83.203687000000016
 20
62.657699999999991
 30
0.0
 40
3.0923400000000001
  1
100以上
 41
0.5
 72
     1
 11
86.656800000000004
 21
62.657699999999991
 31
0.0
  0
TEXT
  5
42
  8
0
 62
     7
 10
129.85313500000001
 20
62.30769999999999
 30
0.0
 40
3.0923400000000001
  1
800
 41
0.5
 72
     1
 11
131.65700000000001
 21
62.30769999999999
 31
0.0
  0
TEXT
  5
43
  8
0
 62
     7
 10
27.8552
 20
147.10413500000001
 30
0.0
 40
3.0923400000000001
  1
500
 50
90.0
 41
0.5
 72
     1
 11
27.8552
 21
148.90799999999999
 31
0.0
  0
TEXT
  5
44
  8
0
 62
     7
 10
27.8552
 20
97.103735000000015
 30
0.0
 40
3.0923400000000001
  1
500
 50
90.0
 41
0.5
 72
     1
 11
27.8552
 21
98.907600000000002
 31
0.0
  0
TEXT
  5
45
  8
0
 62
     7
 10
111.163
 20
250.37299999999999
 30
0.0
 40
3.0923400000000001
  1
十字穴付
 50
90.0
 41
0.5
  0
TEXT
  5
46
  8
0
 62
     7
 10
115.029
 20
250.37299999999999
 30
0.0
 40
3.0923400000000001
  1
小ねじ
 50
90.0
 41
0.5
  0
TEXT
  5
47
  8
0
 62
     7
 10
109.07899999999999
 20
268.932525
 30
0.0
 40
3.0923400000000001
  1
25
 50
90.0
 41
0.5
 72
     1
 11
109.07899999999999
 21
270.221
 31
0.0
  0
TEXT
  5
48
  8
0
 62
     7
 10
109.07899999999999
 20
241.03621999999999
 30
0.0
 40
3.0923400000000001
  1
18
 50
90.0
 41
0.5
 72
     1
 11
109.07899999999999
 21
242.06700000000001
 31
0.0
  0
TEXT
  5
49
  8
0
 62
     7
 10
94.580224999999999
 20
252.589
 30
0.0
 40
3.0923400000000001
  1
37
 41
0.5
 72
     1
 11
95.868700000000004
 21
252.589
 31
0.0
  0
TEXT
  5
4A
  8
0
 62
     7
 10
93.455324999999988
 20
233.089
 30
0.0
 40
3.0923400000000001
  1
46
 41
0.5
 72
     1
 11
94.743799999999993
 21
233.089
 31
0.0
  0
TEXT
  5
4B
  8
0
 62
     7
 10
58.14208
 20
275.44999999999999
 30
0.0
 40
3.0923400000000001
  1
t1.5
 41
0.5
 72
     2
 11
62.2652
 21
275.44999999999999
 31
0.0
  0
TEXT
  5
4C
  8
0
 62
     7
 10
51.437809999999999
 20
224.00999999999999
 30
0.0
 40
3.0923400000000001
  1
8
 41
0.5
 72
     1
 11
51.953200000000002
 21
224.00999999999999
 31
0.0
  0
TEXT
  5
4D
  8
0
 62
     7
 10
60.028599999999997
 20
231.85821999999999
 30
0.0
 40
3.0923400000000001
  1
18
 50
90.0
 41
0.5
 72
     1
 11
60.028599999999997
 21
232.88900000000001
 31
0.0
  0
TEXT
  5
4E
  8
0
 62
     7
 10
65.519199999999984
 20
240.850525
 30
0.0
 40
3.0923400000000001
  1
74
 50
90.0
 41
0.5
 72
     1
 11
65.519199999999984
 21
242.13900000000001
 31
0.0
  0
TEXT
  5
4F
  8
0
 62
     7
 10
42.448999999999998
 20
268.86961000000002
 30
0.0
 40
3.0923400000000001
  1
6
 50
90.0
 41
0.5
 72
     1
 11
42.448999999999998
 21
269.38499999999999
 31
0.0
  0
TEXT
  5
50
  8
0
 62
     7
 10
71.096400000000003
 20
240.59282999999999
 30
0.0
 40
3.0923400000000001
  1
100
 50
90.0
 41
0.5
 72
     1
 11
71.096400000000003
 21
242.13900000000001
 31
0.0
  0
TEXT
  5
51
  8
0
 62
     7
 10
41.557899999999989
 20
259.91800000000001
 30
0.0
 40
3.0923400000000001
  1
10
 41
0.5
  0
TEXT
  5
52
  8
0
 62
     7
 10
50.79357250000001
 20
259.91800000000001
 30
0.0
 40
3.0923400000000001
  1
20
 41
0.5
 72
     1
 11
51.953200000000002
 21
259.91800000000001
 31
0.0
  0
TEXT
  5
53
  8
0
 62
     7
 10
31.466999999999999
 20
225.63399999999999
 30
0.0
 40
3.0923400000000001
  1
〈付属品〉尺度 1：4
 50
90.0
 41
0.5
  0
TEXT
  5
54
  8
0
 62
     7
 10
84.598299999999995
 20
229.63900000000001
 30
0.0
 40
3.0923400000000001
  1
ストッパー\U+00D71
 50
90.0
 41
0.5
  0
TEXT
  5
55
  8
0
 62
     7
 10
39.705100000000002
 20
229.63900000000001
 30
0.0
 40
3.0923400000000001
  1
固定金具\U+00D72
 50
90.0
 41
0.5
  0
LINE
  5
56
  8
0
 62
     7
 10
157.34999999999999
 20
197.61600000000001
 30
0.0
 11
154.00700000000001
 21
194.78899999999999
 31
0.0
  0
LINE
  5
57
  8
0
 62
     7
 10
155.66200000000001
 20
195.56899999999999
 30
0.0
 11
154.006
 21
194.78899999999999
 31
0.0
  0
LINE
  5
58
  8
0
 62
     7
 10
154.006
 20
194.78899999999999
 30
0.0
 11
155.05099999999999
 21
196.292
 31
0.0
  0
LINE
  5
59
  8
0
 62
     7
 10
155.05099999999999
 20
196.292
 30
0.0
 11
155.66200000000001
 21
195.56899999999999
 31
0.0
  0
LINE
  5
5A
  8
0
 62
     7
 10
157.34999999999999
 20
197.61600000000001
 30
0.0
 11
157.34999999999999
 21
205.81999999999999
 31
0.0
  0
LINE
  5
5B
  8
0
 62
     7
 10
155.34899999999999
 20
187.36199999999999
 30
0.0
 11
152.006
 21
190.18899999999999
 31
0.0
  0
LINE
  5
5C
  8
0
 62
     7
 10
153.66200000000001
 20
189.40899999999999
 30
0.0
 11
152.006
 21
190.18899999999999
 31
0.0
  0
LINE
  5
5D
  8
0
 62
     7
 10
152.006
 20
190.18899999999999
 30
0.0
 11
153.05000000000001
 21
188.685
 31
0.0
  0
LINE
  5
5E
  8
0
 62
     7
 10
153.05000000000001
 20
188.685
 30
0.0
 11
153.66200000000001
 21
189.40899999999999
 31
0.0
  0
LINE
  5
5F
  8
0
 62
     7
 10
155.34899999999999
 20
187.36199999999999
 30
0.0
 11
155.34899999999999
 21
177.05799999999999
 31
0.0
  0
ARC
  5
60
  8
0
  6
AIGENLINE001
 62
     7
 10
95.047149000000005
 20
78.416743999999994
 30
0.0
 40
0.25996
 50
272.13072
 51
357.86928999999998
  0
ARC
  5
61
  8
0
  6
AIGENLINE001
 62
     7
 10
95.047143999999989
 20
78.397408999999996
 30
0.0
 40
0.259966
 50
2.1318029999999988
 51
87.868187000000006
  0
ARC
  5
62
  8
0
  6
AIGENLINE001
 62
     7
 10
95.066484000000017
 20
78.397588999999996
 30
0.0
 40
0.259786
 50
92.133097000000006
 51
177.90634700000001
  0
ARC
  5
63
  8
0
  6
AIGENLINE001
 62
     7
 10
95.066636000000017
 20
78.416721999999993
 30
0.0
 40
0.259944
 50
182.12591299999991
 51
267.83464300000003
  0
ARC
  5
64
  8
0
  6
AIGENLINE001
 62
     7
 10
95.041177000000005
 20
84.691541999999998
 30
0.0
 40
0.415896
 50
2.105388
 51
87.845272999999978
  0
ARC
  5
65
  8
0
  6
AIGENLINE001
 62
     7
 10
95.072136999999984
 20
84.691856000000016
 30
0.0
 40
0.41557
 50
92.112998000000005
 51
177.93630099999999
  0
ARC
  5
66
  8
0
  6
AIGENLINE001
 62
     7
 10
95.072451000000001
 20
83.722327000000007
 30
0.0
 40
0.415896
 50
182.105391
 51
267.84530999999998
  0
ARC
  5
67
  8
0
  6
AIGENLINE001
 62
     7
 10
95.041492000000005
 20
83.722013000000004
 30
0.0
 40
0.41557
 50
272.11303500000002
 51
357.93630400000001
  0
LINE
  5
68
  8
0
  6
AIGENLINE001
 62
     7
 10
95.456800000000001
 20
84.706799999999987
 30
0.0
 11
95.456800000000001
 21
83.707000000000008
 31
0.0
  0
LINE
  5
69
  8
0
  6
AIGENLINE001
 62
     7
 10
94.656800000000004
 20
84.706799999999987
 30
0.0
 11
94.656800000000004
 21
83.707000000000008
 31
0.0
  0
ARC
  5
6A
  8
0
  6
AIGENLINE001
 62
     7
 10
95.041177000000005
 20
77.291430000000005
 30
0.0
 40
0.415896
 50
2.105388
 51
87.845272999999978
  0
ARC
  5
6B
  8
0
  6
AIGENLINE001
 62
     7
 10
95.072136999999984
 20
77.291743999999994
 30
0.0
 40
0.41557
 50
92.112998000000005
 51
177.93630099999999
  0
ARC
  5
6C
  8
0
  6
AIGENLINE001
 62
     7
 10
95.072451000000001
 20
76.322214999999986
 30
0.0
 40
0.415896
 50
182.105391
 51
267.84530999999998
  0
ARC
  5
6D
  8
0
  6
AIGENLINE001
 62
     7
 10
95.041492000000005
 20
76.321900999999997
 30
0.0
 40
0.41557
 50
272.11303500000002
 51
357.93630400000001
  0
LINE
  5
6E
  8
0
  6
AIGENLINE001
 62
     7
 10
95.456800000000001
 20
77.306700000000006
 30
0.0
 11
95.456800000000001
 21
76.306899999999999
 31
0.0
  0
LINE
  5
6F
  8
0
  6
AIGENLINE001
 62
     7
 10
94.656800000000004
 20
77.306700000000006
 30
0.0
 11
94.656800000000004
 21
76.306899999999999
 31
0.0
  0
ARC
  5
70
  8
0
  6
AIGENLINE001
 62
     7
 10
95.047149000000005
 20
82.597012000000007
 30
0.0
 40
0.25996
 50
2.1307099999999992
 51
87.869280000000003
  0
ARC
  5
71
  8
0
  6
AIGENLINE001
 62
     7
 10
95.047841000000005
 20
82.616364999999988
 30
0.0
 40
0.25927
 50
271.98343799999998
 51
357.85851500000001
  0
ARC
  5
72
  8
0
  6
AIGENLINE001
 62
     7
 10
95.066434999999998
 20
82.616834999999995
 30
0.0
 40
0.259763
 50
182.24118300000001
 51
267.877431
  0
ARC
  5
73
  8
0
  6
AIGENLINE001
 62
     7
 10
95.066636000000017
 20
82.597034999999977
 30
0.0
 40
0.259944
 50
92.165356999999986
 51
177.874087
  0
LINE
  5
74
  8
0
  6
AIGENLINE001
 62
     7
 10
93.256899999999987
 20
76.007199999999983
 30
0.0
 11
93.056899999999999
 21
75.807400000000001
 31
0.0
  0
LINE
  5
75
  8
0
  6
AIGENLINE001
 62
     7
 10
93.056899999999999
 20
85.507499999999979
 30
0.0
 11
96.056899999999999
 21
85.507499999999979
 31
0.0
  0
LINE
  5
76
  8
0
  6
AIGENLINE001
 62
     7
 10
93.056899999999999
 20
75.507000000000005
 30
0.0
 11
96.056899999999999
 21
75.507000000000005
 31
0.0
  0
LINE
  5
77
  8
0
  6
AIGENLINE001
 62
     7
 10
95.906899999999993
 20
75.507000000000005
 30
0.0
 11
95.906899999999993
 21
85.507499999999979
 31
0.0
  0
LINE
  5
78
  8
0
  6
AIGENLINE001
 62
     7
 10
93.256899999999987
 20
85.007199999999983
 30
0.0
 11
93.056899999999999
 21
85.207099999999997
 31
0.0
  0
LINE
  5
79
  8
0
  6
AIGENLINE001
 62
     7
 10
93.056899999999999
 20
85.207099999999997
 30
0.0
 11
93.056899999999999
 21
85.507499999999979
 31
0.0
  0
LINE
  5
7A
  8
0
  6
AIGENLINE001
 62
     7
 10
93.056899999999999
 20
75.507000000000005
 30
0.0
 11
93.056899999999999
 21
75.807400000000001
 31
0.0
  0
LINE
  5
7B
  8
0
  6
AIGENLINE001
 62
     7
 10
93.256899999999987
 20
76.007199999999983
 30
0.0
 11
93.256899999999987
 21
85.007199999999983
 31
0.0
  0
LINE
  5
7C
  8
0
  6
AIGENLINE001
 62
     7
 10
94.056899999999985
 20
75.507000000000005
 30
0.0
 11
94.056899999999985
 21
85.507499999999979
 31
0.0
  0
LINE
  5
7D
  8
0
  6
AIGENLINE001
 62
     7
 10
96.056899999999999
 20
75.507000000000005
 30
0.0
 11
96.056899999999999
 21
85.507499999999979
 31
0.0
  0
ARC
  5
7E
  8
0
  6
AIGENLINE001
 62
     7
 10
95.056814000000003
 20
165.20767000000001
 30
0.0
 40
0.250116
 50
270.00002000000001
 51
359.99999000000003
  0
ARC
  5
7F
  8
0
  6
AIGENLINE001
 62
     7
 10
95.056814000000003
 20
165.20767000000001
 30
0.0
 40
0.250116
 50
0.00001
 51
89.999980000000008
  0
ARC
  5
80
  8
0
  6
AIGENLINE001
 62
     7
 10
95.066484000000017
 20
165.19817900000001
 30
0.0
 40
0.259786
 50
92.133097000000006
 51
177.90634700000001
  0
ARC
  5
81
  8
0
  6
AIGENLINE001
 62
     7
 10
95.066645999999977
 20
165.21732299999999
 30
0.0
 40
0.259955
 50
182.128095
 51
267.83246100000002
  0
ARC
  5
82
  8
0
  6
AIGENLINE001
 62
     7
 10
95.041516000000001
 20
171.492458
 30
0.0
 40
0.415558
 50
2.109726999999999
 51
87.890263000000004
  0
ARC
  5
83
  8
0
  6
AIGENLINE001
 62
     7
 10
95.072112000000004
 20
171.492458
 30
0.0
 40
0.415558
 50
92.109700000000004
 51
177.89027100000001
  0
ARC
  5
84
  8
0
  6
AIGENLINE001
 62
     7
 10
95.072112000000004
 20
170.52293599999999
 30
0.0
 40
0.415558
 50
182.10972899999999
 51
267.89030000000002
  0
ARC
  5
85
  8
0
  6
AIGENLINE001
 62
     7
 10
95.041516000000001
 20
170.52293700000001
 30
0.0
 40
0.415558
 50
272.109737
 51
357.89027299999998
  0
LINE
  5
86
  8
0
  6
AIGENLINE001
 62
     7
 10
95.456800000000001
 20
171.50800000000001
 30
0.0
 11
95.456800000000001
 21
170.50800000000001
 31
0.0
  0
LINE
  5
87
  8
0
  6
AIGENLINE001
 62
     7
 10
94.656800000000004
 20
171.50800000000001
 30
0.0
 11
94.656800000000004
 21
170.50800000000001
 31
0.0
  0
ARC
  5
88
  8
0
  6
AIGENLINE001
 62
     7
 10
95.041526000000005
 20
164.092356
 30
0.0
 40
0.415548
 50
2.108404999999999
 51
87.891584999999992
  0
ARC
  5
89
  8
0
  6
AIGENLINE001
 62
     7
 10
95.072112000000004
 20
164.09234599999999
 30
0.0
 40
0.415558
 50
92.109700000000004
 51
177.89027100000001
  0
ARC
  5
8A
  8
0
  6
AIGENLINE001
 62
     7
 10
95.072451000000001
 20
163.12315000000001
 30
0.0
 40
0.415896
 50
182.105391
 51
267.84530999999998
  0
ARC
  5
8B
  8
0
  6
AIGENLINE001
 62
     7
 10
95.041492000000005
 20
163.12283600000001
 30
0.0
 40
0.41557
 50
272.11303500000002
 51
357.93630400000001
  0
LINE
  5
8C
  8
0
  6
AIGENLINE001
 62
     7
 10
95.456800000000001
 20
164.108
 30
0.0
 11
95.456800000000001
 21
163.108
 31
0.0
  0
LINE
  5
8D
  8
0
  6
AIGENLINE001
 62
     7
 10
94.656800000000004
 20
164.108
 30
0.0
 11
94.656800000000004
 21
163.108
 31
0.0
  0
ARC
  5
8E
  8
0
  6
AIGENLINE001
 62
     7
 10
95.056814000000003
 20
169.407612
 30
0.0
 40
0.250116
 50
0.00001
 51
89.999980000000008
  0
ARC
  5
8F
  8
0
  6
AIGENLINE001
 62
     7
 10
95.047498000000004
 20
169.41728699999999
 30
0.0
 40
0.259612
 50
272.056578
 51
357.86445700000002
  0
ARC
  5
90
  8
0
  6
AIGENLINE001
 62
     7
 10
95.066459999999992
 20
169.41743700000001
 30
0.0
 40
0.259774
 50
182.167372
 51
267.87215900000001
  0
ARC
  5
91
  8
0
  6
AIGENLINE001
 62
     7
 10
95.066645999999977
 20
169.39796000000001
 30
0.0
 40
0.259955
 50
92.167539000000005
 51
177.871905
  0
LINE
  5
92
  8
0
  6
AIGENLINE001
 62
     7
 10
93.256899999999987
 20
162.80799999999999
 30
0.0
 11
93.056899999999999
 21
162.608
 31
0.0
  0
LINE
  5
93
  8
0
  6
AIGENLINE001
 62
     7
 10
93.056899999999999
 20
172.30799999999999
 30
0.0
 11
96.056899999999999
 21
172.30799999999999
 31
0.0
  0
LINE
  5
94
  8
0
  6
AIGENLINE001
 62
     7
 10
93.056899999999999
 20
162.30799999999999
 30
0.0
 11
96.056899999999999
 21
162.30799999999999
 31
0.0
  0
LINE
  5
95
  8
0
  6
AIGENLINE001
 62
     7
 10
95.906899999999993
 20
162.30799999999999
 30
0.0
 11
95.906899999999993
 21
172.30799999999999
 31
0.0
  0
LINE
  5
96
  8
0
  6
AIGENLINE001
 62
     7
 10
93.256899999999987
 20
171.80799999999999
 30
0.0
 11
93.056899999999999
 21
172.00800000000001
 31
0.0
  0
LINE
  5
97
  8
0
  6
AIGENLINE001
 62
     7
 10
93.056899999999999
 20
172.00800000000001
 30
0.0
 11
93.056899999999999
 21
172.30799999999999
 31
0.0
  0
LINE
  5
98
  8
0
  6
AIGENLINE001
 62
     7
 10
93.056899999999999
 20
162.30799999999999
 30
0.0
 11
93.056899999999999
 21
162.608
 31
0.0
  0
LINE
  5
99
  8
0
  6
AIGENLINE001
 62
     7
 10
93.256899999999987
 20
162.80799999999999
 30
0.0
 11
93.256899999999987
 21
171.80799999999999
 31
0.0
  0
LINE
  5
9A
  8
0
  6
AIGENLINE001
 62
     7
 10
94.056899999999985
 20
162.30799999999999
 30
0.0
 11
94.056899999999985
 21
172.30799999999999
 31
0.0
  0
LINE
  5
9B
  8
0
  6
AIGENLINE001
 62
     7
 10
96.056899999999999
 20
162.30799999999999
 30
0.0
 11
96.056899999999999
 21
172.30799999999999
 31
0.0
  0
LINE
  5
9C
  8
0
 62
     7
 10
70.219800000000006
 20
194.7879999999999
 30
0.0
 11
72.397800000000004
 21
191.01400000000001
 31
0.0
  0
LINE
  5
9D
  8
0
 62
     7
 10
72.397800000000004
 20
191.01400000000001
 30
0.0
 11
68.040400000000005
 21
191.01400000000001
 31
0.0
  0
LINE
  5
9E
  8
0
 62
     7
 10
70.219800000000006
 20
194.7879999999999
 30
0.0
 11
68.040400000000005
 21
191.01400000000001
 31
0.0
  0
LINE
  5
9F
  8
0
 62
     7
 10
178.04599999999999
 20
206.887
 30
0.0
 11
164.79599999999999
 21
197.03
 31
0.0
  0
LINE
  5
A0
  8
0
 62
     7
 10
165.93199999999999
 20
198.465
 30
0.0
 11
164.79599999999999
 21
197.03
 31
0.0
  0
LINE
  5
A1
  8
0
 62
     7
 10
164.79599999999999
 20
197.03
 30
0.0
 11
166.49799999999999
 21
197.70500000000001
 31
0.0
  0
LINE
  5
A2
  8
0
 62
     7
 10
166.49799999999999
 20
197.70500000000001
 30
0.0
 11
165.93199999999999
 21
198.465
 31
0.0
  0
LINE
  5
A3
  8
0
 62
     7
 10
86.4559
 20
203.309
 30
0.0
 11
94.897099999999995
 21
197.03
 31
0.0
  0
LINE
  5
A4
  8
0
 62
     7
 10
93.760900000000007
 20
198.465
 30
0.0
 11
94.897099999999995
 21
197.03
 31
0.0
  0
LINE
  5
A5
  8
0
 62
     7
 10
94.897099999999995
 20
197.03
 30
0.0
 11
93.1952
 21
197.70500000000001
 31
0.0
  0
LINE
  5
A6
  8
0
 62
     7
 10
93.1952
 20
197.70500000000001
 30
0.0
 11
93.760900000000007
 21
198.465
 31
0.0
  0
ARC
  5
A7
  8
0
 62
     7
 10
81.696813000000006
 20
194.379536
 30
0.0
 40
0.25995
 50
2.1285279999999989
 51
87.871461999999994
  0
ARC
  5
A8
  8
0
 62
     7
 10
81.696803000000017
 20
194.39885699999999
 30
0.0
 40
0.25996
 50
272.13072
 51
357.86928999999998
  0
ARC
  5
A9
  8
0
 62
     7
 10
81.716146999999992
 20
194.39851300000001
 30
0.0
 40
0.2596179999999999
 50
182.05766499999999
 51
267.86338999999998
  0
ARC
  5
AA
  8
0
 62
     7
 10
81.716467000000009
 20
194.37955099999999
 30
0.0
 40
0.259949
 50
92.204404999999994
 51
177.874539
  0
LINE
  5
AB
  8
0
 62
     7
 10
91.656700000000001
 20
207.322
 30
0.0
 11
91.656700000000001
 21
195.089
 31
0.0
  0
LINE
  5
AC
  8
0
 62
     7
 10
171.65700000000001
 20
207.322
 30
0.0
 11
171.65700000000001
 21
195.089
 31
0.0
  0
LINE
  5
AD
  8
0
 62
     7
 10
164.65700000000001
 20
207.322
 30
0.0
 11
164.65700000000001
 21
198.239
 31
0.0
  0
LINE
  5
AE
  8
0
 62
     7
 10
95.057000000000002
 20
207.322
 30
0.0
 11
95.057000000000002
 21
199.739
 31
0.0
  0
LINE
  5
AF
  8
0
 62
     7
 10
89.445599999999999
 20
206.04400000000001
 30
0.0
 11
91.656700000000001
 21
206.637
 31
0.0
  0
LINE
  5
B0
  8
0
 62
     7
 10
91.656700000000001
 20
206.637
 30
0.0
 11
89.445599999999999
 21
207.22900000000001
 31
0.0
  0
LINE
  5
B1
  8
0
 62
     7
 10
89.445599999999999
 20
207.22900000000001
 30
0.0
 11
89.445599999999999
 21
206.04400000000001
 31
0.0
  0
LINE
  5
B2
  8
0
 62
     7
 10
173.869
 20
207.215
 30
0.0
 11
171.65700000000001
 21
206.62200000000001
 31
0.0
  0
LINE
  5
B3
  8
0
 62
     7
 10
171.65700000000001
 20
206.62200000000001
 30
0.0
 11
173.869
 21
206.03
 31
0.0
  0
LINE
  5
B4
  8
0
 62
     7
 10
173.869
 20
206.03
 30
0.0
 11
173.869
 21
207.215
 31
0.0
  0
LINE
  5
B5
  8
0
 62
     7
 10
162.446
 20
207.215
 30
0.0
 11
164.65700000000001
 21
206.62200000000001
 31
0.0
  0
LINE
  5
B6
  8
0
 62
     7
 10
164.65700000000001
 20
206.62200000000001
 30
0.0
 11
162.446
 21
206.03
 31
0.0
  0
LINE
  5
B7
  8
0
 62
     7
 10
162.446
 20
206.03
 30
0.0
 11
162.446
 21
207.215
 31
0.0
  0
LINE
  5
B8
  8
0
 62
     7
 10
97.268800000000013
 20
207.215
 30
0.0
 11
95.057000000000002
 21
206.62200000000001
 31
0.0
  0
LINE
  5
B9
  8
0
 62
     7
 10
95.057000000000002
 20
206.62200000000001
 30
0.0
 11
97.268800000000013
 21
206.03
 31
0.0
  0
LINE
  5
BA
  8
0
 62
     7
 10
97.268800000000013
 20
206.03
 30
0.0
 11
97.268800000000013
 21
207.215
 31
0.0
  0
LINE
  5
BB
  8
0
 62
     7
 10
175.369
 20
206.62200000000001
 30
0.0
 11
87.945599999999999
 21
206.62200000000001
 31
0.0
  0
LINE
  5
BC
  8
0
 62
     7
 10
164.51900000000001
 20
197.04300000000001
 30
0.0
 11
164.65700000000001
 21
197.38900000000001
 31
0.0
  0
LINE
  5
BD
  8
0
 62
     7
 10
164.79599999999999
 20
197.04300000000001
 30
0.0
 11
164.65700000000001
 21
197.38900000000001
 31
0.0
  0
LINE
  5
BE
  8
0
 62
     7
 10
164.79599999999999
 20
194.38900000000001
 30
0.0
 11
164.79599999999999
 21
197.04300000000001
 31
0.0
  0
LINE
  5
BF
  8
0
 62
     7
 10
164.51900000000001
 20
194.38900000000001
 30
0.0
 11
164.51900000000001
 21
197.04300000000001
 31
0.0
  0
LINE
  5
C0
  8
0
 62
     7
 10
164.88200000000001
 20
196.52099999999999
 30
0.0
 11
164.43199999999999
 21
196.69900000000001
 31
0.0
  0
LINE
  5
C1
  8
0
 62
     7
 10
164.88200000000001
 20
196.17599999999999
 30
0.0
 11
164.43199999999999
 21
196.35400000000001
 31
0.0
  0
LINE
  5
C2
  8
0
 62
     7
 10
164.88200000000001
 20
195.83099999999999
 30
0.0
 11
164.43199999999999
 21
196.0079999999999
 31
0.0
  0
LINE
  5
C3
  8
0
 62
     7
 10
164.88200000000001
 20
195.48599999999999
 30
0.0
 11
164.43199999999999
 21
195.66300000000001
 31
0.0
  0
LINE
  5
C4
  8
0
 62
     7
 10
164.88200000000001
 20
195.14099999999999
 30
0.0
 11
164.43199999999999
 21
195.31800000000001
 31
0.0
  0
LINE
  5
C5
  8
0
 62
     7
 10
164.88200000000001
 20
194.79499999999999
 30
0.0
 11
164.43199999999999
 21
194.97200000000001
 31
0.0
  0
LINE
  5
C6
  8
0
 62
     7
 10
164.88200000000001
 20
194.44999999999999
 30
0.0
 11
164.43199999999999
 21
194.62700000000001
 31
0.0
  0
LINE
  5
C7
  8
0
 62
     7
 10
164.88200000000001
 20
196.86699999999999
 30
0.0
 11
164.43199999999999
 21
197.04400000000001
 31
0.0
  0
LINE
  5
C8
  8
0
 62
     7
 10
94.897099999999995
 20
198.489
 30
0.0
 11
95.057000000000002
 21
198.88900000000001
 31
0.0
  0
LINE
  5
C9
  8
0
 62
     7
 10
95.216800000000006
 20
198.489
 30
0.0
 11
95.057000000000002
 21
198.88900000000001
 31
0.0
  0
LINE
  5
CA
  8
0
  6
AIGENLINE002
 62
     7
 10
95.057000000000002
 20
194.239
 30
0.0
 11
95.057000000000002
 21
199.03899999999999
 31
0.0
  0
LINE
  5
CB
  8
0
 62
     7
 10
95.216800000000006
 20
195.38900000000001
 30
0.0
 11
95.216800000000006
 21
198.489
 31
0.0
  0
LINE
  5
CC
  8
0
 62
     7
 10
95.216800000000006
 20
194.38900000000001
 30
0.0
 11
95.216800000000006
 21
195.38900000000001
 31
0.0
  0
LINE
  5
CD
  8
0
 62
     7
 10
94.897099999999995
 20
195.38900000000001
 30
0.0
 11
94.897099999999995
 21
198.489
 31
0.0
  0
LINE
  5
CE
  8
0
 62
     7
 10
95.316699999999997
 20
197.886
 30
0.0
 11
94.796499999999995
 21
198.09100000000001
 31
0.0
  0
LINE
  5
CF
  8
0
 62
     7
 10
95.316699999999997
 20
197.48699999999999
 30
0.0
 11
94.796499999999995
 21
197.69200000000001
 31
0.0
  0
LINE
  5
D0
  8
0
 62
     7
 10
95.316699999999997
 20
197.08799999999999
 30
0.0
 11
94.796499999999995
 21
197.29300000000001
 31
0.0
  0
LINE
  5
D1
  8
0
 62
     7
 10
95.316699999999997
 20
196.68899999999999
 30
0.0
 11
94.796499999999995
 21
196.89400000000001
 31
0.0
  0
LINE
  5
D2
  8
0
 62
     7
 10
95.316699999999997
 20
196.291
 30
0.0
 11
94.796499999999995
 21
196.4959999999999
 31
0.0
  0
LINE
  5
D3
  8
0
 62
     7
 10
95.316699999999997
 20
195.892
 30
0.0
 11
94.796499999999995
 21
196.09700000000001
 31
0.0
  0
LINE
  5
D4
  8
0
 62
     7
 10
95.316699999999997
 20
195.49299999999999
 30
0.0
 11
94.796499999999995
 21
195.69800000000001
 31
0.0
  0
LINE
  5
D5
  8
0
 62
     7
 10
95.316699999999997
 20
198.285
 30
0.0
 11
94.796499999999995
 21
198.49000000000001
 31
0.0
  0
LINE
  5
D6
  8
0
 62
     7
 10
95.216800000000006
 20
195.38900000000001
 30
0.0
 11
94.897099999999995
 21
195.38900000000001
 31
0.0
  0
LINE
  5
D7
  8
0
 62
     7
 10
94.897099999999995
 20
194.38900000000001
 30
0.0
 11
94.897099999999995
 21
195.38900000000001
 31
0.0
  0
LINE
  5
D8
  8
0
 62
     7
 10
153.20699999999999
 20
194.78899999999999
 30
0.0
 11
154.70699999999999
 21
194.78899999999999
 31
0.0
  0
LINE
  5
D9
  8
0
 62
     7
 10
154.70699999999999
 20
194.78899999999999
 30
0.0
 11
154.70699999999999
 21
194.38900000000001
 31
0.0
  0
LINE
  5
DA
  8
0
 62
     7
 10
153.20699999999999
 20
194.78899999999999
 30
0.0
 11
153.20699999999999
 21
194.38900000000001
 31
0.0
  0
LINE
  5
DB
  8
0
 62
     7
 10
93.406899999999993
 20
194.78899999999999
 30
0.0
 11
94.907000000000025
 21
194.78899999999999
 31
0.0
  0
LINE
  5
DC
  8
0
 62
     7
 10
94.907000000000025
 20
194.78899999999999
 30
0.0
 11
94.907000000000025
 21
194.38900000000001
 31
0.0
  0
LINE
  5
DD
  8
0
 62
     7
 10
93.406899999999993
 20
194.78899999999999
 30
0.0
 11
93.406899999999993
 21
194.38900000000001
 31
0.0
  0
LINE
  5
DE
  8
0
 62
     7
 10
91.656700000000001
 20
194.38900000000001
 30
0.0
 11
91.656700000000001
 21
190.28899999999999
 31
0.0
  0
LINE
  5
DF
  8
0
 62
     7
 10
91.656700000000001
 20
190.28899999999999
 30
0.0
 11
91.756900000000016
 21
190.18899999999999
 31
0.0
  0
LINE
  5
E0
  8
0
 62
     7
 10
156.45699999999999
 20
194.38900000000001
 30
0.0
 11
156.45699999999999
 21
190.28899999999999
 31
0.0
  0
LINE
  5
E1
  8
0
  6
AIGENLINE002
 62
     7
 10
164.65700000000001
 20
197.53899999999999
 30
0.0
 11
164.65700000000001
 21
194.239
 31
0.0
  0
LINE
  5
E2
  8
0
 62
     7
 10
170.05699999999999
 20
194.38900000000001
 30
0.0
 11
170.05699999999999
 21
180.88900000000001
 31
0.0
  0
LINE
  5
E3
  8
0
 62
     7
 10
170.05699999999999
 20
180.88900000000001
 30
0.0
 11
171.65700000000001
 21
180.88900000000001
 31
0.0
  0
LINE
  5
E4
  8
0
 62
     7
 10
171.65700000000001
 20
194.38900000000001
 30
0.0
 11
171.65700000000001
 21
180.88900000000001
 31
0.0
  0
LINE
  5
E5
  8
0
  6
AIGENLINE003
 62
     7
 10
184.21199999999999
 20
194.78899999999999
 30
0.0
 11
66.806700000000006
 21
194.7879999999999
 31
0.0
  0
LINE
  5
E6
  8
0
 62
     7
 10
171.65700000000001
 20
194.38900000000001
 30
0.0
 11
91.656700000000001
 21
194.38900000000001
 31
0.0
  0
LINE
  5
E7
  8
0
 62
     7
 10
170.05699999999999
 20
190.18899999999999
 30
0.0
 11
156.55699999999999
 21
190.18899999999999
 31
0.0
  0
LINE
  5
E8
  8
0
 62
     7
 10
156.55699999999999
 20
190.18899999999999
 30
0.0
 11
156.45699999999999
 21
190.28899999999999
 31
0.0
  0
LINE
  5
E9
  8
0
 62
     7
 10
156.45699999999999
 20
190.589
 30
0.0
 11
91.656700000000001
 21
190.589
 31
0.0
  0
LINE
  5
EA
  8
0
 62
     7
 10
156.45699999999999
 20
190.489
 30
0.0
 11
91.656700000000001
 21
190.489
 31
0.0
  0
LINE
  5
EB
  8
0
 62
     7
 10
156.45699999999999
 20
190.28899999999999
 30
0.0
 11
91.656700000000001
 21
190.28899999999999
 31
0.0
  0
LINE
  5
EC
  8
0
 62
     7
 10
156.55699999999999
 20
190.18899999999999
 30
0.0
 11
91.756900000000016
 21
190.18899999999999
 31
0.0
  0
LINE
  5
ED
  8
0
 62
     7
 10
81.128399999999999
 20
187.97800000000001
 30
0.0
 11
81.7209
 21
190.18899999999999
 31
0.0
  0
LINE
  5
EE
  8
0
 62
     7
 10
81.7209
 20
190.18899999999999
 30
0.0
 11
82.313500000000005
 21
187.97800000000001
 31
0.0
  0
LINE
  5
EF
  8
0
 62
     7
 10
82.313500000000005
 20
187.97800000000001
 30
0.0
 11
81.128399999999999
 21
187.97800000000001
 31
0.0
  0
LINE
  5
F0
  8
0
 62
     7
 10
82.298999999999978
 20
197.001
 30
0.0
 11
81.706500000000005
 21
194.78899999999999
 31
0.0
  0
LINE
  5
F1
  8
0
 62
     7
 10
81.706500000000005
 20
194.78899999999999
 30
0.0
 11
81.113900000000001
 21
197.001
 31
0.0
  0
LINE
  5
F2
  8
0
 62
     7
 10
81.113900000000001
 20
197.001
 30
0.0
 11
82.298999999999978
 21
197.001
 31
0.0
  0
LINE
  5
F3
  8
0
 62
     7
 10
81.706500000000005
 20
186.84
 30
0.0
 11
81.706500000000005
 21
199.21299999999999
 31
0.0
  0
LINE
  5
F4
  8
0
 62
     7
 10
91.656700000000001
 20
194.38900000000001
 30
0.0
 11
81.006399999999999
 21
194.38900000000001
 31
0.0
  0
LINE
  5
F5
  8
0
 62
     7
 10
91.656700000000001
 20
190.18899999999999
 30
0.0
 11
81.006399999999999
 21
190.18899999999999
 31
0.0
  0
LINE
  5
F6
  8
0
 62
     7
 10
178.57900000000001
 20
197.001
 30
0.0
 11
179.172
 21
194.78899999999999
 31
0.0
  0
LINE
  5
F7
  8
0
 62
     7
 10
179.172
 20
194.78899999999999
 30
0.0
 11
179.76400000000001
 21
197.001
 31
0.0
  0
LINE
  5
F8
  8
0
 62
     7
 10
179.76400000000001
 20
197.001
 30
0.0
 11
178.57900000000001
 21
197.001
 31
0.0
  0
LINE
  5
F9
  8
0
 62
     7
 10
178.57900000000001
 20
183.101
 30
0.0
 11
179.172
 21
180.88900000000001
 31
0.0
  0
LINE
  5
FA
  8
0
 62
     7
 10
179.172
 20
180.88900000000001
 30
0.0
 11
179.76400000000001
 21
183.101
 31
0.0
  0
LINE
  5
FB
  8
0
 62
     7
 10
179.76400000000001
 20
183.101
 30
0.0
 11
178.57900000000001
 21
183.101
 31
0.0
  0
LINE
  5
FC
  8
0
 62
     7
 10
179.75
 20
192.17699999999999
 30
0.0
 11
179.15700000000001
 21
194.38900000000001
 31
0.0
  0
LINE
  5
FD
  8
0
 62
     7
 10
179.15700000000001
 20
194.38900000000001
 30
0.0
 11
178.565
 21
192.17699999999999
 31
0.0
  0
LINE
  5
FE
  8
0
 62
     7
 10
178.565
 20
192.17699999999999
 30
0.0
 11
179.75
 21
192.17699999999999
 31
0.0
  0
LINE
  5
FF
  8
0
 62
     7
 10
179.15700000000001
 20
180.88900000000001
 30
0.0
 11
179.15700000000001
 21
199.11099999999999
 31
0.0
  0
LINE
  5
100
  8
0
 62
     7
 10
179.857
 20
194.38900000000001
 30
0.0
 11
172.357
 21
194.38900000000001
 31
0.0
  0
LINE
  5
101
  8
0
 62
     7
 10
179.857
 20
180.88900000000001
 30
0.0
 11
172.357
 21
180.88900000000001
 31
0.0
  0
ARC
  5
102
  8
0
 62
     7
 10
51.631956000000002
 20
76.598893000000004
 30
0.0
 40
0.233577
 50
2.0750079999999991
 51
87.924982
  0
LINE
  5
103
  8
0
 62
     7
 10
50.265500000000003
 20
77.0321
 30
0.0
 11
51.165300000000002
 21
77.0321
 31
0.0
  0
LINE
  5
104
  8
0
 62
     7
 10
50.265500000000003
 20
76.932199999999995
 30
0.0
 11
51.165300000000002
 21
76.932199999999995
 31
0.0
  0
LINE
  5
105
  8
0
 62
     7
 10
51.165300000000002
 20
76.832300000000004
 30
0.0
 11
51.640399999999993
 21
76.832300000000004
 31
0.0
  0
LINE
  5
106
  8
0
 62
     7
 10
51.165300000000002
 20
77.307400000000001
 30
0.0
 11
51.165300000000002
 21
76.832300000000004
 31
0.0
  0
ARC
  5
107
  8
0
 62
     7
 10
51.631956000000002
 20
78.015557999999999
 30
0.0
 40
0.233577
 50
272.075018
 51
357.92499199999997
  0
LINE
  5
108
  8
0
 62
     7
 10
50.265500000000003
 20
77.582300000000004
 30
0.0
 11
51.165300000000002
 21
77.582300000000004
 31
0.0
  0
LINE
  5
109
  8
0
 62
     7
 10
50.265500000000003
 20
77.682199999999995
 30
0.0
 11
51.165300000000002
 21
77.682199999999995
 31
0.0
  0
LINE
  5
10A
  8
0
 62
     7
 10
51.556399999999996
 20
75.511099999999999
 30
0.0
 11
51.469900000000003
 21
75.659899999999993
 31
0.0
  0
LINE
  5
10B
  8
0
 62
     7
 10
51.865400000000001
 20
75.8904
 30
0.0
 11
51.469900000000003
 21
75.659899999999993
 31
0.0
  0
LINE
  5
10C
  8
0
 62
     7
 10
52.065399999999997
 20
75.807400000000001
 30
0.0
 11
51.556399999999996
 21
75.511099999999999
 31
0.0
  0
LINE
  5
10D
  8
0
 62
     7
 10
52.065399999999997
 20
77.307400000000001
 30
0.0
 11
52.065399999999997
 21
76.607399999999998
 31
0.0
  0
LINE
  5
10E
  8
0
 62
     7
 10
51.865400000000001
 20
77.307400000000001
 30
0.0
 11
51.865400000000001
 21
76.607399999999998
 31
0.0
  0
LINE
  5
10F
  8
0
 62
     7
 10
52.065399999999997
 20
76.607399999999998
 30
0.0
 11
52.065399999999997
 21
75.807400000000001
 31
0.0
  0
LINE
  5
110
  8
0
 62
     7
 10
51.865400000000001
 20
76.607399999999998
 30
0.0
 11
51.865400000000001
 21
75.8904
 31
0.0
  0
LINE
  5
111
  8
0
 62
     7
 10
51.865400000000001
 20
78.724699999999984
 30
0.0
 11
51.723599999999998
 21
78.866
 31
0.0
  0
LINE
  5
112
  8
0
 62
     7
 10
52.065399999999997
 20
78.807400000000001
 30
0.0
 11
51.865000000000002
 21
79.007599999999996
 31
0.0
  0
LINE
  5
113
  8
0
 62
     7
 10
51.865000000000002
 20
79.007599999999996
 30
0.0
 11
51.723599999999998
 21
78.866
 31
0.0
  0
ARC
  5
114
  8
0
 62
     7
 10
50.257804999999991
 20
76.199545000000001
 30
0.0
 40
0.207785
 50
2.0636959999999989
 51
87.886965000000004
  0
ARC
  5
115
  8
0
 62
     7
 10
50.257987
 20
76.214686
 30
0.0
 40
0.20761
 50
272.06471299999998
 51
357.88592499999999
  0
LINE
  5
116
  8
0
 62
     7
 10
49.465499999999999
 20
75.807400000000001
 30
0.0
 11
49.665500000000002
 21
75.807400000000001
 31
0.0
  0
LINE
  5
117
  8
0
 62
     7
 10
50.265500000000003
 20
76.607399999999998
 30
0.0
 11
50.265500000000003
 21
76.407499999999999
 31
0.0
  0
LINE
  5
118
  8
0
 62
     7
 10
50.265500000000003
 20
76.007599999999996
 30
0.0
 11
50.265500000000003
 21
75.807400000000001
 31
0.0
  0
LINE
  5
119
  8
0
 62
     7
 10
49.665500000000002
 20
76.607399999999998
 30
0.0
 11
49.665500000000002
 21
75.807400000000001
 31
0.0
  0
LINE
  5
11A
  8
0
 62
     7
 10
49.665500000000002
 20
76.007199999999983
 30
0.0
 11
50.265500000000003
 21
76.007199999999983
 31
0.0
  0
LINE
  5
11B
  8
0
 62
     7
 10
49.665500000000002
 20
75.807400000000001
 30
0.0
 11
50.265500000000003
 21
75.807400000000001
 31
0.0
  0
LINE
  5
11C
  8
0
 62
     7
 10
49.665500000000002
 20
76.407200000000003
 30
0.0
 11
50.265500000000003
 21
76.407200000000003
 31
0.0
  0
LINE
  5
11D
  8
0
 62
     7
 10
49.665500000000002
 20
76.607399999999998
 30
0.0
 11
50.265500000000003
 21
76.607399999999998
 31
0.0
  0
LINE
  5
11E
  8
0
 62
     7
 10
50.265500000000003
 20
77.307400000000001
 30
0.0
 11
50.265500000000003
 21
76.607399999999998
 31
0.0
  0
LINE
  5
11F
  8
0
 62
     7
 10
50.0655
 20
77.307400000000001
 30
0.0
 11
50.0655
 21
76.607399999999998
 31
0.0
  0
LINE
  5
120
  8
0
 62
     7
 10
49.865499999999997
 20
77.307400000000001
 30
0.0
 11
49.865499999999997
 21
76.607399999999998
 31
0.0
  0
LINE
  5
121
  8
0
 62
     7
 10
49.665500000000002
 20
77.307400000000001
 30
0.0
 11
49.665500000000002
 21
76.607399999999998
 31
0.0
  0
LINE
  5
122
  8
0
 62
     7
 10
49.465499999999999
 20
76.607399999999998
 30
0.0
 11
49.465499999999999
 21
75.807400000000001
 31
0.0
  0
LINE
  5
123
  8
0
 62
     7
 10
49.465499999999999
 20
77.307400000000001
 30
0.0
 11
49.465499999999999
 21
76.607399999999998
 31
0.0
  0
ARC
  5
124
  8
0
 62
     7
 10
50.257829999999998
 20
78.414895000000001
 30
0.0
 40
0.207773
 50
272.10643900000002
 51
357.8442
  0
ARC
  5
125
  8
0
 62
     7
 10
50.257648000000003
 20
78.399439999999998
 30
0.0
 40
0.207948
 50
2.105388
 51
87.845272999999978
  0
LINE
  5
126
  8
0
  6
AIGENLINE002
 62
     7
 10
48.76509999999999
 20
77.307400000000001
 30
0.0
 11
51.447499999999998
 21
77.307400000000001
 31
0.0
  0
LINE
  5
127
  8
0
 62
     7
 10
49.465499999999999
 20
78.807400000000001
 30
0.0
 11
49.665500000000002
 21
78.807400000000001
 31
0.0
  0
LINE
  5
128
  8
0
 62
     7
 10
50.265500000000003
 20
78.007400000000004
 30
0.0
 11
50.265500000000003
 21
78.207599999999985
 31
0.0
  0
LINE
  5
129
  8
0
 62
     7
 10
50.265500000000003
 20
78.607600000000005
 30
0.0
 11
50.265500000000003
 21
78.807400000000001
 31
0.0
  0
LINE
  5
12A
  8
0
 62
     7
 10
50.265500000000003
 20
75.807000000000002
 30
0.0
 11
50.7654
 21
76.407200000000003
 31
0.0
  0
LINE
  5
12B
  8
0
 62
     7
 10
50.7654
 20
76.407200000000003
 30
0.0
 11
51.865400000000001
 21
76.407200000000003
 31
0.0
  0
LINE
  5
12C
  8
0
 62
     7
 10
50.265500000000003
 20
78.807400000000001
 30
0.0
 11
50.7654
 21
78.207300000000004
 31
0.0
  0
LINE
  5
12D
  8
0
 62
     7
 10
49.665500000000002
 20
78.007400000000004
 30
0.0
 11
49.665500000000002
 21
78.807400000000001
 31
0.0
  0
LINE
  5
12E
  8
0
 62
     7
 10
49.665500000000002
 20
78.807400000000001
 30
0.0
 11
50.265500000000003
 21
78.807400000000001
 31
0.0
  0
LINE
  5
12F
  8
0
 62
     7
 10
49.665500000000002
 20
78.607200000000006
 30
0.0
 11
50.265500000000003
 21
78.607200000000006
 31
0.0
  0
LINE
  5
130
  8
0
 62
     7
 10
49.665500000000002
 20
78.207300000000004
 30
0.0
 11
50.265500000000003
 21
78.207300000000004
 31
0.0
  0
LINE
  5
131
  8
0
 62
     7
 10
49.665500000000002
 20
78.007400000000004
 30
0.0
 11
50.265500000000003
 21
78.007400000000004
 31
0.0
  0
LINE
  5
132
  8
0
 62
     7
 10
52.065399999999997
 20
77.307400000000001
 30
0.0
 11
52.065399999999997
 21
78.007400000000004
 31
0.0
  0
LINE
  5
133
  8
0
 62
     7
 10
51.865400000000001
 20
77.307400000000001
 30
0.0
 11
51.865400000000001
 21
78.007400000000004
 31
0.0
  0
LINE
  5
134
  8
0
 62
     7
 10
50.265500000000003
 20
77.307400000000001
 30
0.0
 11
50.265500000000003
 21
78.007400000000004
 31
0.0
  0
LINE
  5
135
  8
0
 62
     7
 10
50.7654
 20
78.207300000000004
 30
0.0
 11
51.865400000000001
 21
78.207300000000004
 31
0.0
  0
LINE
  5
136
  8
0
 62
     7
 10
51.165300000000002
 20
77.7821
 30
0.0
 11
51.640399999999993
 21
77.7821
 31
0.0
  0
LINE
  5
137
  8
0
 62
     7
 10
51.165300000000002
 20
77.307400000000001
 30
0.0
 11
51.165300000000002
 21
77.7821
 31
0.0
  0
LINE
  5
138
  8
0
 62
     7
 10
50.0655
 20
77.307400000000001
 30
0.0
 11
50.0655
 21
78.007400000000004
 31
0.0
  0
LINE
  5
139
  8
0
 62
     7
 10
49.865499999999997
 20
77.307400000000001
 30
0.0
 11
49.865499999999997
 21
78.007400000000004
 31
0.0
  0
LINE
  5
13A
  8
0
 62
     7
 10
49.665500000000002
 20
77.307400000000001
 30
0.0
 11
49.665500000000002
 21
78.007400000000004
 31
0.0
  0
LINE
  5
13B
  8
0
 62
     7
 10
52.065399999999997
 20
78.007400000000004
 30
0.0
 11
52.065399999999997
 21
78.807400000000001
 31
0.0
  0
LINE
  5
13C
  8
0
 62
     7
 10
51.865400000000001
 20
78.007400000000004
 30
0.0
 11
51.865400000000001
 21
78.724699999999984
 31
0.0
  0
LINE
  5
13D
  8
0
 62
     7
 10
49.465499999999999
 20
78.007400000000004
 30
0.0
 11
49.465499999999999
 21
78.807400000000001
 31
0.0
  0
LINE
  5
13E
  8
0
 62
     7
 10
49.465499999999999
 20
77.307400000000001
 30
0.0
 11
49.465499999999999
 21
78.007400000000004
 31
0.0
  0
ARC
  5
13F
  8
0
 62
     7
 10
51.631563
 20
171.21688
 30
0.0
 40
0.233983
 50
272.16753599999998
 51
357.8324740000001
  0
LINE
  5
140
  8
0
 62
     7
 10
50.265500000000003
 20
170.78299999999999
 30
0.0
 11
51.165300000000002
 21
170.78299999999999
 31
0.0
  0
LINE
  5
141
  8
0
 62
     7
 10
50.265500000000003
 20
170.88300000000001
 30
0.0
 11
51.165300000000002
 21
170.88300000000001
 31
0.0
  0
LINE
  5
142
  8
0
 62
     7
 10
51.165300000000002
 20
170.983
 30
0.0
 11
51.640399999999993
 21
170.983
 31
0.0
  0
LINE
  5
143
  8
0
 62
     7
 10
51.165300000000002
 20
170.50800000000001
 30
0.0
 11
51.165300000000002
 21
170.983
 31
0.0
  0
ARC
  5
144
  8
0
 62
     7
 10
51.631563
 20
169.79925800000001
 30
0.0
 40
0.233983
 50
2.1675259999999992
 51
87.832464000000016
  0
ARC
  5
145
  8
0
  6
AIGENLINE001
 62
     7
 10
166.15039899999999
 20
123.900502
 30
0.0
 40
0.197222
 50
2.1138689999999989
 51
87.990011999999993
  0
ARC
  5
146
  8
0
  6
AIGENLINE001
 62
     7
 10
166.150722
 20
123.914728
 30
0.0
 40
0.196888
 50
271.91945800000002
 51
357.97666099999998
  0
ARC
  5
147
  8
0
  6
AIGENLINE001
 62
     7
 10
166.16423399999999
 20
123.91505100000001
 30
0.0
 40
0.197222
 50
182.1138709999999
 51
267.990049
  0
ARC
  5
148
  8
0
  6
AIGENLINE001
 62
     7
 10
166.16391100000001
 20
123.900825
 30
0.0
 40
0.196888
 50
91.919421000000014
 51
177.97665900000001
  0
ARC
  5
149
  8
0
  6
AIGENLINE001
 62
     7
 10
166.14362399999999
 20
123.89408400000001
 30
0.0
 40
0.363974
 50
2.155996
 51
87.843993999999995
  0
ARC
  5
14A
  8
0
  6
AIGENLINE001
 62
     7
 10
166.14363399999999
 20
123.921459
 30
0.0
 40
0.363963
 50
272.15438599999999
 51
357.84562399999999
  0
ARC
  5
14B
  8
0
  6
AIGENLINE001
 62
     7
 10
166.17098799999999
 20
123.921448
 30
0.0
 40
0.363952
 50
182.15278000000001
 51
267.84724999999997
  0
ARC
  5
14C
  8
0
  6
AIGENLINE001
 62
     7
 10
166.17099899999999
 20
123.894094
 30
0.0
 40
0.363963
 50
92.154366000000024
 51
177.84560400000001
  0
ARC
  5
14D
  8
0
  6
AIGENLINE001
 62
     7
 10
164.645231
 20
123.895337
 30
0.0
 40
0.33753
 50
2.112079
 51
87.948637999999988
  0
ARC
  5
14E
  8
0
  6
AIGENLINE001
 62
     7
 10
164.64556300000001
 20
123.919883
 30
0.0
 40
0.337186
 50
271.99694499999998
 51
357.94233800000001
  0
ARC
  5
14F
  8
0
  6
AIGENLINE001
 62
     7
 10
164.669376
 20
123.920198
 30
0.0
 40
0.337511
 50
182.10911200000001
 51
267.95164399999999
  0
ARC
  5
150
  8
0
  6
AIGENLINE001
 62
     7
 10
164.669062
 20
123.89567
 30
0.0
 40
0.337186
 50
91.996907999999991
 51
177.94233500000001
  0
ARC
  5
151
  8
0
  6
AIGENLINE001
 62
     7
 10
164.64040700000001
 20
123.890871
 30
0.0
 40
0.467143
 50
2.0738970000000001
 51
87.926092999999995
  0
ARC
  5
152
  8
0
  6
AIGENLINE001
 62
     7
 10
164.64005900000001
 20
123.924672
 30
0.0
 40
0.467491
 50
272.11507499999999
 51
357.92878999999999
  0
ARC
  5
153
  8
0
  6
AIGENLINE001
 62
     7
 10
164.67424199999999
 20
123.92434900000001
 30
0.0
 40
0.4671560000000001
 50
182.032983
 51
267.92319300000003
  0
ARC
  5
154
  8
0
  6
AIGENLINE001
 62
     7
 10
164.674227
 20
123.890862
 30
0.0
 40
0.467153
 50
92.074980999999994
 51
177.92498900000001
  0
ARC
  5
155
  8
0
  6
AIGENLINE001
 62
     7
 10
164.691926
 20
123.873164
 30
0.0
 40
0.9351179999999999
 50
92.121250000000003
 51
177.87871999999999
  0
LINE
  5
156
  8
0
  6
AIGENLINE001
 62
     7
 10
169.65799999999999
 20
124.508
 30
0.0
 11
170.05699999999999
 21
124.508
 31
0.0
  0
LINE
  5
157
  8
0
  6
AIGENLINE001
 62
     7
 10
170.05699999999999
 20
123.908
 30
0.0
 11
170.05699999999999
 21
124.508
 31
0.0
  0
LINE
  5
158
  8
0
  6
AIGENLINE001
 62
     7
 10
169.65799999999999
 20
123.908
 30
0.0
 11
169.65799999999999
 21
124.508
 31
0.0
  0
LINE
  5
159
  8
0
  6
AIGENLINE001
 62
     7
 10
169.65799999999999
 20
124.208
 30
0.0
 11
168.357
 21
124.208
 31
0.0
  0
LINE
  5
15A
  8
0
  6
AIGENLINE001
 62
     7
 10
168.05699999999999
 20
124.208
 30
0.0
 11
167.15700000000001
 21
124.208
 31
0.0
  0
LINE
  5
15B
  8
0
  6
AIGENLINE001
 62
     7
 10
167.15700000000001
 20
124.208
 30
0.0
 11
167.15700000000001
 21
123.908
 31
0.0
  0
LINE
  5
15C
  8
0
  6
AIGENLINE001
 62
     7
 10
168.05699999999999
 20
124.508
 30
0.0
 11
168.05699999999999
 21
123.908
 31
0.0
  0
LINE
  5
15D
  8
0
  6
AIGENLINE001
 62
     7
 10
168.357
 20
124.80800000000001
 30
0.0
 11
168.357
 21
123.908
 31
0.0
  0
LINE
  5
15E
  8
0
  6
AIGENLINE001
 62
     7
 10
164.857
 20
124.508
 30
0.0
 11
168.05699999999999
 21
124.508
 31
0.0
  0
LINE
  5
15F
  8
0
  6
AIGENLINE001
 62
     7
 10
164.65700000000001
 20
124.80800000000001
 30
0.0
 11
168.357
 21
124.80800000000001
 31
0.0
  0
ARC
  5
160
  8
0
  6
AIGENLINE001
 62
     7
 10
164.69194999999999
 20
123.94205599999999
 30
0.0
 40
0.9351299999999998
 50
182.100797
 51
267.87730199999999
  0
LINE
  5
161
  8
0
  6
AIGENLINE001
 62
     7
 10
169.65799999999999
 20
123.30800000000001
 30
0.0
 11
170.05699999999999
 21
123.30800000000001
 31
0.0
  0
LINE
  5
162
  8
0
  6
AIGENLINE001
 62
     7
 10
170.05699999999999
 20
123.908
 30
0.0
 11
170.05699999999999
 21
123.30800000000001
 31
0.0
  0
LINE
  5
163
  8
0
  6
AIGENLINE001
 62
     7
 10
169.65799999999999
 20
123.908
 30
0.0
 11
169.65799999999999
 21
123.30800000000001
 31
0.0
  0
LINE
  5
164
  8
0
  6
AIGENLINE001
 62
     7
 10
169.65799999999999
 20
123.608
 30
0.0
 11
168.357
 21
123.608
 31
0.0
  0
LINE
  5
165
  8
0
  6
AIGENLINE001
 62
     7
 10
168.05699999999999
 20
123.608
 30
0.0
 11
167.15700000000001
 21
123.608
 31
0.0
  0
LINE
  5
166
  8
0
  6
AIGENLINE001
 62
     7
 10
167.15700000000001
 20
123.608
 30
0.0
 11
167.15700000000001
 21
123.908
 31
0.0
  0
LINE
  5
167
  8
0
  6
AIGENLINE001
 62
     7
 10
168.05699999999999
 20
123.30800000000001
 30
0.0
 11
168.05699999999999
 21
123.908
 31
0.0
  0
LINE
  5
168
  8
0
  6
AIGENLINE001
 62
     7
 10
168.357
 20
123.008
 30
0.0
 11
168.357
 21
123.908
 31
0.0
  0
LINE
  5
169
  8
0
  6
AIGENLINE001
 62
     7
 10
164.857
 20
123.30800000000001
 30
0.0
 11
168.05699999999999
 21
123.30800000000001
 31
0.0
  0
LINE
  5
16A
  8
0
  6
AIGENLINE001
 62
     7
 10
164.65700000000001
 20
123.008
 30
0.0
 11
168.357
 21
123.008
 31
0.0
  0
LINE
  5
16B
  8
0
 62
     7
 10
81.656899999999993
 20
180.06899999999999
 30
0.0
 11
85.430599999999998
 21
182.24700000000001
 31
0.0
  0
LINE
  5
16C
  8
0
 62
     7
 10
85.430599999999998
 20
182.24700000000001
 30
0.0
 11
85.430599999999998
 21
177.88999999999999
 31
0.0
  0
LINE
  5
16D
  8
0
 62
     7
 10
81.656899999999993
 20
180.06899999999999
 30
0.0
 11
85.430599999999998
 21
177.88999999999999
 31
0.0
  0
LINE
  5
16E
  8
0
 62
     7
 10
71.637100000000004
 20
84.258600000000001
 30
0.0
 11
71.637100000000004
 21
69.385400000000004
 31
0.0
  0
LINE
  5
16F
  8
0
 62
     7
 10
79.496399999999994
 20
63.134900000000002
 30
0.0
 11
81.646000000000001
 21
62.347000000000001
 31
0.0
  0
LINE
  5
170
  8
0
 62
     7
 10
81.646000000000001
 20
62.347000000000001
 30
0.0
 11
80.178700000000006
 21
64.104299999999995
 31
0.0
  0
LINE
  5
171
  8
0
 62
     7
 10
80.178700000000006
 20
64.104299999999995
 30
0.0
 11
79.496399999999994
 21
63.134900000000002
 31
0.0
  0
LINE
  5
172
  8
0
 62
     7
 10
81.656899999999993
 20
62.348399999999998
 30
0.0
 11
71.637100000000004
 21
69.385400000000004
 31
0.0
  0
LINE
  5
173
  8
0
 62
     7
 10
49.0655
 20
183.1279999999999
 30
0.0
 11
52.839300000000001
 21
185.30600000000001
 31
0.0
  0
LINE
  5
174
  8
0
 62
     7
 10
52.839300000000001
 20
185.30600000000001
 30
0.0
 11
52.839300000000001
 21
180.94900000000001
 31
0.0
  0
LINE
  5
175
  8
0
 62
     7
 10
49.0655
 20
183.1279999999999
 30
0.0
 11
52.839300000000001
 21
180.94900000000001
 31
0.0
  0
LINE
  5
176
  8
0
 62
     7
 10
50.0655
 20
85.507499999999979
 30
0.0
 11
50.0655
 21
78.807400000000001
 31
0.0
  0
LINE
  5
177
  8
0
 62
     7
 10
49.865499999999997
 20
85.507499999999979
 30
0.0
 11
49.865499999999997
 21
78.807400000000001
 31
0.0
  0
LINE
  5
178
  8
0
 62
     7
 10
49.465499999999999
 20
85.507499999999979
 30
0.0
 11
49.465499999999999
 21
78.807400000000001
 31
0.0
  0
LINE
  5
179
  8
0
 62
     7
 10
50.0655
 20
85.507499999999979
 30
0.0
 11
49.465499999999999
 21
85.507499999999979
 31
0.0
  0
LINE
  5
17A
  8
0
 62
     7
 10
44.115400000000001
 20
163.608
 30
0.0
 11
35.915300000000002
 21
163.608
 31
0.0
  0
LINE
  5
17B
  8
0
 62
     7
 10
36.022799999999997
 20
79.018900000000002
 30
0.0
 11
36.615400000000001
 21
76.807500000000005
 31
0.0
  0
LINE
  5
17C
  8
0
 62
     7
 10
36.615400000000001
 20
76.807500000000005
 30
0.0
 11
37.207999999999998
 21
79.018900000000002
 31
0.0
  0
LINE
  5
17D
  8
0
 62
     7
 10
37.207999999999998
 20
79.018900000000002
 30
0.0
 11
36.022799999999997
 21
79.018900000000002
 31
0.0
  0
LINE
  5
17E
  8
0
 62
     7
 10
37.1935
 20
71.695599999999999
 30
0.0
 11
36.600900000000003
 21
73.907399999999996
 31
0.0
  0
LINE
  5
17F
  8
0
 62
     7
 10
36.600900000000003
 20
73.907399999999996
 30
0.0
 11
36.008400000000002
 21
71.695599999999999
 31
0.0
  0
LINE
  5
180
  8
0
 62
     7
 10
36.008400000000002
 20
71.695599999999999
 30
0.0
 11
37.1935
 21
71.695599999999999
 31
0.0
  0
LINE
  5
181
  8
0
 62
     7
 10
37.1935
 20
168.79599999999999
 30
0.0
 11
36.600900000000003
 21
171.00800000000001
 31
0.0
  0
LINE
  5
182
  8
0
 62
     7
 10
36.600900000000003
 20
171.00800000000001
 30
0.0
 11
36.008400000000002
 21
168.79599999999999
 31
0.0
  0
LINE
  5
183
  8
0
 62
     7
 10
36.008400000000002
 20
168.79599999999999
 30
0.0
 11
37.1935
 21
168.79599999999999
 31
0.0
  0
LINE
  5
184
  8
0
 62
     7
 10
37.1935
 20
176.12
 30
0.0
 11
36.600900000000003
 21
173.90799999999999
 31
0.0
  0
LINE
  5
185
  8
0
 62
     7
 10
36.600900000000003
 20
173.90799999999999
 30
0.0
 11
36.008400000000002
 21
176.12
 31
0.0
  0
LINE
  5
186
  8
0
 62
     7
 10
36.008400000000002
 20
176.12
 30
0.0
 11
37.1935
 21
176.12
 31
0.0
  0
LINE
  5
187
  8
0
 62
     7
 10
37.1935
 20
165.81999999999999
 30
0.0
 11
36.600900000000003
 21
163.608
 31
0.0
  0
LINE
  5
188
  8
0
 62
     7
 10
36.600900000000003
 20
163.608
 30
0.0
 11
36.008400000000002
 21
165.81999999999999
 31
0.0
  0
LINE
  5
189
  8
0
 62
     7
 10
36.008400000000002
 20
165.81999999999999
 30
0.0
 11
37.1935
 21
165.81999999999999
 31
0.0
  0
LINE
  5
18A
  8
0
 62
     7
 10
37.1935
 20
161.39599999999999
 30
0.0
 11
36.600900000000003
 21
163.608
 31
0.0
  0
LINE
  5
18B
  8
0
 62
     7
 10
36.600900000000003
 20
163.608
 30
0.0
 11
36.008400000000002
 21
161.39599999999999
 31
0.0
  0
LINE
  5
18C
  8
0
 62
     7
 10
36.008400000000002
 20
161.39599999999999
 30
0.0
 11
37.1935
 21
161.39599999999999
 31
0.0
  0
LINE
  5
18D
  8
0
 62
     7
 10
37.1935
 20
81.995900000000006
 30
0.0
 11
36.600900000000003
 21
84.207599999999985
 31
0.0
  0
LINE
  5
18E
  8
0
 62
     7
 10
36.600900000000003
 20
84.207599999999985
 30
0.0
 11
36.008400000000002
 21
81.995900000000006
 31
0.0
  0
LINE
  5
18F
  8
0
 62
     7
 10
36.008400000000002
 20
81.995900000000006
 30
0.0
 11
37.1935
 21
81.995900000000006
 31
0.0
  0
LINE
  5
190
  8
0
 62
     7
 10
36.600900000000003
 20
67.407499999999999
 30
0.0
 11
36.600900000000003
 21
180.40799999999999
 31
0.0
  0
LINE
  5
191
  8
0
 62
     7
 10
45.837600000000002
 20
123.908
 30
0.0
 11
37.303400000000003
 21
123.908
 31
0.0
  0
LINE
  5
192
  8
0
 62
     7
 10
31.5883
 20
123.908
 30
0.0
 11
27.742999999999999
 21
123.908
 31
0.0
  0
LINE
  5
193
  8
0
 62
     7
 10
49.165399999999998
 20
73.907399999999996
 30
0.0
 11
28.415299999999998
 21
73.907399999999996
 31
0.0
  0
LINE
  5
194
  8
0
 62
     7
 10
49.16579999999999
 20
173.90799999999999
 30
0.0
 11
28.415299999999998
 21
173.90799999999999
 31
0.0
  0
LINE
  5
195
  8
0
 62
     7
 10
44.115400000000001
 20
171.00800000000001
 30
0.0
 11
35.915300000000002
 21
171.00800000000001
 31
0.0
  0
LINE
  5
196
  8
0
 62
     7
 10
44.115400000000001
 20
84.207599999999985
 30
0.0
 11
35.915300000000002
 21
84.207599999999985
 31
0.0
  0
LINE
  5
197
  8
0
 62
     7
 10
44.115400000000001
 20
76.807500000000005
 30
0.0
 11
35.915300000000002
 21
76.807500000000005
 31
0.0
  0
LINE
  5
198
  8
0
 62
     7
 10
76.734999999999999
 20
171.696
 30
0.0
 11
76.142399999999995
 21
173.90799999999999
 31
0.0
  0
LINE
  5
199
  8
0
 62
     7
 10
76.142399999999995
 20
173.90799999999999
 30
0.0
 11
75.549899999999994
 21
171.696
 31
0.0
  0
LINE
  5
19A
  8
0
 62
     7
 10
75.549899999999994
 20
171.696
 30
0.0
 11
76.734999999999999
 21
171.696
 31
0.0
  0
LINE
  5
19B
  8
0
 62
     7
 10
76.734999999999999
 20
76.119200000000006
 30
0.0
 11
76.142399999999995
 21
73.907399999999996
 31
0.0
  0
LINE
  5
19C
  8
0
 62
     7
 10
76.142399999999995
 20
73.907399999999996
 30
0.0
 11
75.549899999999994
 21
76.119200000000006
 31
0.0
  0
LINE
  5
19D
  8
0
 62
     7
 10
75.549899999999994
 20
76.119200000000006
 30
0.0
 11
76.734999999999999
 21
76.119200000000006
 31
0.0
  0
LINE
  5
19E
  8
0
 62
     7
 10
76.142399999999995
 20
73.907399999999996
 30
0.0
 11
76.142399999999995
 21
173.90799999999999
 31
0.0
  0
LINE
  5
19F
  8
0
 62
     7
 10
81.656899999999993
 20
68.957800000000006
 30
0.0
 11
81.656899999999993
 21
60.907600000000002
 31
0.0
  0
LINE
  5
1A0
  8
0
 62
     7
 10
90.956799999999987
 20
73.907399999999996
 30
0.0
 11
75.456900000000005
 21
73.907399999999996
 31
0.0
  0
LINE
  5
1A1
  8
0
 62
     7
 10
90.956799999999987
 20
173.90799999999999
 30
0.0
 11
75.456900000000005
 21
173.90799999999999
 31
0.0
  0
LINE
  5
1A2
  8
0
 62
     7
 10
154.345
 20
66.514899999999983
 30
0.0
 11
156.55699999999999
 21
67.107399999999998
 31
0.0
  0
LINE
  5
1A3
  8
0
 62
     7
 10
156.55699999999999
 20
67.107399999999998
 30
0.0
 11
154.345
 21
67.700000000000003
 31
0.0
  0
LINE
  5
1A4
  8
0
 62
     7
 10
154.345
 20
67.700000000000003
 30
0.0
 11
154.345
 21
66.514899999999983
 31
0.0
  0
LINE
  5
1A5
  8
0
 62
     7
 10
167.845
 20
66.514899999999983
 30
0.0
 11
170.05699999999999
 21
67.107399999999998
 31
0.0
  0
LINE
  5
1A6
  8
0
 62
     7
 10
170.05699999999999
 20
67.107399999999998
 30
0.0
 11
167.845
 21
67.700000000000003
 31
0.0
  0
LINE
  5
1A7
  8
0
 62
     7
 10
167.845
 20
67.700000000000003
 30
0.0
 11
167.845
 21
66.514899999999983
 31
0.0
  0
LINE
  5
1A8
  8
0
 62
     7
 10
173.869
 20
67.685500000000005
 30
0.0
 11
171.65700000000001
 21
67.093000000000004
 31
0.0
  0
LINE
  5
1A9
  8
0
 62
     7
 10
171.65700000000001
 20
67.093000000000004
 30
0.0
 11
173.869
 21
66.500399999999999
 31
0.0
  0
LINE
  5
1AA
  8
0
 62
     7
 10
173.869
 20
66.500399999999999
 30
0.0
 11
173.869
 21
67.685500000000005
 31
0.0
  0
LINE
  5
1AB
  8
0
 62
     7
 10
93.868399999999994
 20
67.685500000000005
 30
0.0
 11
91.656800000000004
 21
67.093000000000004
 31
0.0
  0
LINE
  5
1AC
  8
0
 62
     7
 10
91.656800000000004
 20
67.093000000000004
 30
0.0
 11
93.868399999999994
 21
66.500399999999999
 31
0.0
  0
LINE
  5
1AD
  8
0
 62
     7
 10
93.868399999999994
 20
66.500399999999999
 30
0.0
 11
93.868399999999994
 21
67.685500000000005
 31
0.0
  0
LINE
  5
1AE
  8
0
 62
     7
 10
158.76900000000001
 20
67.685500000000005
 30
0.0
 11
156.55699999999999
 21
67.093000000000004
 31
0.0
  0
LINE
  5
1AF
  8
0
 62
     7
 10
156.55699999999999
 20
67.093000000000004
 30
0.0
 11
158.76900000000001
 21
66.500399999999999
 31
0.0
  0
LINE
  5
1B0
  8
0
 62
     7
 10
158.76900000000001
 20
66.500399999999999
 30
0.0
 11
158.76900000000001
 21
67.685500000000005
 31
0.0
  0
LINE
  5
1B1
  8
0
 62
     7
 10
178.00700000000001
 20
67.107399999999998
 30
0.0
 11
91.656800000000004
 21
67.107399999999998
 31
0.0
  0
LINE
  5
1B2
  8
0
 62
     7
 10
169.44499999999999
 20
61.015099999999997
 30
0.0
 11
171.65700000000001
 21
61.607700000000001
 31
0.0
  0
LINE
  5
1B3
  8
0
 62
     7
 10
171.65700000000001
 20
61.607700000000001
 30
0.0
 11
169.44499999999999
 21
62.200200000000002
 31
0.0
  0
LINE
  5
1B4
  8
0
 62
     7
 10
169.44499999999999
 20
62.200200000000002
 30
0.0
 11
169.44499999999999
 21
61.015099999999997
 31
0.0
  0
LINE
  5
1B5
  8
0
 62
     7
 10
89.445099999999996
 20
62.18569999999999
 30
0.0
 11
91.656800000000004
 21
61.59320000000001
 31
0.0
  0
LINE
  5
1B6
  8
0
 62
     7
 10
91.656800000000004
 20
61.59320000000001
 30
0.0
 11
89.445099999999996
 21
61.000599999999999
 31
0.0
  0
LINE
  5
1B7
  8
0
 62
     7
 10
89.445099999999996
 20
61.000599999999999
 30
0.0
 11
89.445099999999996
 21
62.18569999999999
 31
0.0
  0
LINE
  5
1B8
  8
0
 62
     7
 10
83.868600000000001
 20
62.18569999999999
 30
0.0
 11
81.656899999999993
 21
61.59320000000001
 31
0.0
  0
LINE
  5
1B9
  8
0
 62
     7
 10
81.656899999999993
 20
61.59320000000001
 30
0.0
 11
83.868600000000001
 21
61.000599999999999
 31
0.0
  0
LINE
  5
1BA
  8
0
 62
     7
 10
83.868600000000001
 20
61.000599999999999
 30
0.0
 11
83.868600000000001
 21
62.18569999999999
 31
0.0
  0
LINE
  5
1BB
  8
0
 62
     7
 10
93.868399999999994
 20
62.18569999999999
 30
0.0
 11
91.656800000000004
 21
61.59320000000001
 31
0.0
  0
LINE
  5
1BC
  8
0
 62
     7
 10
91.656800000000004
 20
61.59320000000001
 30
0.0
 11
93.868399999999994
 21
61.000599999999999
 31
0.0
  0
LINE
  5
1BD
  8
0
 62
     7
 10
93.868399999999994
 20
61.000599999999999
 30
0.0
 11
93.868399999999994
 21
62.18569999999999
 31
0.0
  0
LINE
  5
1BE
  8
0
 62
     7
 10
171.65700000000001
 20
61.607700000000001
 30
0.0
 11
81.656899999999993
 21
61.607700000000001
 31
0.0
  0
LINE
  5
1BF
  8
0
 62
     7
 10
91.656800000000004
 20
73.207400000000007
 30
0.0
 11
91.656800000000004
 21
60.907600000000002
 31
0.0
  0
LINE
  5
1C0
  8
0
 62
     7
 10
171.65700000000001
 20
73.207400000000007
 30
0.0
 11
171.65700000000001
 21
60.907600000000002
 31
0.0
  0
LINE
  5
1C1
  8
0
 62
     7
 10
156.55699999999999
 20
73.207400000000007
 30
0.0
 11
156.55699999999999
 21
66.407399999999996
 31
0.0
  0
LINE
  5
1C2
  8
0
 62
     7
 10
170.05699999999999
 20
73.207400000000007
 30
0.0
 11
170.05699999999999
 21
66.407399999999996
 31
0.0
  0
LINE
  5
1C3
  8
0
 62
     7
 10
27.962599999999998
 20
126.12
 30
0.0
 11
28.555199999999999
 21
123.908
 31
0.0
  0
LINE
  5
1C4
  8
0
 62
     7
 10
28.555199999999999
 20
123.908
 30
0.0
 11
29.1478
 21
126.12
 31
0.0
  0
LINE
  5
1C5
  8
0
 62
     7
 10
29.1478
 20
126.12
 30
0.0
 11
27.962599999999998
 21
126.12
 31
0.0
  0
LINE
  5
1C6
  8
0
 62
     7
 10
27.962599999999998
 20
76.119200000000006
 30
0.0
 11
28.555199999999999
 21
73.907399999999996
 31
0.0
  0
LINE
  5
1C7
  8
0
 62
     7
 10
28.555199999999999
 20
73.907399999999996
 30
0.0
 11
29.1478
 21
76.119200000000006
 31
0.0
  0
LINE
  5
1C8
  8
0
 62
     7
 10
29.1478
 20
76.119200000000006
 30
0.0
 11
27.962599999999998
 21
76.119200000000006
 31
0.0
  0
LINE
  5
1C9
  8
0
 62
     7
 10
29.133299999999998
 20
121.696
 30
0.0
 11
28.540700000000001
 21
123.908
 31
0.0
  0
LINE
  5
1CA
  8
0
 62
     7
 10
28.540700000000001
 20
123.908
 30
0.0
 11
27.9482
 21
121.696
 31
0.0
  0
LINE
  5
1CB
  8
0
 62
     7
 10
27.9482
 20
121.696
 30
0.0
 11
29.133299999999998
 21
121.696
 31
0.0
  0
LINE
  5
1CC
  8
0
 62
     7
 10
29.133299999999998
 20
171.696
 30
0.0
 11
28.540700000000001
 21
173.90799999999999
 31
0.0
  0
LINE
  5
1CD
  8
0
 62
     7
 10
28.540700000000001
 20
173.90799999999999
 30
0.0
 11
27.9482
 21
171.696
 31
0.0
  0
LINE
  5
1CE
  8
0
 62
     7
 10
27.9482
 20
171.696
 30
0.0
 11
29.133299999999998
 21
171.696
 31
0.0
  0
LINE
  5
1CF
  8
0
 62
     7
 10
28.555199999999999
 20
73.907399999999996
 30
0.0
 11
28.555199999999999
 21
173.90799999999999
 31
0.0
  0
LINE
  5
1D0
  8
0
 62
     7
 10
46.811599999999999
 20
123.76900000000001
 30
0.0
 11
46.465299999999999
 21
123.908
 31
0.0
  0
LINE
  5
1D1
  8
0
 62
     7
 10
46.811599999999999
 20
124.04600000000001
 30
0.0
 11
46.465299999999999
 21
123.908
 31
0.0
  0
LINE
  5
1D2
  8
0
 62
     7
 10
49.465499999999999
 20
124.04600000000001
 30
0.0
 11
46.811599999999999
 21
124.04600000000001
 31
0.0
  0
LINE
  5
1D3
  8
0
 62
     7
 10
49.465499999999999
 20
123.76900000000001
 30
0.0
 11
46.811599999999999
 21
123.76900000000001
 31
0.0
  0
LINE
  5
1D4
  8
0
 62
     7
 10
47.333199999999991
 20
124.13200000000001
 30
0.0
 11
47.155900000000003
 21
123.682
 31
0.0
  0
LINE
  5
1D5
  8
0
 62
     7
 10
47.6785
 20
124.13200000000001
 30
0.0
 11
47.501100000000001
 21
123.682
 31
0.0
  0
LINE
  5
1D6
  8
0
 62
     7
 10
48.023699999999991
 20
124.13200000000001
 30
0.0
 11
47.846299999999992
 21
123.682
 31
0.0
  0
LINE
  5
1D7
  8
0
 62
     7
 10
48.368899999999996
 20
124.13200000000001
 30
0.0
 11
48.191499999999998
 21
123.682
 31
0.0
  0
LINE
  5
1D8
  8
0
 62
     7
 10
48.714100000000002
 20
124.13200000000001
 30
0.0
 11
48.53670000000001
 21
123.682
 31
0.0
  0
LINE
  5
1D9
  8
0
 62
     7
 10
49.0593
 20
124.13200000000001
 30
0.0
 11
48.881900000000002
 21
123.682
 31
0.0
  0
LINE
  5
1DA
  8
0
 62
     7
 10
49.404499999999999
 20
124.13200000000001
 30
0.0
 11
49.2271
 21
123.682
 31
0.0
  0
LINE
  5
1DB
  8
0
 62
     7
 10
46.988
 20
124.13200000000001
 30
0.0
 11
46.81049999999999
 21
123.682
 31
0.0
  0
LINE
  5
1DC
  8
0
 62
     7
 10
45.365499999999997
 20
163.44800000000001
 30
0.0
 11
44.965299999999992
 21
163.608
 31
0.0
  0
LINE
  5
1DD
  8
0
 62
     7
 10
45.365499999999997
 20
163.768
 30
0.0
 11
44.965299999999992
 21
163.608
 31
0.0
  0
LINE
  5
1DE
  8
0
 62
     7
 10
45.365499999999997
 20
84.047399999999996
 30
0.0
 11
44.965299999999992
 21
84.207599999999985
 31
0.0
  0
LINE
  5
1DF
  8
0
 62
     7
 10
45.365499999999997
 20
84.367500000000007
 30
0.0
 11
44.965299999999992
 21
84.207599999999985
 31
0.0
  0
LINE
  5
1E0
  8
0
  6
AIGENLINE002
 62
     7
 10
49.615400000000001
 20
163.608
 30
0.0
 11
44.8155
 21
163.608
 31
0.0
  0
LINE
  5
1E1
  8
0
 62
     7
 10
48.465400000000002
 20
163.768
 30
0.0
 11
45.365499999999997
 21
163.768
 31
0.0
  0
LINE
  5
1E2
  8
0
 62
     7
 10
49.465499999999999
 20
163.768
 30
0.0
 11
48.465400000000002
 21
163.768
 31
0.0
  0
LINE
  5
1E3
  8
0
 62
     7
 10
48.465400000000002
 20
163.44800000000001
 30
0.0
 11
45.365499999999997
 21
163.44800000000001
 31
0.0
  0
LINE
  5
1E4
  8
0
 62
     7
 10
45.968200000000003
 20
163.86799999999999
 30
0.0
 11
45.763199999999991
 21
163.34800000000001
 31
0.0
  0
LINE
  5
1E5
  8
0
 62
     7
 10
46.367099999999994
 20
163.86799999999999
 30
0.0
 11
46.162199999999999
 21
163.34800000000001
 31
0.0
  0
LINE
  5
1E6
  8
0
 62
     7
 10
46.766100000000002
 20
163.86799999999999
 30
0.0
 11
46.561100000000003
 21
163.34800000000001
 31
0.0
  0
LINE
  5
1E7
  8
0
 62
     7
 10
47.164999999999992
 20
163.86799999999999
 30
0.0
 11
46.960000000000001
 21
163.34800000000001
 31
0.0
  0
LINE
  5
1E8
  8
0
 62
     7
 10
47.563999999999993
 20
163.86799999999999
 30
0.0
 11
47.358999999999988
 21
163.34800000000001
 31
0.0
  0
LINE
  5
1E9
  8
0
 62
     7
 10
47.962899999999991
 20
163.86799999999999
 30
0.0
 11
47.757899999999992
 21
163.34800000000001
 31
0.0
  0
LINE
  5
1EA
  8
0
 62
     7
 10
48.361899999999999
 20
163.86799999999999
 30
0.0
 11
48.1569
 21
163.34800000000001
 31
0.0
  0
LINE
  5
1EB
  8
0
 62
     7
 10
45.569299999999998
 20
163.86799999999999
 30
0.0
 11
45.3643
 21
163.34800000000001
 31
0.0
  0
LINE
  5
1EC
  8
0
 62
     7
 10
48.465400000000002
 20
163.768
 30
0.0
 11
48.465400000000002
 21
163.44800000000001
 31
0.0
  0
LINE
  5
1ED
  8
0
 62
     7
 10
49.465499999999999
 20
163.44800000000001
 30
0.0
 11
48.465400000000002
 21
163.44800000000001
 31
0.0
  0
LINE
  5
1EE
  8
0
  6
AIGENLINE002
 62
     7
 10
49.615400000000001
 20
171.00800000000001
 30
0.0
 11
44.8155
 21
171.00800000000001
 31
0.0
  0
LINE
  5
1EF
  8
0
 62
     7
 10
48.465400000000002
 20
171.16800000000001
 30
0.0
 11
45.365499999999997
 21
171.16800000000001
 31
0.0
  0
LINE
  5
1F0
  8
0
 62
     7
 10
45.365499999999997
 20
171.16800000000001
 30
0.0
 11
44.965299999999992
 21
171.00800000000001
 31
0.0
  0
LINE
  5
1F1
  8
0
 62
     7
 10
49.465499999999999
 20
171.16800000000001
 30
0.0
 11
48.465400000000002
 21
171.16800000000001
 31
0.0
  0
LINE
  5
1F2
  8
0
 62
     7
 10
45.365499999999997
 20
170.8479999999999
 30
0.0
 11
44.965299999999992
 21
171.00800000000001
 31
0.0
  0
LINE
  5
1F3
  8
0
 62
     7
 10
48.465400000000002
 20
170.8479999999999
 30
0.0
 11
45.365499999999997
 21
170.8479999999999
 31
0.0
  0
LINE
  5
1F4
  8
0
 62
     7
 10
45.170299999999997
 20
171.268
 30
0.0
 11
44.965299999999992
 21
170.74799999999999
 31
0.0
  0
LINE
  5
1F5
  8
0
 62
     7
 10
45.968200000000003
 20
171.268
 30
0.0
 11
45.763199999999991
 21
170.74799999999999
 31
0.0
  0
LINE
  5
1F6
  8
0
 62
     7
 10
46.367099999999994
 20
171.268
 30
0.0
 11
46.162199999999999
 21
170.74799999999999
 31
0.0
  0
LINE
  5
1F7
  8
0
 62
     7
 10
46.766100000000002
 20
171.268
 30
0.0
 11
46.561100000000003
 21
170.74799999999999
 31
0.0
  0
LINE
  5
1F8
  8
0
 62
     7
 10
47.164999999999992
 20
171.268
 30
0.0
 11
46.960000000000001
 21
170.74799999999999
 31
0.0
  0
LINE
  5
1F9
  8
0
 62
     7
 10
47.563999999999993
 20
171.268
 30
0.0
 11
47.358999999999988
 21
170.74799999999999
 31
0.0
  0
LINE
  5
1FA
  8
0
 62
     7
 10
47.962899999999991
 20
171.268
 30
0.0
 11
47.757899999999992
 21
170.74799999999999
 31
0.0
  0
LINE
  5
1FB
  8
0
 62
     7
 10
48.361899999999999
 20
171.268
 30
0.0
 11
48.1569
 21
170.74799999999999
 31
0.0
  0
LINE
  5
1FC
  8
0
 62
     7
 10
45.569299999999998
 20
171.268
 30
0.0
 11
45.3643
 21
170.74799999999999
 31
0.0
  0
LINE
  5
1FD
  8
0
 62
     7
 10
48.465400000000002
 20
171.16800000000001
 30
0.0
 11
48.465400000000002
 21
170.8479999999999
 31
0.0
  0
LINE
  5
1FE
  8
0
 62
     7
 10
49.465499999999999
 20
170.8479999999999
 30
0.0
 11
48.465400000000002
 21
170.8479999999999
 31
0.0
  0
LINE
  5
1FF
  8
0
 62
     7
 10
50.265500000000003
 20
170.233
 30
0.0
 11
51.165300000000002
 21
170.233
 31
0.0
  0
LINE
  5
200
  8
0
 62
     7
 10
50.265500000000003
 20
170.13300000000001
 30
0.0
 11
51.165300000000002
 21
170.13300000000001
 31
0.0
  0
LINE
  5
201
  8
0
 62
     7
 10
51.556399999999996
 20
172.304
 30
0.0
 11
51.469900000000003
 21
172.155
 31
0.0
  0
LINE
  5
202
  8
0
 62
     7
 10
51.865400000000001
 20
171.92500000000001
 30
0.0
 11
51.469900000000003
 21
172.155
 31
0.0
  0
LINE
  5
203
  8
0
 62
     7
 10
52.065399999999997
 20
172.00800000000001
 30
0.0
 11
51.556399999999996
 21
172.304
 31
0.0
  0
LINE
  5
204
  8
0
 62
     7
 10
52.065399999999997
 20
170.50800000000001
 30
0.0
 11
52.065399999999997
 21
171.208
 31
0.0
  0
LINE
  5
205
  8
0
 62
     7
 10
51.865400000000001
 20
170.50800000000001
 30
0.0
 11
51.865400000000001
 21
171.208
 31
0.0
  0
LINE
  5
206
  8
0
 62
     7
 10
52.065399999999997
 20
171.208
 30
0.0
 11
52.065399999999997
 21
172.00800000000001
 31
0.0
  0
LINE
  5
207
  8
0
 62
     7
 10
51.865400000000001
 20
171.208
 30
0.0
 11
51.865400000000001
 21
171.92500000000001
 31
0.0
  0
LINE
  5
208
  8
0
 62
     7
 10
51.865400000000001
 20
169.09100000000001
 30
0.0
 11
51.723599999999998
 21
168.94900000000001
 31
0.0
  0
LINE
  5
209
  8
0
 62
     7
 10
52.065399999999997
 20
169.00800000000001
 30
0.0
 11
51.865000000000002
 21
168.80799999999999
 31
0.0
  0
LINE
  5
20A
  8
0
 62
     7
 10
51.865000000000002
 20
168.80799999999999
 30
0.0
 11
51.723599999999998
 21
168.94900000000001
 31
0.0
  0
ARC
  5
20B
  8
0
 62
     7
 10
50.257412000000002
 20
171.61605599999999
 30
0.0
 40
0.208192
 50
272.21713
 51
357.83220999999998
  0
ARC
  5
20C
  8
0
 62
     7
 10
50.257992000000002
 20
171.600528
 30
0.0
 40
0.207605
 50
2.1127500000000001
 51
87.936611999999997
  0
LINE
  5
20D
  8
0
 62
     7
 10
49.465499999999999
 20
172.00800000000001
 30
0.0
 11
49.665500000000002
 21
172.00800000000001
 31
0.0
  0
LINE
  5
20E
  8
0
 62
     7
 10
50.265500000000003
 20
171.208
 30
0.0
 11
50.265500000000003
 21
171.40799999999999
 31
0.0
  0
LINE
  5
20F
  8
0
 62
     7
 10
50.265500000000003
 20
171.80799999999999
 30
0.0
 11
50.265500000000003
 21
172.00800000000001
 31
0.0
  0
LINE
  5
210
  8
0
 62
     7
 10
49.665500000000002
 20
171.208
 30
0.0
 11
49.665500000000002
 21
172.00800000000001
 31
0.0
  0
LINE
  5
211
  8
0
 62
     7
 10
49.665500000000002
 20
171.80799999999999
 30
0.0
 11
50.265500000000003
 21
171.80799999999999
 31
0.0
  0
LINE
  5
212
  8
0
 62
     7
 10
49.665500000000002
 20
172.00800000000001
 30
0.0
 11
50.265500000000003
 21
172.00800000000001
 31
0.0
  0
LINE
  5
213
  8
0
 62
     7
 10
49.665500000000002
 20
171.40799999999999
 30
0.0
 11
50.265500000000003
 21
171.40799999999999
 31
0.0
  0
LINE
  5
214
  8
0
 62
     7
 10
49.665500000000002
 20
171.208
 30
0.0
 11
50.265500000000003
 21
171.208
 31
0.0
  0
LINE
  5
215
  8
0
 62
     7
 10
50.265500000000003
 20
170.50800000000001
 30
0.0
 11
50.265500000000003
 21
171.208
 31
0.0
  0
LINE
  5
216
  8
0
 62
     7
 10
50.0655
 20
170.50800000000001
 30
0.0
 11
50.0655
 21
171.208
 31
0.0
  0
LINE
  5
217
  8
0
 62
     7
 10
49.865499999999997
 20
170.50800000000001
 30
0.0
 11
49.865499999999997
 21
171.208
 31
0.0
  0
LINE
  5
218
  8
0
 62
     7
 10
49.665500000000002
 20
170.50800000000001
 30
0.0
 11
49.665500000000002
 21
171.208
 31
0.0
  0
LINE
  5
219
  8
0
 62
     7
 10
49.465499999999999
 20
171.208
 30
0.0
 11
49.465499999999999
 21
172.00800000000001
 31
0.0
  0
LINE
  5
21A
  8
0
 62
     7
 10
49.465499999999999
 20
170.50800000000001
 30
0.0
 11
49.465499999999999
 21
171.208
 31
0.0
  0
ARC
  5
21B
  8
0
 62
     7
 10
50.257437000000003
 20
169.39992000000001
 30
0.0
 40
0.208181
 50
2.2599259999999992
 51
87.789435999999995
  0
ARC
  5
21C
  8
0
 62
     7
 10
50.257643000000002
 20
169.415774
 30
0.0
 40
0.207953
 50
272.156048
 51
357.89329099999998
  0
LINE
  5
21D
  8
0
  6
AIGENLINE002
 62
     7
 10
48.76509999999999
 20
170.50800000000001
 30
0.0
 11
51.447499999999998
 21
170.50800000000001
 31
0.0
  0
LINE
  5
21E
  8
0
 62
     7
 10
49.465499999999999
 20
169.00800000000001
 30
0.0
 11
49.665500000000002
 21
169.00800000000001
 31
0.0
  0
LINE
  5
21F
  8
0
 62
     7
 10
50.265500000000003
 20
169.80799999999999
 30
0.0
 11
50.265500000000003
 21
169.608
 31
0.0
  0
LINE
  5
220
  8
0
 62
     7
 10
50.265500000000003
 20
169.208
 30
0.0
 11
50.265500000000003
 21
169.00800000000001
 31
0.0
  0
LINE
  5
221
  8
0
 62
     7
 10
50.265500000000003
 20
172.00800000000001
 30
0.0
 11
50.7654
 21
171.40799999999999
 31
0.0
  0
LINE
  5
222
  8
0
 62
     7
 10
50.7654
 20
171.40799999999999
 30
0.0
 11
51.865400000000001
 21
171.40799999999999
 31
0.0
  0
LINE
  5
223
  8
0
 62
     7
 10
50.265500000000003
 20
169.00800000000001
 30
0.0
 11
50.7654
 21
169.608
 31
0.0
  0
LINE
  5
224
  8
0
 62
     7
 10
49.665500000000002
 20
169.80799999999999
 30
0.0
 11
49.665500000000002
 21
169.00800000000001
 31
0.0
  0
LINE
  5
225
  8
0
 62
     7
 10
49.665500000000002
 20
169.00800000000001
 30
0.0
 11
50.265500000000003
 21
169.00800000000001
 31
0.0
  0
LINE
  5
226
  8
0
 62
     7
 10
49.665500000000002
 20
169.208
 30
0.0
 11
50.265500000000003
 21
169.208
 31
0.0
  0
LINE
  5
227
  8
0
 62
     7
 10
49.665500000000002
 20
169.608
 30
0.0
 11
50.265500000000003
 21
169.608
 31
0.0
  0
LINE
  5
228
  8
0
 62
     7
 10
49.665500000000002
 20
169.80799999999999
 30
0.0
 11
50.265500000000003
 21
169.80799999999999
 31
0.0
  0
LINE
  5
229
  8
0
 62
     7
 10
52.065399999999997
 20
170.50800000000001
 30
0.0
 11
52.065399999999997
 21
169.80799999999999
 31
0.0
  0
LINE
  5
22A
  8
0
 62
     7
 10
51.865400000000001
 20
170.50800000000001
 30
0.0
 11
51.865400000000001
 21
169.80799999999999
 31
0.0
  0
LINE
  5
22B
  8
0
 62
     7
 10
50.265500000000003
 20
170.50800000000001
 30
0.0
 11
50.265500000000003
 21
169.80799999999999
 31
0.0
  0
LINE
  5
22C
  8
0
 62
     7
 10
50.7654
 20
169.608
 30
0.0
 11
51.865400000000001
 21
169.608
 31
0.0
  0
LINE
  5
22D
  8
0
 62
     7
 10
51.165300000000002
 20
170.03299999999999
 30
0.0
 11
51.640399999999993
 21
170.03299999999999
 31
0.0
  0
LINE
  5
22E
  8
0
 62
     7
 10
51.165300000000002
 20
170.50800000000001
 30
0.0
 11
51.165300000000002
 21
170.03299999999999
 31
0.0
  0
LINE
  5
22F
  8
0
 62
     7
 10
50.0655
 20
170.50800000000001
 30
0.0
 11
50.0655
 21
169.80799999999999
 31
0.0
  0
LINE
  5
230
  8
0
 62
     7
 10
49.865499999999997
 20
170.50800000000001
 30
0.0
 11
49.865499999999997
 21
169.80799999999999
 31
0.0
  0
LINE
  5
231
  8
0
 62
     7
 10
49.665500000000002
 20
170.50800000000001
 30
0.0
 11
49.665500000000002
 21
169.80799999999999
 31
0.0
  0
LINE
  5
232
  8
0
 62
     7
 10
52.065399999999997
 20
169.80799999999999
 30
0.0
 11
52.065399999999997
 21
169.00800000000001
 31
0.0
  0
LINE
  5
233
  8
0
 62
     7
 10
51.865400000000001
 20
169.80799999999999
 30
0.0
 11
51.865400000000001
 21
169.09100000000001
 31
0.0
  0
LINE
  5
234
  8
0
 62
     7
 10
49.465499999999999
 20
169.80799999999999
 30
0.0
 11
49.465499999999999
 21
169.00800000000001
 31
0.0
  0
LINE
  5
235
  8
0
 62
     7
 10
49.465499999999999
 20
170.50800000000001
 30
0.0
 11
49.465499999999999
 21
169.80799999999999
 31
0.0
  0
LINE
  5
236
  8
0
 62
     7
 10
52.065399999999997
 20
172.30799999999999
 30
0.0
 11
53.665500000000002
 21
173.90799999999999
 31
0.0
  0
LINE
  5
237
  8
0
  6
AIGENLINE003
 62
     7
 10
49.465499999999999
 20
64.860900000000001
 30
0.0
 11
49.465499999999999
 21
186.899
 31
0.0
  0
LINE
  5
238
  8
0
 62
     7
 10
49.465499999999999
 20
123.908
 30
0.0
 11
49.465499999999999
 21
172.30000000000001
 31
0.0
  0
LINE
  5
239
  8
0
 62
     7
 10
49.465499999999999
 20
172.358
 30
0.0
 11
49.865499999999997
 21
172.358
 31
0.0
  0
LINE
  5
23A
  8
0
 62
     7
 10
49.465499999999999
 20
173.858
 30
0.0
 11
49.865499999999997
 21
173.858
 31
0.0
  0
LINE
  5
23B
  8
0
 62
     7
 10
49.465499999999999
 20
172.358
 30
0.0
 11
49.465499999999999
 21
173.858
 31
0.0
  0
LINE
  5
23C
  8
0
 62
     7
 10
50.0655
 20
162.30799999999999
 30
0.0
 11
50.0655
 21
169.00800000000001
 31
0.0
  0
LINE
  5
23D
  8
0
 62
     7
 10
50.0655
 20
172.00800000000001
 30
0.0
 11
50.0655
 21
172.30799999999999
 31
0.0
  0
LINE
  5
23E
  8
0
 62
     7
 10
49.865499999999997
 20
162.30799999999999
 30
0.0
 11
49.865499999999997
 21
169.00800000000001
 31
0.0
  0
LINE
  5
23F
  8
0
 62
     7
 10
49.865499999999997
 20
172.00800000000001
 30
0.0
 11
49.865499999999997
 21
172.30799999999999
 31
0.0
  0
LINE
  5
240
  8
0
 62
     7
 10
49.465499999999999
 20
162.30799999999999
 30
0.0
 11
49.465499999999999
 21
169.00800000000001
 31
0.0
  0
LINE
  5
241
  8
0
 62
     7
 10
49.465499999999999
 20
172.00800000000001
 30
0.0
 11
49.465499999999999
 21
172.30799999999999
 31
0.0
  0
LINE
  5
242
  8
0
 62
     7
 10
49.865499999999997
 20
172.30799999999999
 30
0.0
 11
49.865499999999997
 21
173.90799999999999
 31
0.0
  0
LINE
  5
243
  8
0
 62
     7
 10
52.065399999999997
 20
123.908
 30
0.0
 11
52.065399999999997
 21
172.30799999999999
 31
0.0
  0
LINE
  5
244
  8
0
 62
     7
 10
53.665500000000002
 20
123.908
 30
0.0
 11
53.665500000000002
 21
173.90799999999999
 31
0.0
  0
LINE
  5
245
  8
0
 62
     7
 10
53.765500000000003
 20
123.908
 30
0.0
 11
53.765500000000003
 21
173.90799999999999
 31
0.0
  0
LINE
  5
246
  8
0
 62
     7
 10
54.06539999999999
 20
123.908
 30
0.0
 11
54.06539999999999
 21
173.90799999999999
 31
0.0
  0
LINE
  5
247
  8
0
 62
     7
 10
63.36549999999999
 20
123.908
 30
0.0
 11
63.36549999999999
 21
173.90799999999999
 31
0.0
  0
LINE
  5
248
  8
0
 62
     7
 10
63.36549999999999
 20
173.90799999999999
 30
0.0
 11
53.665500000000002
 21
173.90799999999999
 31
0.0
  0
LINE
  5
249
  8
0
 62
     7
 10
50.0655
 20
162.30799999999999
 30
0.0
 11
49.465499999999999
 21
162.30799999999999
 31
0.0
  0
LINE
  5
24A
  8
0
 62
     7
 10
52.065399999999997
 20
172.30799999999999
 30
0.0
 11
49.465499999999999
 21
172.30799999999999
 31
0.0
  0
LINE
  5
24B
  8
0
 62
     7
 10
53.665500000000002
 20
173.90799999999999
 30
0.0
 11
49.865499999999997
 21
173.90799999999999
 31
0.0
  0
LINE
  5
24C
  8
0
  6
AIGENLINE002
 62
     7
 10
49.615400000000001
 20
84.207599999999985
 30
0.0
 11
44.8155
 21
84.207599999999985
 31
0.0
  0
LINE
  5
24D
  8
0
 62
     7
 10
48.465400000000002
 20
84.047399999999996
 30
0.0
 11
45.365499999999997
 21
84.047399999999996
 31
0.0
  0
LINE
  5
24E
  8
0
 62
     7
 10
49.465499999999999
 20
84.047399999999996
 30
0.0
 11
48.465400000000002
 21
84.047399999999996
 31
0.0
  0
LINE
  5
24F
  8
0
 62
     7
 10
48.465400000000002
 20
84.367500000000007
 30
0.0
 11
45.365499999999997
 21
84.367500000000007
 31
0.0
  0
LINE
  5
250
  8
0
 62
     7
 10
45.968200000000003
 20
83.947500000000005
 30
0.0
 11
45.763199999999991
 21
84.467699999999994
 31
0.0
  0
LINE
  5
251
  8
0
 62
     7
 10
46.367099999999994
 20
83.947500000000005
 30
0.0
 11
46.162199999999999
 21
84.467699999999994
 31
0.0
  0
LINE
  5
252
  8
0
 62
     7
 10
46.766100000000002
 20
83.947500000000005
 30
0.0
 11
46.561100000000003
 21
84.467699999999994
 31
0.0
  0
LINE
  5
253
  8
0
 62
     7
 10
47.164999999999992
 20
83.947500000000005
 30
0.0
 11
46.960000000000001
 21
84.467699999999994
 31
0.0
  0
LINE
  5
254
  8
0
 62
     7
 10
47.563999999999993
 20
83.947500000000005
 30
0.0
 11
47.358999999999988
 21
84.467699999999994
 31
0.0
  0
LINE
  5
255
  8
0
 62
     7
 10
47.962899999999991
 20
83.947500000000005
 30
0.0
 11
47.757899999999992
 21
84.467699999999994
 31
0.0
  0
LINE
  5
256
  8
0
 62
     7
 10
48.361899999999999
 20
83.947500000000005
 30
0.0
 11
48.1569
 21
84.467699999999994
 31
0.0
  0
LINE
  5
257
  8
0
 62
     7
 10
45.569299999999998
 20
83.947500000000005
 30
0.0
 11
45.3643
 21
84.467699999999994
 31
0.0
  0
LINE
  5
258
  8
0
 62
     7
 10
48.465400000000002
 20
84.047399999999996
 30
0.0
 11
48.465400000000002
 21
84.367500000000007
 31
0.0
  0
LINE
  5
259
  8
0
 62
     7
 10
49.465499999999999
 20
84.367500000000007
 30
0.0
 11
48.465400000000002
 21
84.367500000000007
 31
0.0
  0
LINE
  5
25A
  8
0
  6
AIGENLINE002
 62
     7
 10
49.615400000000001
 20
76.807500000000005
 30
0.0
 11
44.8155
 21
76.807500000000005
 31
0.0
  0
LINE
  5
25B
  8
0
 62
     7
 10
48.465400000000002
 20
76.647300000000001
 30
0.0
 11
45.365499999999997
 21
76.647300000000001
 31
0.0
  0
LINE
  5
25C
  8
0
 62
     7
 10
45.365499999999997
 20
76.647300000000001
 30
0.0
 11
44.965299999999992
 21
76.807500000000005
 31
0.0
  0
LINE
  5
25D
  8
0
 62
     7
 10
49.465499999999999
 20
76.647300000000001
 30
0.0
 11
48.465400000000002
 21
76.647300000000001
 31
0.0
  0
LINE
  5
25E
  8
0
 62
     7
 10
45.365499999999997
 20
76.967399999999998
 30
0.0
 11
44.965299999999992
 21
76.807500000000005
 31
0.0
  0
LINE
  5
25F
  8
0
 62
     7
 10
48.465400000000002
 20
76.967399999999998
 30
0.0
 11
45.365499999999997
 21
76.967399999999998
 31
0.0
  0
LINE
  5
260
  8
0
 62
     7
 10
45.170299999999997
 20
76.547700000000006
 30
0.0
 11
44.965299999999992
 21
77.067599999999999
 31
0.0
  0
LINE
  5
261
  8
0
 62
     7
 10
45.968200000000003
 20
76.547700000000006
 30
0.0
 11
45.763199999999991
 21
77.067599999999999
 31
0.0
  0
LINE
  5
262
  8
0
 62
     7
 10
46.367099999999994
 20
76.547700000000006
 30
0.0
 11
46.162199999999999
 21
77.067599999999999
 31
0.0
  0
LINE
  5
263
  8
0
 62
     7
 10
46.766100000000002
 20
76.547700000000006
 30
0.0
 11
46.561100000000003
 21
77.067599999999999
 31
0.0
  0
LINE
  5
264
  8
0
 62
     7
 10
47.164999999999992
 20
76.547700000000006
 30
0.0
 11
46.960000000000001
 21
77.067599999999999
 31
0.0
  0
LINE
  5
265
  8
0
 62
     7
 10
47.563999999999993
 20
76.547700000000006
 30
0.0
 11
47.358999999999988
 21
77.067599999999999
 31
0.0
  0
LINE
  5
266
  8
0
 62
     7
 10
47.962899999999991
 20
76.547700000000006
 30
0.0
 11
47.757899999999992
 21
77.067599999999999
 31
0.0
  0
LINE
  5
267
  8
0
 62
     7
 10
48.361899999999999
 20
76.547700000000006
 30
0.0
 11
48.1569
 21
77.067599999999999
 31
0.0
  0
LINE
  5
268
  8
0
 62
     7
 10
45.569299999999998
 20
76.547700000000006
 30
0.0
 11
45.3643
 21
77.067599999999999
 31
0.0
  0
LINE
  5
269
  8
0
 62
     7
 10
48.465400000000002
 20
76.647300000000001
 30
0.0
 11
48.465400000000002
 21
76.967399999999998
 31
0.0
  0
LINE
  5
26A
  8
0
 62
     7
 10
49.465499999999999
 20
76.967399999999998
 30
0.0
 11
48.465400000000002
 21
76.967399999999998
 31
0.0
  0
LINE
  5
26B
  8
0
 62
     7
 10
52.065399999999997
 20
75.507300000000001
 30
0.0
 11
53.665500000000002
 21
73.907399999999996
 31
0.0
  0
LINE
  5
26C
  8
0
 62
     7
 10
49.465499999999999
 20
123.908
 30
0.0
 11
49.465499999999999
 21
75.515199999999993
 31
0.0
  0
LINE
  5
26D
  8
0
 62
     7
 10
49.465499999999999
 20
75.457400000000007
 30
0.0
 11
49.865499999999997
 21
75.457400000000007
 31
0.0
  0
LINE
  5
26E
  8
0
 62
     7
 10
49.465499999999999
 20
73.957400000000007
 30
0.0
 11
49.865499999999997
 21
73.957400000000007
 31
0.0
  0
LINE
  5
26F
  8
0
 62
     7
 10
49.465499999999999
 20
75.457400000000007
 30
0.0
 11
49.465499999999999
 21
73.957400000000007
 31
0.0
  0
LINE
  5
270
  8
0
 62
     7
 10
50.0655
 20
75.807400000000001
 30
0.0
 11
50.0655
 21
75.507300000000001
 31
0.0
  0
LINE
  5
271
  8
0
 62
     7
 10
49.865499999999997
 20
75.807400000000001
 30
0.0
 11
49.865499999999997
 21
75.507300000000001
 31
0.0
  0
LINE
  5
272
  8
0
 62
     7
 10
49.465499999999999
 20
75.807400000000001
 30
0.0
 11
49.465499999999999
 21
75.507300000000001
 31
0.0
  0
LINE
  5
273
  8
0
 62
     7
 10
49.865499999999997
 20
75.507300000000001
 30
0.0
 11
49.865499999999997
 21
73.907399999999996
 31
0.0
  0
LINE
  5
274
  8
0
 62
     7
 10
52.065399999999997
 20
123.908
 30
0.0
 11
52.065399999999997
 21
75.507300000000001
 31
0.0
  0
LINE
  5
275
  8
0
 62
     7
 10
53.665500000000002
 20
123.908
 30
0.0
 11
53.665500000000002
 21
73.907399999999996
 31
0.0
  0
LINE
  5
276
  8
0
 62
     7
 10
53.765500000000003
 20
123.908
 30
0.0
 11
53.765500000000003
 21
73.907399999999996
 31
0.0
  0
LINE
  5
277
  8
0
 62
     7
 10
54.06539999999999
 20
123.908
 30
0.0
 11
54.06539999999999
 21
73.907399999999996
 31
0.0
  0
LINE
  5
278
  8
0
 62
     7
 10
63.36549999999999
 20
123.908
 30
0.0
 11
63.36549999999999
 21
73.907399999999996
 31
0.0
  0
LINE
  5
279
  8
0
  6
AIGENLINE002
 62
     7
 10
65.198700000000002
 20
123.908
 30
0.0
 11
45.942700000000002
 21
123.908
 31
0.0
  0
LINE
  5
27A
  8
0
 62
     7
 10
63.36549999999999
 20
73.907399999999996
 30
0.0
 11
53.665500000000002
 21
73.907399999999996
 31
0.0
  0
LINE
  5
27B
  8
0
 62
     7
 10
52.065399999999997
 20
75.507300000000001
 30
0.0
 11
49.465499999999999
 21
75.507300000000001
 31
0.0
  0
LINE
  5
27C
  8
0
 62
     7
 10
53.665500000000002
 20
73.907399999999996
 30
0.0
 11
49.865499999999997
 21
73.907399999999996
 31
0.0
  0
LINE
  5
27D
  8
0
  6
AIGENLINE002
 62
     7
 10
93.557000000000002
 20
163.608
 30
0.0
 11
96.557000000000016
 21
163.608
 31
0.0
  0
LINE
  5
27E
  8
0
  6
AIGENLINE002
 62
     7
 10
95.057000000000002
 20
162.108
 30
0.0
 11
95.057000000000002
 21
165.108
 31
0.0
  0
LINE
  5
27F
  8
0
  6
AIGENLINE002
 62
     7
 10
93.557000000000002
 20
171.00800000000001
 30
0.0
 11
96.557000000000016
 21
171.00800000000001
 31
0.0
  0
LINE
  5
280
  8
0
 62
     7
 10
91.756900000000016
 20
173.80799999999999
 30
0.0
 11
156.45699999999999
 21
173.80799999999999
 31
0.0
  0
LINE
  5
281
  8
0
 62
     7
 10
91.656800000000004
 20
123.908
 30
0.0
 11
91.656800000000004
 21
173.90799999999999
 31
0.0
  0
LINE
  5
282
  8
0
  6
AIGENLINE002
 62
     7
 10
95.057000000000002
 20
169.50800000000001
 30
0.0
 11
95.057000000000002
 21
172.50800000000001
 31
0.0
  0
LINE
  5
283
  8
0
 62
     7
 10
91.756900000000016
 20
123.908
 30
0.0
 11
91.756900000000016
 21
173.80799999999999
 31
0.0
  0
LINE
  5
284
  8
0
 62
     7
 10
156.45699999999999
 20
123.908
 30
0.0
 11
156.45699999999999
 21
173.80799999999999
 31
0.0
  0
LINE
  5
285
  8
0
 62
     7
 10
156.55699999999999
 20
123.908
 30
0.0
 11
156.55699999999999
 21
173.90799999999999
 31
0.0
  0
LINE
  5
286
  8
0
 62
     7
 10
170.05699999999999
 20
123.908
 30
0.0
 11
170.05699999999999
 21
173.90799999999999
 31
0.0
  0
LINE
  5
287
  8
0
 62
     7
 10
171.65700000000001
 20
123.908
 30
0.0
 11
171.65700000000001
 21
173.90799999999999
 31
0.0
  0
LINE
  5
288
  8
0
 62
     7
 10
171.65700000000001
 20
173.90799999999999
 30
0.0
 11
91.656800000000004
 21
173.90799999999999
 31
0.0
  0
LINE
  5
289
  8
0
  6
AIGENLINE002
 62
     7
 10
93.557000000000002
 20
84.207599999999985
 30
0.0
 11
96.557000000000016
 21
84.207599999999985
 31
0.0
  0
LINE
  5
28A
  8
0
  6
AIGENLINE002
 62
     7
 10
95.057000000000002
 20
85.707599999999985
 30
0.0
 11
95.057000000000002
 21
82.707300000000004
 31
0.0
  0
LINE
  5
28B
  8
0
  6
AIGENLINE002
 62
     7
 10
93.557000000000002
 20
76.807500000000005
 30
0.0
 11
96.557000000000016
 21
76.807500000000005
 31
0.0
  0
LINE
  5
28C
  8
0
 62
     7
 10
91.756900000000016
 20
74.007300000000001
 30
0.0
 11
156.45699999999999
 21
74.007300000000001
 31
0.0
  0
LINE
  5
28D
  8
0
  6
AIGENLINE003
 62
     7
 10
81.656899999999993
 20
181.00800000000001
 30
0.0
 11
81.656899999999993
 21
69.657899999999998
 31
0.0
  0
LINE
  5
28E
  8
0
 62
     7
 10
91.656800000000004
 20
123.908
 30
0.0
 11
91.656800000000004
 21
73.907399999999996
 31
0.0
  0
LINE
  5
28F
  8
0
  6
AIGENLINE002
 62
     7
 10
95.057000000000002
 20
78.307500000000005
 30
0.0
 11
95.057000000000002
 21
75.307500000000005
 31
0.0
  0
LINE
  5
290
  8
0
 62
     7
 10
91.756900000000016
 20
123.908
 30
0.0
 11
91.756900000000016
 21
74.007300000000001
 31
0.0
  0
LINE
  5
291
  8
0
 62
     7
 10
156.45699999999999
 20
123.908
 30
0.0
 11
156.45699999999999
 21
74.007300000000001
 31
0.0
  0
LINE
  5
292
  8
0
  6
AIGENLINE002
 62
     7
 10
164.65700000000001
 20
126.408
 30
0.0
 11
164.65700000000001
 21
121.408
 31
0.0
  0
LINE
  5
293
  8
0
 62
     7
 10
156.55699999999999
 20
123.908
 30
0.0
 11
156.55699999999999
 21
73.907399999999996
 31
0.0
  0
LINE
  5
294
  8
0
 62
     7
 10
170.05699999999999
 20
123.908
 30
0.0
 11
170.05699999999999
 21
73.907399999999996
 31
0.0
  0
LINE
  5
295
  8
0
 62
     7
 10
171.65700000000001
 20
123.908
 30
0.0
 11
171.65700000000001
 21
73.907399999999996
 31
0.0
  0
LINE
  5
296
  8
0
  6
AIGENLINE002
 62
     7
 10
174.75700000000001
 20
123.908
 30
0.0
 11
80.156899999999993
 21
123.908
 31
0.0
  0
LINE
  5
297
  8
0
 62
     7
 10
171.65700000000001
 20
73.907399999999996
 30
0.0
 11
91.656800000000004
 21
73.907399999999996
 31
0.0
  0
LINE
  5
298
  8
0
 62
     7
 10
108.318
 20
250.07400000000001
 30
0.0
 11
104.744
 21
243.63900000000001
 31
0.0
  0
LINE
  5
299
  8
0
 62
     7
 10
105.188
 20
245.41499999999999
 30
0.0
 11
104.744
 21
243.63900000000001
 31
0.0
  0
LINE
  5
29A
  8
0
 62
     7
 10
104.744
 20
243.63900000000001
 30
0.0
 11
106.017
 21
244.95500000000001
 31
0.0
  0
LINE
  5
29B
  8
0
 62
     7
 10
106.017
 20
244.95500000000001
 30
0.0
 11
105.188
 21
245.41499999999999
 31
0.0
  0
LINE
  5
29C
  8
0
 62
     7
 10
110.479
 20
273.346
 30
0.0
 11
101.194
 21
273.346
 31
0.0
  0
LINE
  5
29D
  8
0
 62
     7
 10
110.479
 20
267.096
 30
0.0
 11
101.194
 21
267.096
 31
0.0
  0
LINE
  5
29E
  8
0
 62
     7
 10
109.18600000000001
 20
271.13499999999999
 30
0.0
 11
109.779
 21
273.346
 31
0.0
  0
LINE
  5
29F
  8
0
 62
     7
 10
109.779
 20
273.346
 30
0.0
 11
110.371
 21
271.13499999999999
 31
0.0
  0
LINE
  5
2A0
  8
0
 62
     7
 10
110.371
 20
271.13499999999999
 30
0.0
 11
109.18600000000001
 21
271.13499999999999
 31
0.0
  0
LINE
  5
2A1
  8
0
 62
     7
 10
110.371
 20
269.26100000000002
 30
0.0
 11
109.779
 21
267.04899999999998
 31
0.0
  0
LINE
  5
2A2
  8
0
 62
     7
 10
109.779
 20
267.04899999999998
 30
0.0
 11
109.185
 21
269.26100000000002
 31
0.0
  0
LINE
  5
2A3
  8
0
 62
     7
 10
109.185
 20
269.26100000000002
 30
0.0
 11
110.371
 21
269.26100000000002
 31
0.0
  0
LINE
  5
2A4
  8
0
 62
     7
 10
109.779
 20
267.096
 30
0.0
 11
109.779
 21
273.346
 31
0.0
  0
LINE
  5
2A5
  8
0
 62
     7
 10
110.479
 20
244.38900000000001
 30
0.0
 11
101.194
 21
244.38900000000001
 31
0.0
  0
LINE
  5
2A6
  8
0
 62
     7
 10
110.479
 20
239.88900000000001
 30
0.0
 11
101.194
 21
239.88900000000001
 31
0.0
  0
LINE
  5
2A7
  8
0
 62
     7
 10
109.18600000000001
 20
237.678
 30
0.0
 11
109.779
 21
239.88900000000001
 31
0.0
  0
LINE
  5
2A8
  8
0
 62
     7
 10
109.779
 20
239.88900000000001
 30
0.0
 11
110.371
 21
237.678
 31
0.0
  0
LINE
  5
2A9
  8
0
 62
     7
 10
110.371
 20
237.678
 30
0.0
 11
109.18600000000001
 21
237.678
 31
0.0
  0
LINE
  5
2AA
  8
0
 62
     7
 10
110.371
 20
246.601
 30
0.0
 11
109.779
 21
244.38900000000001
 31
0.0
  0
LINE
  5
2AB
  8
0
 62
     7
 10
109.779
 20
244.38900000000001
 30
0.0
 11
109.185
 21
246.601
 31
0.0
  0
LINE
  5
2AC
  8
0
 62
     7
 10
109.185
 20
246.601
 30
0.0
 11
110.371
 21
246.601
 31
0.0
  0
LINE
  5
2AD
  8
0
 62
     7
 10
109.779
 20
236.178
 30
0.0
 11
109.779
 21
248.101
 31
0.0
  0
LINE
  5
2AE
  8
0
 62
     7
 10
100.494
 20
245.16499999999999
 30
0.0
 11
100.494
 21
252.589
 31
0.0
  0
LINE
  5
2AF
  8
0
 62
     7
 10
91.243600000000015
 20
245.16499999999999
 30
0.0
 11
91.243600000000015
 21
252.589
 31
0.0
  0
LINE
  5
2B0
  8
0
 62
     7
 10
98.320199999999986
 20
252.482
 30
0.0
 11
100.532
 21
251.88900000000001
 31
0.0
  0
LINE
  5
2B1
  8
0
 62
     7
 10
100.532
 20
251.88900000000001
 30
0.0
 11
98.320199999999986
 21
251.297
 31
0.0
  0
LINE
  5
2B2
  8
0
 62
     7
 10
98.320199999999986
 20
251.297
 30
0.0
 11
98.320199999999986
 21
252.482
 31
0.0
  0
LINE
  5
2B3
  8
0
 62
     7
 10
93.455399999999983
 20
251.297
 30
0.0
 11
91.243600000000015
 21
251.88900000000001
 31
0.0
  0
LINE
  5
2B4
  8
0
 62
     7
 10
91.243600000000015
 20
251.88900000000001
 30
0.0
 11
93.455399999999983
 21
252.483
 31
0.0
  0
LINE
  5
2B5
  8
0
 62
     7
 10
93.455399999999983
 20
252.483
 30
0.0
 11
93.455399999999983
 21
251.297
 31
0.0
  0
LINE
  5
2B6
  8
0
 62
     7
 10
91.243600000000015
 20
251.88900000000001
 30
0.0
 11
100.532
 21
251.88900000000001
 31
0.0
  0
LINE
  5
2B7
  8
0
 62
     7
 10
100.494
 20
231.68899999999999
 30
0.0
 11
100.494
 21
239.18899999999999
 31
0.0
  0
LINE
  5
2B8
  8
0
 62
     7
 10
88.993899999999996
 20
231.68899999999999
 30
0.0
 11
88.993899999999996
 21
240.38900000000001
 31
0.0
  0
LINE
  5
2B9
  8
0
 62
     7
 10
98.282000000000025
 20
232.982
 30
0.0
 11
100.494
 21
232.38900000000001
 31
0.0
  0
LINE
  5
2BA
  8
0
 62
     7
 10
100.494
 20
232.38900000000001
 30
0.0
 11
98.282000000000025
 21
231.797
 31
0.0
  0
LINE
  5
2BB
  8
0
 62
     7
 10
98.282000000000025
 20
231.797
 30
0.0
 11
98.282000000000025
 21
232.982
 31
0.0
  0
LINE
  5
2BC
  8
0
 62
     7
 10
91.205699999999979
 20
231.797
 30
0.0
 11
88.993899999999996
 21
232.38900000000001
 31
0.0
  0
LINE
  5
2BD
  8
0
 62
     7
 10
88.993899999999996
 20
232.38900000000001
 30
0.0
 11
91.205699999999979
 21
232.983
 31
0.0
  0
LINE
  5
2BE
  8
0
 62
     7
 10
91.205699999999979
 20
232.983
 30
0.0
 11
91.205699999999979
 21
231.797
 31
0.0
  0
LINE
  5
2BF
  8
0
 62
     7
 10
88.993899999999996
 20
232.38900000000001
 30
0.0
 11
100.494
 21
232.38900000000001
 31
0.0
  0
ARC
  5
2C0
  8
0
 62
     7
 10
98.203451000000001
 20
269.06989499999997
 30
0.0
 40
1.540564
 50
1.113464
 51
72.335862000000006
  0
LINE
  5
2C1
  8
0
 62
     7
 10
91.743799999999993
 20
272.59699999999998
 30
0.0
 11
98.670900000000003
 21
270.53800000000001
 31
0.0
  0
LINE
  5
2C2
  8
0
 62
     7
 10
103.744
 20
270.84699999999998
 30
0.0
 11
104.744
 21
270.84699999999998
 31
0.0
  0
LINE
  5
2C3
  8
0
 62
     7
 10
104.744
 20
269.34699999999998
 30
0.0
 11
104.744
 21
270.84699999999998
 31
0.0
  0
LINE
  5
2C4
  8
0
 62
     7
 10
103.744
 20
269.34699999999998
 30
0.0
 11
103.744
 21
270.84699999999998
 31
0.0
  0
LINE
  5
2C5
  8
0
 62
     7
 10
103.744
 20
270.096
 30
0.0
 11
100.494
 21
270.096
 31
0.0
  0
LINE
  5
2C6
  8
0
 62
     7
 10
99.364400000000003
 20
270.096
 30
0.0
 11
97.493700000000004
 21
270.096
 31
0.0
  0
LINE
  5
2C7
  8
0
 62
     7
 10
97.493700000000004
 20
270.096
 30
0.0
 11
97.493700000000004
 21
269.34699999999998
 31
0.0
  0
LINE
  5
2C8
  8
0
 62
     7
 10
88.993899999999996
 20
273.346
 30
0.0
 11
88.993899999999996
 21
272.59699999999998
 31
0.0
  0
LINE
  5
2C9
  8
0
 62
     7
 10
99.743700000000004
 20
272.59699999999998
 30
0.0
 11
99.743700000000004
 21
269.34699999999998
 31
0.0
  0
LINE
  5
2CA
  8
0
 62
     7
 10
100.494
 20
273.346
 30
0.0
 11
100.494
 21
269.34699999999998
 31
0.0
  0
LINE
  5
2CB
  8
0
 62
     7
 10
88.993899999999996
 20
272.59699999999998
 30
0.0
 11
99.743700000000004
 21
272.59699999999998
 31
0.0
  0
LINE
  5
2CC
  8
0
 62
     7
 10
88.993899999999996
 20
273.346
 30
0.0
 11
100.494
 21
273.346
 31
0.0
  0
LINE
  5
2CD
  8
0
 62
     7
 10
103.744
 20
267.846
 30
0.0
 11
104.744
 21
267.846
 31
0.0
  0
LINE
  5
2CE
  8
0
 62
     7
 10
104.744
 20
269.34699999999998
 30
0.0
 11
104.744
 21
267.846
 31
0.0
  0
LINE
  5
2CF
  8
0
 62
     7
 10
103.744
 20
269.34699999999998
 30
0.0
 11
103.744
 21
267.846
 31
0.0
  0
LINE
  5
2D0
  8
0
 62
     7
 10
103.744
 20
268.596
 30
0.0
 11
100.494
 21
268.596
 31
0.0
  0
LINE
  5
2D1
  8
0
 62
     7
 10
99.743700000000004
 20
268.596
 30
0.0
 11
97.493700000000004
 21
268.596
 31
0.0
  0
LINE
  5
2D2
  8
0
 62
     7
 10
97.493700000000004
 20
268.596
 30
0.0
 11
97.493700000000004
 21
269.34699999999998
 31
0.0
  0
LINE
  5
2D3
  8
0
 62
     7
 10
99.743700000000004
 20
267.096
 30
0.0
 11
99.743700000000004
 21
269.34699999999998
 31
0.0
  0
LINE
  5
2D4
  8
0
 62
     7
 10
100.494
 20
267.096
 30
0.0
 11
100.494
 21
269.34699999999998
 31
0.0
  0
LINE
  5
2D5
  8
0
 62
     7
 10
99.743700000000004
 20
267.096
 30
0.0
 11
100.494
 21
267.096
 31
0.0
  0
LINE
  5
2D6
  8
0
  6
AIGENLINE002
 62
     7
 10
96.486699999999999
 20
269.34699999999998
 30
0.0
 11
105.145
 21
269.34699999999998
 31
0.0
  0
ARC
  5
2D7
  8
0
 62
     7
 10
94.975417000000007
 20
242.12121200000001
 30
0.0
 40
0.493595
 50
2.1091239999999991
 51
87.849302000000009
  0
ARC
  5
2D8
  8
0
 62
     7
 10
94.975442000000001
 20
242.15787700000001
 30
0.0
 40
0.4935830000000001
 50
272.14792399999999
 51
357.85208599999999
  0
ARC
  5
2D9
  8
0
 62
     7
 10
95.012411999999998
 20
242.15856500000001
 30
0.0
 40
0.4942700000000001
 50
182.22478000000001
 51
267.85834699999998
  0
ARC
  5
2DA
  8
0
 62
     7
 10
95.012121999999991
 20
242.12083899999999
 30
0.0
 40
0.4939550000000001
 50
92.109376999999995
 51
177.84906000000001
  0
ARC
  5
2DB
  8
0
 62
     7
 10
94.993768000000003
 20
242.13955000000001
 30
0.0
 40
0.8748879999999999
 50
359.98872899999998
 51
89.988698999999997
  0
ARC
  5
2DC
  8
0
 62
     7
 10
94.959795
 20
242.17316600000001
 30
0.0
 40
0.9094889999999999
 50
272.15164800000002
 51
357.870923
  0
ARC
  5
2DD
  8
0
 62
     7
 10
95.026958999999991
 20
242.17239599999999
 30
0.0
 40
0.908678
 50
182.08242999999999
 51
267.917599
  0
ARC
  5
2DE
  8
0
 62
     7
 10
95.027754000000002
 20
242.10556500000001
 30
0.0
 40
0.909501
 50
92.130572999999998
 51
177.86939699999999
  0
ARC
  5
2DF
  8
0
 62
     7
 10
91.212609000000015
 20
242.10804300000001
 30
0.0
 40
0.8442620000000001
 50
2.127044999999999
 51
87.897238000000002
  0
ARC
  5
2E0
  8
0
 62
     7
 10
91.212932999999992
 20
242.170389
 30
0.0
 40
0.843926
 50
272.08157999999997
 51
357.894137
  0
ARC
  5
2E1
  8
0
 62
     7
 10
91.274581999999995
 20
242.17037400000001
 30
0.0
 40
0.8439239999999999
 50
182.1048879999999
 51
267.89514200000002
  0
ARC
  5
2E2
  8
0
 62
     7
 10
91.274573000000004
 20
242.10839200000001
 30
0.0
 40
0.8439140000000001
 50
92.104212000000004
 51
177.895759
  0
ARC
  5
2E3
  8
0
 62
     7
 10
91.243585999999979
 20
242.13937799999999
 30
0.0
 40
1.125175
 50
0.00001
 51
89.999980000000008
  0
ARC
  5
2E4
  8
0
 62
     7
 10
91.243585999999979
 20
242.13937799999999
 30
0.0
 40
1.125175
 50
270.00002000000001
 51
359.99999000000003
  0
ARC
  5
2E5
  8
0
 62
     7
 10
91.243758000000014
 20
242.139205
 30
0.0
 40
1.1250029999999991
 50
179.991197
 51
269.9912470000001
  0
ARC
  5
2E6
  8
0
 62
     7
 10
91.243758999999997
 20
242.13955000000001
 30
0.0
 40
1.1250029999999991
 50
90.008773000000005
 51
180.00878299999999
  0
ARC
  5
2E7
  8
0
 62
     7
 10
91.243758999999997
 20
242.13955000000001
 30
0.0
 40
2.249833999999999
 50
90.004386999999994
 51
180.00439700000001
  0
LINE
  5
2E8
  8
0
 62
     7
 10
103.744
 20
243.63900000000001
 30
0.0
 11
104.744
 21
243.63900000000001
 31
0.0
  0
LINE
  5
2E9
  8
0
 62
     7
 10
104.744
 20
242.13900000000001
 30
0.0
 11
104.744
 21
243.63900000000001
 31
0.0
  0
LINE
  5
2EA
  8
0
 62
     7
 10
103.744
 20
242.13900000000001
 30
0.0
 11
103.744
 21
243.63900000000001
 31
0.0
  0
LINE
  5
2EB
  8
0
 62
     7
 10
103.744
 20
242.88900000000001
 30
0.0
 11
100.494
 21
242.88900000000001
 31
0.0
  0
LINE
  5
2EC
  8
0
 62
     7
 10
99.743700000000004
 20
242.88900000000001
 30
0.0
 11
97.493700000000004
 21
242.88900000000001
 31
0.0
  0
LINE
  5
2ED
  8
0
 62
     7
 10
97.493700000000004
 20
242.88900000000001
 30
0.0
 11
97.493700000000004
 21
242.13900000000001
 31
0.0
  0
LINE
  5
2EE
  8
0
 62
     7
 10
99.743700000000004
 20
243.63900000000001
 30
0.0
 11
99.743700000000004
 21
242.13900000000001
 31
0.0
  0
LINE
  5
2EF
  8
0
 62
     7
 10
100.494
 20
244.38900000000001
 30
0.0
 11
100.494
 21
242.13900000000001
 31
0.0
  0
LINE
  5
2F0
  8
0
 62
     7
 10
91.743799999999993
 20
243.63900000000001
 30
0.0
 11
99.743700000000004
 21
243.63900000000001
 31
0.0
  0
LINE
  5
2F1
  8
0
 62
     7
 10
91.243600000000015
 20
244.38900000000001
 30
0.0
 11
100.494
 21
244.38900000000001
 31
0.0
  0
ARC
  5
2F2
  8
0
 62
     7
 10
91.243758000000014
 20
242.139205
 30
0.0
 40
2.2498330000000002
 50
179.99558300000001
 51
269.995633
  0
LINE
  5
2F3
  8
0
 62
     7
 10
103.744
 20
240.63900000000001
 30
0.0
 11
104.744
 21
240.63900000000001
 31
0.0
  0
LINE
  5
2F4
  8
0
 62
     7
 10
104.744
 20
242.13900000000001
 30
0.0
 11
104.744
 21
240.63900000000001
 31
0.0
  0
LINE
  5
2F5
  8
0
 62
     7
 10
103.744
 20
242.13900000000001
 30
0.0
 11
103.744
 21
240.63900000000001
 31
0.0
  0
LINE
  5
2F6
  8
0
 62
     7
 10
103.744
 20
241.38900000000001
 30
0.0
 11
100.494
 21
241.38900000000001
 31
0.0
  0
LINE
  5
2F7
  8
0
 62
     7
 10
99.743700000000004
 20
241.38900000000001
 30
0.0
 11
97.493700000000004
 21
241.38900000000001
 31
0.0
  0
LINE
  5
2F8
  8
0
 62
     7
 10
97.493700000000004
 20
241.38900000000001
 30
0.0
 11
97.493700000000004
 21
242.13900000000001
 31
0.0
  0
LINE
  5
2F9
  8
0
 62
     7
 10
99.743700000000004
 20
240.63900000000001
 30
0.0
 11
99.743700000000004
 21
242.13900000000001
 31
0.0
  0
LINE
  5
2FA
  8
0
 62
     7
 10
100.494
 20
239.88900000000001
 30
0.0
 11
100.494
 21
242.13900000000001
 31
0.0
  0
LINE
  5
2FB
  8
0
  6
AIGENLINE002
 62
     7
 10
91.243600000000015
 20
271.81900000000002
 30
0.0
 11
91.243600000000015
 21
274.12400000000002
 31
0.0
  0
LINE
  5
2FC
  8
0
  6
AIGENLINE002
 62
     7
 10
91.243600000000015
 20
240.51499999999999
 30
0.0
 11
91.243600000000015
 21
243.76400000000001
 31
0.0
  0
LINE
  5
2FD
  8
0
  6
AIGENLINE002
 62
     7
 10
94.993899999999996
 20
241.01400000000001
 30
0.0
 11
94.993899999999996
 21
243.26499999999999
 31
0.0
  0
LINE
  5
2FE
  8
0
 62
     7
 10
91.743799999999993
 20
240.63900000000001
 30
0.0
 11
99.743700000000004
 21
240.63900000000001
 31
0.0
  0
LINE
  5
2FF
  8
0
 62
     7
 10
91.243600000000015
 20
239.88900000000001
 30
0.0
 11
100.494
 21
239.88900000000001
 31
0.0
  0
LINE
  5
300
  8
0
  6
AIGENLINE002
 62
     7
 10
88.474400000000003
 20
242.13900000000001
 30
0.0
 11
105.145
 21
242.13900000000001
 31
0.0
  0
ARC
  5
301
  8
0
 62
     7
 10
51.953229999999998
 20
236.88919200000001
 30
0.0
 40
0.6249440000000001
 50
270.00002000000001
 51
359.99999000000003
  0
ARC
  5
302
  8
0
 62
     7
 10
51.953229999999998
 20
236.88919100000001
 30
0.0
 40
0.6249440000000001
 50
0.00001
 51
89.999980000000008
  0
ARC
  5
303
  8
0
 62
     7
 10
51.953229999999998
 20
236.88919100000001
 30
0.0
 40
0.6249440000000001
 50
90.0
 51
179.99996999999999
  0
ARC
  5
304
  8
0
 62
     7
 10
51.953229999999998
 20
236.88919100000001
 30
0.0
 40
0.6249440000000001
 50
179.99996999999999
 51
270.00002000000001
  0
ARC
  5
305
  8
0
 62
     7
 10
51.95314299999999
 20
252.63932
 30
0.0
 40
1.000032
 50
359.99507499999999
 51
89.995045999999988
  0
ARC
  5
306
  8
0
 62
     7
 10
51.953316000000001
 20
252.63932
 30
0.0
 40
1.000032
 50
90.004935000000003
 51
180.00494499999999
  0
ARC
  5
307
  8
0
 62
     7
 10
51.991300000000003
 20
250.17736199999999
 30
0.0
 40
1.0387200000000001
 50
182.11033399999999
 51
267.89956699999999
  0
ARC
  5
308
  8
0
 62
     7
 10
51.914608999999999
 20
250.17791199999999
 30
0.0
 40
1.03929
 50
272.12962099999999
 51
357.86051800000013
  0
LINE
  5
309
  8
0
 62
     7
 10
52.953200000000002
 20
252.63900000000001
 30
0.0
 11
52.953200000000002
 21
250.13900000000001
 31
0.0
  0
LINE
  5
30A
  8
0
 62
     7
 10
50.953299999999999
 20
252.63900000000001
 30
0.0
 11
50.953299999999999
 21
250.13900000000001
 31
0.0
  0
ARC
  5
30B
  8
0
 62
     7
 10
51.915159000000003
 20
234.10104899999999
 30
0.0
 40
1.038721
 50
2.1103309999999991
 51
87.899529999999999
  0
ARC
  5
30C
  8
0
 62
     7
 10
51.991849999999992
 20
234.10050000000001
 30
0.0
 40
1.03929
 50
92.12960099999998
 51
177.86049800000001
  0
ARC
  5
30D
  8
0
 62
     7
 10
51.953316000000001
 20
231.63909100000001
 30
0.0
 40
1.000030999999999
 50
179.995036
 51
269.99508500000002
  0
ARC
  5
30E
  8
0
 62
     7
 10
51.95314299999999
 20
231.63909100000001
 30
0.0
 40
1.000032
 50
270.004954
 51
0.004925
  0
LINE
  5
30F
  8
0
  6
AIGENLINE002
 62
     7
 10
50.341599999999993
 20
236.88900000000001
 30
0.0
 11
53.472499999999989
 21
236.88900000000001
 31
0.0
  0
LINE
  5
310
  8
0
  6
AIGENLINE002
 62
     7
 10
50.341599999999993
 20
232.88900000000001
 30
0.0
 11
53.472499999999989
 21
232.88900000000001
 31
0.0
  0
LINE
  5
311
  8
0
 62
     7
 10
52.953200000000002
 20
234.13900000000001
 30
0.0
 11
52.953200000000002
 21
231.63900000000001
 31
0.0
  0
LINE
  5
312
  8
0
 62
     7
 10
50.953299999999999
 20
234.13900000000001
 30
0.0
 11
50.953299999999999
 21
231.63900000000001
 31
0.0
  0
ARC
  5
313
  8
0
 62
     7
 10
51.953229999999998
 20
247.38921999999999
 30
0.0
 40
0.6249440000000001
 50
0.00001
 51
89.999980000000008
  0
ARC
  5
314
  8
0
 62
     7
 10
51.953229999999998
 20
247.38921999999999
 30
0.0
 40
0.6249440000000001
 50
270.00002000000001
 51
359.99999000000003
  0
ARC
  5
315
  8
0
 62
     7
 10
51.953229999999998
 20
247.38921999999999
 30
0.0
 40
0.6249440000000001
 50
179.99996999999999
 51
270.00002000000001
  0
ARC
  5
316
  8
0
 62
     7
 10
51.953229999999998
 20
247.38921999999999
 30
0.0
 40
0.6249440000000001
 50
90.0
 51
179.99996999999999
  0
LINE
  5
317
  8
0
  6
AIGENLINE002
 62
     7
 10
51.953200000000002
 20
268.61500000000001
 30
0.0
 11
51.953200000000002
 21
271.096
 31
0.0
  0
LINE
  5
318
  8
0
 62
     7
 10
47.453200000000002
 20
230.88900000000001
 30
0.0
 11
46.953200000000002
 21
230.38900000000001
 31
0.0
  0
LINE
  5
319
  8
0
 62
     7
 10
49.453099999999999
 20
269.72199999999998
 30
0.0
 11
54.078200000000002
 21
269.72199999999998
 31
0.0
  0
LINE
  5
31A
  8
0
 62
     7
 10
49.078099999999999
 20
270.09699999999998
 30
0.0
 11
54.453200000000002
 21
270.09699999999998
 31
0.0
  0
LINE
  5
31B
  8
0
 62
     7
 10
46.953200000000002
 20
268.59699999999998
 30
0.0
 11
46.953200000000002
 21
268.97199999999998
 31
0.0
  0
LINE
  5
31C
  8
0
 62
     7
 10
46.953200000000002
 20
268.97199999999998
 30
0.0
 11
49.078099999999999
 21
268.97199999999998
 31
0.0
  0
LINE
  5
31D
  8
0
 62
     7
 10
46.953200000000002
 20
268.59699999999998
 30
0.0
 11
49.453099999999999
 21
268.59699999999998
 31
0.0
  0
LINE
  5
31E
  8
0
 62
     7
 10
54.078200000000002
 20
268.59699999999998
 30
0.0
 11
54.453200000000002
 21
268.59699999999998
 31
0.0
  0
LINE
  5
31F
  8
0
  6
AIGENLINE002
 62
     7
 10
50.341599999999993
 20
247.38900000000001
 30
0.0
 11
53.472499999999989
 21
247.38900000000001
 31
0.0
  0
LINE
  5
320
  8
0
  6
AIGENLINE002
 62
     7
 10
50.341599999999993
 20
251.38900000000001
 30
0.0
 11
53.472499999999989
 21
251.38900000000001
 31
0.0
  0
LINE
  5
321
  8
0
 62
     7
 10
54.453200000000002
 20
255.19900000000001
 30
0.0
 11
54.453200000000002
 21
259.91800000000001
 31
0.0
  0
LINE
  5
322
  8
0
 62
     7
 10
46.953200000000002
 20
255.19900000000001
 30
0.0
 11
46.953200000000002
 21
259.91800000000001
 31
0.0
  0
LINE
  5
323
  8
0
 62
     7
 10
49.453299999999999
 20
255.19900000000001
 30
0.0
 11
49.453299999999999
 21
259.91800000000001
 31
0.0
  0
LINE
  5
324
  8
0
 62
     7
 10
54.078200000000002
 20
275.44999999999999
 30
0.0
 11
54.078200000000002
 21
270.56099999999998
 31
0.0
  0
LINE
  5
325
  8
0
 62
     7
 10
54.453200000000002
 20
275.44999999999999
 30
0.0
 11
54.453200000000002
 21
270.56099999999998
 31
0.0
  0
LINE
  5
326
  8
0
 62
     7
 10
51.866399999999999
 20
274.15699999999998
 30
0.0
 11
54.078200000000002
 21
274.75
 31
0.0
  0
LINE
  5
327
  8
0
 62
     7
 10
54.078200000000002
 20
274.75
 30
0.0
 11
51.866399999999999
 21
275.34300000000002
 31
0.0
  0
LINE
  5
328
  8
0
 62
     7
 10
51.866399999999999
 20
275.34300000000002
 30
0.0
 11
51.866399999999999
 21
274.15699999999998
 31
0.0
  0
LINE
  5
329
  8
0
 62
     7
 10
56.664900000000003
 20
275.34300000000002
 30
0.0
 11
54.453200000000002
 21
274.75
 31
0.0
  0
LINE
  5
32A
  8
0
 62
     7
 10
54.453200000000002
 20
274.75
 30
0.0
 11
56.664900000000003
 21
274.15699999999998
 31
0.0
  0
LINE
  5
32B
  8
0
 62
     7
 10
56.664900000000003
 20
274.15699999999998
 30
0.0
 11
56.664900000000003
 21
275.34300000000002
 31
0.0
  0
LINE
  5
32C
  8
0
 62
     7
 10
62.2652
 20
274.75
 30
0.0
 11
50.792200000000001
 21
274.75
 31
0.0
  0
LINE
  5
32D
  8
0
 62
     7
 10
42.448999999999998
 20
268.59699999999998
 30
0.0
 11
46.358400000000003
 21
268.59699999999998
 31
0.0
  0
LINE
  5
32E
  8
0
 62
     7
 10
42.448999999999998
 20
270.09699999999998
 30
0.0
 11
48.4833
 21
270.09699999999998
 31
0.0
  0
LINE
  5
32F
  8
0
 62
     7
 10
43.741599999999991
 20
266.38499999999999
 30
0.0
 11
43.149099999999997
 21
268.59699999999998
 31
0.0
  0
LINE
  5
330
  8
0
 62
     7
 10
43.149099999999997
 20
268.59699999999998
 30
0.0
 11
42.5565
 21
266.38499999999999
 31
0.0
  0
LINE
  5
331
  8
0
 62
     7
 10
42.5565
 20
266.38499999999999
 30
0.0
 11
43.741599999999991
 21
266.38499999999999
 31
0.0
  0
LINE
  5
332
  8
0
 62
     7
 10
42.5563
 20
272.30799999999999
 30
0.0
 11
43.148899999999998
 21
270.09699999999998
 31
0.0
  0
LINE
  5
333
  8
0
 62
     7
 10
43.148899999999998
 20
270.09699999999998
 30
0.0
 11
43.741799999999991
 21
272.30799999999999
 31
0.0
  0
LINE
  5
334
  8
0
 62
     7
 10
43.741799999999991
 20
272.30799999999999
 30
0.0
 11
42.5563
 21
272.30799999999999
 31
0.0
  0
LINE
  5
335
  8
0
 62
     7
 10
43.149099999999997
 20
273.721
 30
0.0
 11
43.149099999999997
 21
265.42700000000002
 31
0.0
  0
LINE
  5
336
  8
0
 62
     7
 10
52.953200000000002
 20
222.61000000000001
 30
0.0
 11
52.953200000000002
 21
230.345
 31
0.0
  0
LINE
  5
337
  8
0
 62
     7
 10
71.203699999999998
 20
231.851
 30
0.0
 11
71.796199999999985
 21
229.63900000000001
 31
0.0
  0
LINE
  5
338
  8
0
 62
     7
 10
71.796199999999985
 20
229.63900000000001
 30
0.0
 11
72.389099999999999
 21
231.851
 31
0.0
  0
LINE
  5
339
  8
0
 62
     7
 10
72.389099999999999
 20
231.851
 30
0.0
 11
71.203699999999998
 21
231.851
 31
0.0
  0
LINE
  5
33A
  8
0
 62
     7
 10
72.388999999999996
 20
252.428
 30
0.0
 11
71.796400000000006
 21
254.63900000000001
 31
0.0
  0
LINE
  5
33B
  8
0
 62
     7
 10
71.796400000000006
 20
254.63900000000001
 30
0.0
 11
71.203900000000004
 21
252.428
 31
0.0
  0
LINE
  5
33C
  8
0
 62
     7
 10
71.203900000000004
 20
252.428
 30
0.0
 11
72.388999999999996
 21
252.428
 31
0.0
  0
LINE
  5
33D
  8
0
 62
     7
 10
71.796400000000006
 20
229.63900000000001
 30
0.0
 11
71.796400000000006
 21
254.63900000000001
 31
0.0
  0
LINE
  5
33E
  8
0
 62
     7
 10
66.811800000000005
 20
249.178
 30
0.0
 11
66.219300000000004
 21
251.38900000000001
 31
0.0
  0
LINE
  5
33F
  8
0
 62
     7
 10
66.219300000000004
 20
251.38900000000001
 30
0.0
 11
65.6267
 21
249.178
 31
0.0
  0
LINE
  5
340
  8
0
 62
     7
 10
65.6267
 20
249.178
 30
0.0
 11
66.811800000000005
 21
249.178
 31
0.0
  0
LINE
  5
341
  8
0
 62
     7
 10
65.6267
 20
235.101
 30
0.0
 11
66.219300000000004
 21
232.88900000000001
 31
0.0
  0
LINE
  5
342
  8
0
 62
     7
 10
66.219300000000004
 20
232.88900000000001
 30
0.0
 11
66.812200000000004
 21
235.101
 31
0.0
  0
LINE
  5
343
  8
0
 62
     7
 10
66.812200000000004
 20
235.101
 30
0.0
 11
65.6267
 21
235.101
 31
0.0
  0
LINE
  5
344
  8
0
 62
     7
 10
66.219300000000004
 20
232.88900000000001
 30
0.0
 11
66.219300000000004
 21
251.38900000000001
 31
0.0
  0
LINE
  5
345
  8
0
 62
     7
 10
60.136099999999992
 20
237.351
 30
0.0
 11
60.7286
 21
235.13900000000001
 31
0.0
  0
LINE
  5
346
  8
0
 62
     7
 10
60.7286
 20
235.13900000000001
 30
0.0
 11
61.3215
 21
237.351
 31
0.0
  0
LINE
  5
347
  8
0
 62
     7
 10
61.3215
 20
237.351
 30
0.0
 11
60.136099999999992
 21
237.351
 31
0.0
  0
LINE
  5
348
  8
0
 62
     7
 10
61.321199999999997
 20
228.42699999999999
 30
0.0
 11
60.7286
 21
230.63900000000001
 31
0.0
  0
LINE
  5
349
  8
0
 62
     7
 10
60.7286
 20
230.63900000000001
 30
0.0
 11
60.136099999999992
 21
228.42699999999999
 31
0.0
  0
LINE
  5
34A
  8
0
 62
     7
 10
60.136099999999992
 20
228.42699999999999
 30
0.0
 11
61.321199999999997
 21
228.42699999999999
 31
0.0
  0
LINE
  5
34B
  8
0
 62
     7
 10
60.7286
 20
226.202
 30
0.0
 11
60.7286
 21
239.72499999999999
 31
0.0
  0
LINE
  5
34C
  8
0
 62
     7
 10
50.953299999999999
 20
222.61000000000001
 30
0.0
 11
50.953299999999999
 21
230.345
 31
0.0
  0
LINE
  5
34D
  8
0
 62
     7
 10
55.16490000000001
 20
223.90199999999999
 30
0.0
 11
52.953200000000002
 21
223.31
 31
0.0
  0
LINE
  5
34E
  8
0
 62
     7
 10
52.953200000000002
 20
223.31
 30
0.0
 11
55.16490000000001
 21
222.71700000000001
 31
0.0
  0
LINE
  5
34F
  8
0
 62
     7
 10
55.16490000000001
 20
222.71700000000001
 30
0.0
 11
55.16490000000001
 21
223.90199999999999
 31
0.0
  0
LINE
  5
350
  8
0
 62
     7
 10
48.741500000000002
 20
222.71700000000001
 30
0.0
 11
50.953299999999999
 21
223.31
 31
0.0
  0
LINE
  5
351
  8
0
 62
     7
 10
50.953299999999999
 20
223.31
 30
0.0
 11
48.741500000000002
 21
223.90299999999999
 31
0.0
  0
LINE
  5
352
  8
0
 62
     7
 10
48.741500000000002
 20
223.90299999999999
 30
0.0
 11
48.741500000000002
 21
222.71700000000001
 31
0.0
  0
LINE
  5
353
  8
0
 62
     7
 10
47.675800000000002
 20
223.31
 30
0.0
 11
56.554200000000002
 21
223.31
 31
0.0
  0
LINE
  5
354
  8
0
  6
AIGENLINE002
 62
     7
 10
45.2089
 20
242.13900000000001
 30
0.0
 11
56.75869999999999
 21
242.13900000000001
 31
0.0
  0
LINE
  5
355
  8
0
 62
     7
 10
53.822600000000001
 20
232.88900000000001
 30
0.0
 11
56.436700000000002
 21
232.88900000000001
 31
0.0
  0
LINE
  5
356
  8
0
 62
     7
 10
61.459200000000003
 20
232.88900000000001
 30
0.0
 11
66.919300000000007
 21
232.88900000000001
 31
0.0
  0
LINE
  5
357
  8
0
 62
     7
 10
55.153199999999998
 20
229.63900000000001
 30
0.0
 11
72.496499999999983
 21
229.63900000000001
 31
0.0
  0
LINE
  5
358
  8
0
 62
     7
 10
52.653300000000002
 20
230.63900000000001
 30
0.0
 11
61.428699999999999
 21
230.63900000000001
 31
0.0
  0
LINE
  5
359
  8
0
 62
     7
 10
52.653300000000002
 20
235.13900000000001
 30
0.0
 11
61.428699999999999
 21
235.13900000000001
 31
0.0
  0
LINE
  5
35A
  8
0
 62
     7
 10
51.664999999999999
 20
259.81099999999998
 30
0.0
 11
49.453299999999999
 21
259.21800000000002
 31
0.0
  0
LINE
  5
35B
  8
0
 62
     7
 10
49.453299999999999
 20
259.21800000000002
 30
0.0
 11
51.664999999999999
 21
258.625
 31
0.0
  0
LINE
  5
35C
  8
0
 62
     7
 10
51.664999999999999
 20
258.625
 30
0.0
 11
51.664999999999999
 21
259.81099999999998
 31
0.0
  0
LINE
  5
35D
  8
0
 62
     7
 10
44.741399999999999
 20
258.625
 30
0.0
 11
46.953200000000002
 21
259.21800000000002
 31
0.0
  0
LINE
  5
35E
  8
0
 62
     7
 10
46.953200000000002
 20
259.21800000000002
 30
0.0
 11
44.741399999999999
 21
259.81099999999998
 31
0.0
  0
LINE
  5
35F
  8
0
 62
     7
 10
44.741399999999999
 20
259.81099999999998
 30
0.0
 11
44.741399999999999
 21
258.625
 31
0.0
  0
LINE
  5
360
  8
0
 62
     7
 10
52.241399999999999
 20
258.625
 30
0.0
 11
54.453200000000002
 21
259.21800000000002
 31
0.0
  0
LINE
  5
361
  8
0
 62
     7
 10
54.453200000000002
 20
259.21800000000002
 30
0.0
 11
52.241399999999999
 21
259.81099999999998
 31
0.0
  0
LINE
  5
362
  8
0
 62
     7
 10
52.241399999999999
 20
259.81099999999998
 30
0.0
 11
52.241399999999999
 21
258.625
 31
0.0
  0
LINE
  5
363
  8
0
 62
     7
 10
41.557899999999989
 20
259.21800000000002
 30
0.0
 11
54.453200000000002
 21
259.21800000000002
 31
0.0
  0
LINE
  5
364
  8
0
 62
     7
 10
53.822600000000001
 20
251.38900000000001
 30
0.0
 11
66.919300000000007
 21
251.38900000000001
 31
0.0
  0
LINE
  5
365
  8
0
 62
     7
 10
55.153199999999998
 20
254.63900000000001
 30
0.0
 11
72.496499999999983
 21
254.63900000000001
 31
0.0
  0
LINE
  5
366
  8
0
 62
     7
 10
46.953200000000002
 20
254.63900000000001
 30
0.0
 11
54.453200000000002
 21
254.63900000000001
 31
0.0
  0
LINE
  5
367
  8
0
 62
     7
 10
46.953200000000002
 20
229.63900000000001
 30
0.0
 11
54.453200000000002
 21
229.63900000000001
 31
0.0
  0
LINE
  5
368
  8
0
 62
     7
 10
54.078200000000002
 20
268.59699999999998
 30
0.0
 11
54.078200000000002
 21
269.72199999999998
 31
0.0
  0
LINE
  5
369
  8
0
 62
     7
 10
49.078099999999999
 20
268.97199999999998
 30
0.0
 11
49.078099999999999
 21
270.09699999999998
 31
0.0
  0
LINE
  5
36A
  8
0
 62
     7
 10
49.453099999999999
 20
268.59699999999998
 30
0.0
 11
49.453099999999999
 21
269.72199999999998
 31
0.0
  0
LINE
  5
36B
  8
0
 62
     7
 10
54.453200000000002
 20
268.59699999999998
 30
0.0
 11
54.453200000000002
 21
270.09699999999998
 31
0.0
  0
LINE
  5
36C
  8
0
 62
     7
 10
54.078200000000002
 20
229.63900000000001
 30
0.0
 11
54.078200000000002
 21
254.63900000000001
 31
0.0
  0
LINE
  5
36D
  8
0
 62
     7
 10
47.453200000000002
 20
253.38900000000001
 30
0.0
 11
46.953200000000002
 21
253.88900000000001
 31
0.0
  0
LINE
  5
36E
  8
0
 62
     7
 10
46.953200000000002
 20
253.88900000000001
 30
0.0
 11
46.953200000000002
 21
254.63900000000001
 31
0.0
  0
LINE
  5
36F
  8
0
 62
     7
 10
46.953200000000002
 20
229.63900000000001
 30
0.0
 11
46.953200000000002
 21
230.38900000000001
 31
0.0
  0
LINE
  5
370
  8
0
 62
     7
 10
47.453200000000002
 20
230.88900000000001
 30
0.0
 11
47.453200000000002
 21
253.38900000000001
 31
0.0
  0
LINE
  5
371
  8
0
 62
     7
 10
49.453099999999999
 20
229.63900000000001
 30
0.0
 11
49.453099999999999
 21
254.63900000000001
 31
0.0
  0
LINE
  5
372
  8
0
  6
AIGENLINE002
 62
     7
 10
51.953200000000002
 20
228.839
 30
0.0
 11
51.953200000000002
 21
255.53299999999999
 31
0.0
  0
LINE
  5
373
  8
0
 62
     7
 10
54.453200000000002
 20
229.63900000000001
 30
0.0
 11
54.453200000000002
 21
254.63900000000001
 31
0.0
  0
TEXT
  5
374
  8
_________2
 62
     7
 10
132.69800000000001
 20
227.36199999999999
 30
0.0
 40
3.9357000000000002
  1
※壁取付部には厚さ30mm以上
 50
90.0
 41
0.5
  0
TEXT
  5
375
  8
_________2
 62
     7
 10
137.61699999999999
 20
227.36199999999999
 30
0.0
 40
3.9357000000000002
  1
　の補強木を入れてください。
 50
90.0
 41
0.5
  0
TEXT
  5
376
  8
_________2
 62
     7
 10
142.53700000000001
 20
227.36199999999999
 30
0.0
 40
3.9357000000000002
  1
※商品上部には、必ず100mm以上
 50
90.0
 41
0.5
  0
TEXT
  5
377
  8
_________2
 62
     7
 10
147.45699999999999
 20
227.36199999999999
 30
0.0
 40
3.9357000000000002
  1
　の施工空間を設けてください。
 50
90.0
 41
0.5
  0
TEXT
  5
378
  8
_________2
 62
     7
 10
152.376
 20
227.36199999999999
 30
0.0
 40
3.9357000000000002
  1
※表面材：低圧メラミン化粧板
 50
90.0
 41
0.5
  0
TEXT
  5
379
  8
_________2
 62
     7
 10
157.29599999999999
 20
227.36199999999999
 30
0.0
 40
3.9357000000000002
  1
　基材：パーティクルボード
 50
90.0
 41
0.5
  0
LINE
  5
37A
  8
_________2
 62
     7
 10
210.24000000000001
 20
148.93000000000001
 30
0.0
 11
188.489
 21
148.93000000000001
 31
0.0
  0
LINE
  5
37B
  8
_________2
 62
     7
 10
105.239
 20
17.4282
 30
0.0
 11
105.239
 21
0.447865
 31
0.0
  0
LINE
  5
37C
  8
_________2
 62
     7
 10
105.239
 20
297.44999999999999
 30
0.0
 11
105.239
 21
280.43000000000001
 31
0.0
  0
LINE
  5
37D
  8
_________2
 62
     7
 10
21.988499999999998
 20
148.93000000000001
 30
0.0
 11
0.238402
 21
148.93000000000001
 31
0.0
  0
LINE
  5
37E
  8
_________2
 62
     7
 10
81.679900000000004
 20
51.323999999999998
 30
0.0
 11
79.493700000000004
 21
51.323999999999998
 31
0.0
  0
LINE
  5
37F
  8
_________2
 62
     7
 10
82.172600000000017
 20
51.323999999999998
 30
0.0
 11
81.920400000000001
 21
51.323999999999998
 31
0.0
  0
LINE
  5
380
  8
_________2
 62
     7
 10
82.665199999999984
 20
51.323999999999998
 30
0.0
 11
85.590100000000007
 21
51.323999999999998
 31
0.0
  0
LINE
  5
381
  8
_________2
 62
     7
 10
82.172600000000017
 20
51.323999999999998
 30
0.0
 11
82.424400000000006
 21
51.323999999999998
 31
0.0
  0
LINE
  5
382
  8
_________2
 62
     7
 10
75.77600000000001
 20
51.323999999999998
 30
0.0
 11
73.589399999999998
 21
51.323999999999998
 31
0.0
  0
LINE
  5
383
  8
_________2
 62
     7
 10
76.2684
 20
51.323999999999998
 30
0.0
 11
76.016499999999994
 21
51.323999999999998
 31
0.0
  0
LINE
  5
384
  8
_________2
 62
     7
 10
76.2684
 20
51.816600000000001
 30
0.0
 11
76.2684
 21
54.003599999999999
 31
0.0
  0
LINE
  5
385
  8
_________2
 62
     7
 10
76.2684
 20
51.323999999999998
 30
0.0
 11
76.2684
 21
51.5762
 31
0.0
  0
LINE
  5
386
  8
_________2
 62
     7
 10
76.76100000000001
 20
51.323999999999998
 30
0.0
 11
78.947999999999993
 21
51.323999999999998
 31
0.0
  0
LINE
  5
387
  8
_________2
 62
     7
 10
76.2684
 20
51.323999999999998
 30
0.0
 11
76.520499999999998
 21
51.323999999999998
 31
0.0
  0
LINE
  5
388
  8
_________2
 62
     7
 10
76.2684
 20
50.832000000000001
 30
0.0
 11
76.2684
 21
48.645099999999999
 31
0.0
  0
LINE
  5
389
  8
_________2
 62
     7
 10
76.2684
 20
51.323999999999998
 30
0.0
 11
76.2684
 21
51.072499999999998
 31
0.0
  0
LINE
  5
38A
  8
_________2
 62
     7
 10
79.979399999999984
 20
50.104399999999998
 30
0.0
 11
85.157399999999996
 21
49.239699999999999
 31
0.0
  0
LINE
  5
38B
  8
_________2
 62
     7
 10
79.979399999999984
 20
52.543599999999998
 30
0.0
 11
85.157399999999996
 21
53.408999999999999
 31
0.0
  0
LINE
  5
38C
  8
_________2
 62
     7
 10
85.157399999999996
 20
49.239699999999999
 30
0.0
 11
85.157399999999996
 21
53.408999999999999
 31
0.0
  0
LINE
  5
38D
  8
_________2
 62
     7
 10
79.979399999999984
 20
50.104399999999998
 30
0.0
 11
79.979399999999984
 21
52.543599999999998
 31
0.0
  0
ARC
  5
38E
  8
_________2
 62
     7
 10
76.221776000000006
 20
51.277046999999989
 30
0.0
 40
1.2673589999999999
 50
2.122214
 51
87.893958999999995
  0
ARC
  5
38F
  8
_________2
 62
     7
 10
76.315273000000005
 20
51.277056000000002
 30
0.0
 40
1.267363
 50
92.121785999999986
 51
177.878185
  0
ARC
  5
390
  8
_________2
 62
     7
 10
76.315273000000005
 20
51.370902000000001
 30
0.0
 40
1.267363
 50
182.121815
 51
267.87821400000001
  0
ARC
  5
391
  8
_________2
 62
     7
 10
76.221451999999999
 20
51.371234999999999
 30
0.0
 40
1.267695999999999
 50
272.12015300000002
 51
357.863674
  0
ARC
  5
392
  8
_________2
 62
     7
 10
76.268349999999984
 20
51.323979000000001
 30
0.0
 40
2.0849849999999992
 50
0.00001
 51
89.999980000000008
  0
ARC
  5
393
  8
_________2
 62
     7
 10
76.268523000000002
 20
51.324151000000001
 30
0.0
 40
2.084813
 50
90.004733999999999
 51
180.00474399999999
  0
ARC
  5
394
  8
_________2
 62
     7
 10
76.348021000000003
 20
51.404007
 30
0.0
 40
2.1657899999999999
 50
182.117637
 51
267.891862
  0
ARC
  5
395
  8
_________2
 62
     7
 10
76.188378999999983
 20
51.404665999999992
 30
0.0
 40
2.1664590000000001
 50
272.11546800000002
 51
357.86560400000002
  0
TEXT
  5
396
  8
_________2
 62
     7
 10
109.544
 20
23.198699999999999
 30
0.0
 40
3.0923400000000001
  1
図番
 41
0.5
  0
LINE
  5
397
  8
_________2
 62
     7
 10
108.489
 20
27.428000000000001
 30
0.0
 11
188.49000000000001
 21
27.428000000000001
 31
0.0
  0
TEXT
  5
398
  8
_________2
 62
     7
 10
109.544
 20
33.19850000000001
 30
0.0
 40
3.0923400000000001
  1
品番
 41
0.5
  0
TEXT
  5
399
  8
_________2
 62
     7
 10
109.544
 20
53.337299999999999
 30
0.0
 40
3.0923400000000001
  1
名称
 41
0.5
  0
TEXT
  5
39A
  8
_________2
 62
     7
 10
96.784058333333334
 20
48.341200000000001
 30
0.0
 40
3.6545800000000002
  1
mm
 41
0.5
 72
     1
 11
98.306799999999996
 21
48.341200000000001
 31
0.0
  0
TEXT
  5
39B
  8
_________2
 62
     7
 10
90.582099999999997
 20
53.337299999999999
 30
0.0
 40
3.0923400000000001
  1
単位
 41
0.5
  0
TEXT
  5
39C
  8
_________2
 62
     7
 10
90.582099999999997
 20
40.930100000000003
 30
0.0
 40
3.0923400000000001
  1
尺度
 41
0.5
  0
TEXT
  5
39D
  8
_________2
 62
     7
 10
95.030836166666674
 20
34.737099999999998
 30
0.0
 40
3.6545800000000002
  1
1 ： 10
 41
0.5
 72
     1
 11
98.898600000000002
 21
34.737099999999998
 31
0.0
  0
TEXT
  5
39E
  8
_________2
 62
     7
 10
142.7494375
 20
30.627099999999999
 30
0.0
 40
3.9357000000000002
  1
DV7370
 41
0.5
 72
     1
 11
148.489
 21
30.627099999999999
 31
0.0
  0
TEXT
  5
39F
  8
_________2
 62
     7
 10
142.7494375
 20
20.6266
 30
0.0
 40
3.9357000000000002
  1
DV7370
 41
0.5
 72
     1
 11
148.489
 21
20.6266
 31
0.0
  0
TEXT
  5
3A0
  8
_________2
 62
     7
 10
29.525700000000001
 20
22.226500000000001
 30
0.0
 40
3.9357000000000002
  1
重量：18.4kg
 41
0.5
  0
TEXT
  5
3A1
  8
_________2
 62
     7
 10
114.117
 20
45.74499999999999
 30
0.0
 40
3.9357000000000002
  1
ヴェーロミラー（シェルフ付）
 41
0.5
  0
TEXT
  5
3A2
  8
_________2
 62
     7
 10
44.303290666666669
 20
35.12230000000001
 30
0.0
 40
3.6545800000000002
  1
篠崎
 41
0.5
 72
     1
 11
46.252400000000002
 21
35.12230000000001
 31
0.0
  0
TEXT
  5
3A3
  8
_________2
 62
     7
 10
25.728990666666672
 20
35.12230000000001
 30
0.0
 40
3.6545800000000002
  1
菅原
 41
0.5
 72
     1
 11
27.678100000000001
 21
35.12230000000001
 31
0.0
  0
TEXT
  5
3A4
  8
_________2
 62
     7
 10
72.724400000000003
 20
34.737099999999998
 30
0.0
 40
3.6545800000000002
  1
17.01.05
 41
0.5
  0
TEXT
  5
3A5
  8
_________2
 62
     7
 10
71.531999999999996
 20
40.930100000000003
 30
0.0
 40
3.0923400000000001
  1
日付
 41
0.5
  0
TEXT
  5
3A6
  8
_________2
 62
     7
 10
34.578299999999999
 20
40.930100000000003
 30
0.0
 40
3.0923400000000001
  1
検図
 41
0.5
  0
TEXT
  5
3A7
  8
_________2
 62
     7
 10
22.960000000000001
 20
26.730699999999999
 30
0.0
 40
3.0923400000000001
  1
備考
 41
0.5
  0
TEXT
  5
3A8
  8
_________2
 62
     7
 10
22.960000000000001
 20
40.930100000000003
 30
0.0
 40
3.0923400000000001
  1
製図
 41
0.5
  0
TEXT
  5
3A9
  8
_________2
 62
     7
 10
28.727365333333339
 20
49.456000000000003
 30
0.0
 40
4.4979399999999989
  1
セラトレーディング株式会社
 41
0.5
 72
     1
 11
46.119399999999992
 21
49.456000000000003
 31
0.0
  0
LINE
  5
3AA
  8
_________2
 62
     7
 10
188.49000000000001
 20
17.4282
 30
0.0
 11
21.988499999999998
 21
17.4282
 31
0.0
  0
LINE
  5
3AB
  8
_________2
 62
     7
 10
21.988499999999998
 20
17.4282
 30
0.0
 11
21.988499999999998
 21
280.43000000000001
 31
0.0
  0
LINE
  5
3AC
  8
_________2
 62
     7
 10
21.988499999999998
 20
280.43000000000001
 30
0.0
 11
188.49000000000001
 21
280.43000000000001
 31
0.0
  0
LINE
  5
3AD
  8
_________2
 62
     7
 10
188.49000000000001
 20
280.43000000000001
 30
0.0
 11
188.49000000000001
 21
17.4282
 31
0.0
  0
LINE
  5
3AE
  8
_________2
 62
     7
 10
70.488500000000002
 20
30.9282
 30
0.0
 11
70.488500000000002
 21
57.427999999999997
 31
0.0
  0
LINE
  5
3AF
  8
_________2
 62
     7
 10
89.488600000000005
 20
30.9282
 30
0.0
 11
89.488600000000005
 21
57.427999999999997
 31
0.0
  0
LINE
  5
3B0
  8
_________2
 62
     7
 10
108.489
 20
17.4282
 30
0.0
 11
108.489
 21
57.427999999999997
 31
0.0
  0
LINE
  5
3B1
  8
_________2
 62
     7
 10
33.488300000000002
 20
30.9282
 30
0.0
 11
33.488300000000002
 21
44.928499999999993
 31
0.0
  0
LINE
  5
3B2
  8
_________2
 62
     7
 10
21.988499999999998
 20
30.9282
 30
0.0
 11
108.489
 21
30.9282
 31
0.0
  0
LINE
  5
3B3
  8
_________2
 62
     7
 10
21.988499999999998
 20
44.928499999999993
 30
0.0
 11
108.489
 21
44.928499999999993
 31
0.0
  0
LINE
  5
3B4
  8
_________2
 62
     7
 10
108.489
 20
37.427799999999998
 30
0.0
 11
188.49000000000001
 21
37.427799999999998
 31
0.0
  0
LINE
  5
3B5
  8
_________2
 62
     7
 10
21.988499999999998
 20
57.427999999999997
 30
0.0
 11
188.49000000000001
 21
57.427999999999997
 31
0.0
  0
ENDSEC
  0
EOF
