  0
SECTION
  2
HEADER
  9
$ACADVER
  1
AC1009
  9
$INSBASE
 10
0.0
 20
0.0
 30
0.0
  9
$EXTMIN
 10
0.238058
 20
0.4482100000000001
 30
0.0
  9
$EXTMAX
 10
210.24000000000001
 20
297.44999999999987
 30
0.0
  9
$LIMMIN
 10
0.0
 20
0.0
  9
$LIMMAX
 10
12.0
 20
9.0
  9
$ORTHOMODE
 70
     0
  9
$REGENMODE
 70
     1
  9
$FILLMODE
 70
     1
  9
$QTEXTMODE
 70
     0
  9
$MIRRTEXT
 70
     1
  9
$DRAGMODE
 70
     2
  9
$LTSCALE
 40
1.0
  9
$OSMODE
 70
    37
  9
$ATTMODE
 70
     1
  9
$TEXTSIZE
 40
0.0
  9
$TRACEWID
 40
0.05
  9
$TEXTSTYLE
  7
STANDARD
  9
$CLAYER
  8
0
  9
$CELTYPE
  6
CONTINUOUS
  9
$CECOLOR
 62
   256
  9
$DIMSCALE
 40
1.0
  9
$DIMASZ
 40
0.18
  9
$DIMEXO
 40
0.0625
  9
$DIMDLI
 40
0.38
  9
$DIMRND
 40
0.0
  9
$DIMDLE
 40
0.0
  9
$DIMEXE
 40
0.18
  9
$DIMTP
 40
0.0
  9
$DIMTM
 40
0.0
  9
$DIMTXT
 40
0.18
  9
$DIMCEN
 40
0.09
  9
$DIMTSZ
 40
0.0
  9
$DIMTOL
 70
     0
  9
$DIMLIM
 70
     0
  9
$DIMTIH
 70
     1
  9
$DIMTOH
 70
     1
  9
$DIMSE1
 70
     0
  9
$DIMSE2
 70
     0
  9
$DIMTAD
 70
     0
  9
$DIMZIN
 70
     0
  9
$DIMBLK
  1

  9
$DIMASO
 70
     1
  9
$DIMSHO
 70
     1
  9
$DIMPOST
  1

  9
$DIMAPOST
  1

  9
$DIMALT
 70
     0
  9
$DIMALTD
 70
     2
  9
$DIMALTF
 40
25.399999999999999
  9
$DIMLFAC
 40
1.0
  9
$DIMTOFL
 70
     0
  9
$DIMTVP
 40
0.0
  9
$DIMTIX
 70
     0
  9
$DIMSOXD
 70
     0
  9
$DIMSAH
 70
     0
  9
$DIMBLK1
  1

  9
$DIMBLK2
  1

  9
$DIMSTYLE
  2
STANDARD
  9
$DIMCLRD
 70
     0
  9
$DIMCLRE
 70
     0
  9
$DIMCLRT
 70
     0
  9
$DIMTFAC
 40
1.0
  9
$DIMGAP
 40
0.09
  9
$LUNITS
 70
     2
  9
$LUPREC
 70
     4
  9
$SKETCHINC
 40
0.1
  9
$FILLETRAD
 40
0.0
  9
$AUNITS
 70
     0
  9
$AUPREC
 70
     0
  9
$MENU
  1
.
  9
$ELEVATION
 40
0.0
  9
$PELEVATION
 40
0.0
  9
$THICKNESS
 40
0.0
  9
$LIMCHECK
 70
     0
  9
$BLIPMODE
 70
     0
  9
$CHAMFERA
 40
0.0
  9
$CHAMFERB
 40
0.0
  9
$SKPOLY
 70
     0
  9
$TDCREATE
 40
2444972.375
  9
$TDUPDATE
 40
2455965.3654783331
  9
$TDINDWG
 40
0.0000084028
  9
$TDUSRTIMER
 40
0.0000084028
  9
$USRTIMER
 70
     1
  9
$ANGBASE
 50
0.0
  9
$ANGDIR
 70
     0
  9
$PDMODE
 70
     0
  9
$PDSIZE
 40
0.0
  9
$PLINEWID
 40
0.0
  9
$COORDS
 70
     1
  9
$SPLFRAME
 70
     0
  9
$SPLINETYPE
 70
     6
  9
$SPLINESEGS
 70
     8
  9
$ATTDIA
 70
     0
  9
$ATTREQ
 70
     1
  9
$HANDLING
 70
     1
  9
$HANDSEED
  5
193
  9
$SURFTAB1
 70
     6
  9
$SURFTAB2
 70
     6
  9
$SURFTYPE
 70
     6
  9
$SURFU
 70
     6
  9
$SURFV
 70
     6
  9
$UCSNAME
  2

  9
$UCSORG
 10
0.0
 20
0.0
 30
0.0
  9
$UCSXDIR
 10
1.0
 20
0.0
 30
0.0
  9
$UCSYDIR
 10
0.0
 20
1.0
 30
0.0
  9
$PUCSNAME
  2

  9
$PUCSORG
 10
0.0
 20
0.0
 30
0.0
  9
$PUCSXDIR
 10
1.0
 20
0.0
 30
0.0
  9
$PUCSYDIR
 10
0.0
 20
1.0
 30
0.0
  9
$USERI1
 70
     0
  9
$USERI2
 70
     0
  9
$USERI3
 70
     0
  9
$USERI4
 70
     0
  9
$USERI5
 70
     0
  9
$USERR1
 40
0.0
  9
$USERR2
 40
0.0
  9
$USERR3
 40
0.0
  9
$USERR4
 40
0.0
  9
$USERR5
 40
0.0
  9
$WORLDVIEW
 70
     1
  9
$SHADEDGE
 70
     3
  9
$SHADEDIF
 70
    70
  9
$TILEMODE
 70
     1
  9
$MAXACTVP
 70
    48
  9
$PLIMCHECK
 70
     0
  9
$PEXTMIN
 10
1.0000000000000000E+020
 20
1.0000000000000000E+020
 30
1.0000000000000000E+020
  9
$PEXTMAX
 10
-1.0000000000000000E+020
 20
-1.0000000000000000E+020
 30
-1.0000000000000000E+020
  9
$PLIMMIN
 10
0.0
 20
0.0
  9
$PLIMMAX
 10
12.0
 20
9.0
  9
$UNITMODE
 70
     0
  9
$VISRETAIN
 70
     1
  9
$PLINEGEN
 70
     0
  9
$PSLTSCALE
 70
     1
  0
ENDSEC
  0
SECTION
  2
TABLES
  0
TABLE
  2
VPORT
 70
     2
  0
VPORT
  2
*ACTIVE
 70
     0
 10
0.0
 20
0.0
 11
1.0
 21
1.0
 12
210.2887023820887
 22
148.72499999999991
 13
0.0
 23
0.0
 14
1.0
 24
1.0
 15
0.0
 25
0.0
 16
0.0
 26
0.0
 36
1.0
 17
0.0
 27
0.0
 37
0.0
 40
299.69773299748101
 41
2.2894736842105261
 42
50.0
 43
0.0
 44
0.0
 50
0.0
 51
0.0
 71
     0
 72
   100
 73
     1
 74
     1
 75
     0
 76
     0
 77
     0
 78
     0
  0
ENDTAB
  0
TABLE
  2
LTYPE
 70
     2
  0
LTYPE
  2
CONTINUOUS
 70
     0
  3
Solid line
 72
    65
 73
     0
 40
0.0
  0
LTYPE
  2
AIGENLINE001
 70
     0
  3
generate AI->DXF Converter
 72
    65
 73
     4
 40
5.8561449999999988
 49
3.5278
 49
-0.776115
 49
0.776115
 49
-0.776115
  0
ENDTAB
  0
TABLE
  2
LAYER
 70
     2
  0
LAYER
  2
0
 70
     0
 62
     7
  6
CONTINUOUS
  0
LAYER
  2
_________2
 70
     0
 62
     7
  6
CONTINUOUS
  0
ENDTAB
  0
TABLE
  2
STYLE
 70
     1
  0
STYLE
  2
STANDARD
 70
     0
 40
0.0
 41
0.0
 50
0.0
 71
     0
 42
0.0
  3
TXT
  4
EXTFONT.SHX
  0
ENDTAB
  0
TABLE
  2
VIEW
 70
     0
  0
ENDTAB
  0
TABLE
  2
UCS
 70
     0
  0
ENDTAB
  0
TABLE
  2
APPID
 70
     1
  0
APPID
  2
ACAD
 70
     0
  0
ENDTAB
  0
TABLE
  2
DIMSTYLE
 70
     1
  0
DIMSTYLE
  2
STANDARD
 70
     0
  3

  4

  5

  6

  7

 40
1.0
 41
0.18
 42
0.0625
 43
0.38
 44
0.18
 45
0.0
 46
0.0
 47
0.0
 48
0.0
140
0.18
141
0.09
142
0.0
143
25.399999999999999
144
1.0
145
0.0
146
1.0
147
0.09
 71
     0
 72
     0
 73
     1
 74
     1
 75
     0
 76
     0
 77
     0
 78
     0
170
     0
171
     2
172
     0
173
     0
174
     0
175
     0
176
     0
177
     0
178
     0
  0
ENDTAB
  0
ENDSEC
  0
SECTION
  2
BLOCKS
  0
BLOCK
  8
0
  2
$MODEL_SPACE
 70
     0
 10
0.0
 20
0.0
 30
0.0
  3
$MODEL_SPACE
  1

  0
ENDBLK
  5
1A
  8
0
  0
BLOCK
 67
     1
  8
0
  2
$PAPER_SPACE
 70
     0
 10
0.0
 20
0.0
 30
0.0
  3
$PAPER_SPACE
  1

  0
ENDBLK
  5
17
 67
     1
  8
0
  0
ENDSEC
  0
SECTION
  2
ENTITIES
  0
TEXT
  5
22
  8
0
 62
     7
 10
144.30199999999999
 20
155.17874499999991
 30
0.0
 40
3.0923400000000001
  1
1008
 50
90.0
 41
0.5
 72
     1
 11
144.30199999999999
 21
157.49799999999999
 31
0.0
  0
TEXT
  5
23
  8
0
 62
     7
 10
64.517099999999999
 20
99.244200000000006
 30
0.0
 40
3.0923400000000001
  1
14
 41
0.5
  0
TEXT
  5
24
  8
0
 62
     7
 10
128.55421999999999
 20
247.1759999999999
 30
0.0
 40
3.0923400000000001
  1
71
 41
0.5
 72
     1
 11
129.58500000000001
 21
247.1759999999999
 31
0.0
  0
ARC
  5
25
  8
0
 62
     7
 10
69.390002999999993
 20
74.241371999999998
 30
0.0
 40
0.328487
 50
270.87105600000001
 51
328.56658399999998
  0
ARC
  5
26
  8
0
 62
     7
 10
69.098315999999997
 20
74.451977999999997
 30
0.0
 40
0.687753
 50
326.26823599999989
 51
343.98994399999998
  0
ARC
  5
27
  8
0
 62
     7
 10
68.468337000000005
 20
74.633926000000002
 30
0.0
 40
1.34348
 50
343.94136400000002
 51
1.222173999999999
  0
ARC
  5
28
  8
0
 62
     7
 10
69.389992000000007
 20
75.084518000000003
 30
0.0
 40
0.328448
 50
31.418651999999991
 51
89.126809999999992
  0
ARC
  5
29
  8
0
 62
     7
 10
69.097697999999994
 20
74.873677999999998
 30
0.0
 40
0.6883460000000001
 50
15.995673
 51
33.713107000000001
  0
ARC
  5
2A
  8
0
 62
     7
 10
68.465620000000001
 20
74.691338000000002
 30
0.0
 40
1.346198999999999
 50
358.77598999999998
 51
16.042539999999999
  0
ARC
  5
2B
  8
0
 62
     7
 10
67.229458999999991
 20
74.227345999999997
 30
0.0
 40
0.314425
 50
223.39310199999991
 51
269.73741499999988
  0
ARC
  5
2C
  8
0
 62
     7
 10
67.37781600000001
 20
74.369451999999995
 30
0.0
 40
0.5198580000000002
 50
203.645903
 51
223.54089799999991
  0
ARC
  5
2D
  8
0
 62
     7
 10
67.943914000000007
 20
74.607067999999998
 30
0.0
 40
1.1337699999999999
 50
177.19344599999991
 51
203.17159299999989
  0
ARC
  5
2E
  8
0
 62
     7
 10
67.229458999999991
 20
75.098577000000006
 30
0.0
 40
0.314354
 50
90.262614999999983
 51
136.62058999999991
  0
ARC
  5
2F
  8
0
 62
     7
 10
67.377840000000006
 20
74.956471999999991
 30
0.0
 40
0.5198040000000002
 50
136.4692399999999
 51
156.37434999999991
  0
ARC
  5
30
  8
0
 62
     7
 10
67.945653000000007
 20
74.718289999999996
 30
0.0
 40
1.1355170000000001
 50
156.84552400000001
 51
182.8120909999999
  0
ARC
  5
31
  8
0
 62
     7
 10
68.354641000000001
 20
73.532868999999991
 30
0.0
 40
0.954181
 50
267.409109
 51
287.05944399999993
  0
ARC
  5
32
  8
0
 62
     7
 10
68.570488999999995
 20
72.854177000000007
 30
0.0
 40
0.242137
 50
285.34420299999999
 51
354.21695099999988
  0
ARC
  5
33
  8
0
 62
     7
 10
68.309662000000003
 20
74.071359000000001
 30
0.0
 40
1.4916969999999989
 50
261.05104799999992
 51
270.07089300000001
  0
ARC
  5
34
  8
0
 62
     7
 10
68.14949399999999
 20
73.064853999999997
 30
0.0
 40
0.472532
 50
238.65181299999989
 51
261.25136900000001
  0
ARC
  5
35
  8
0
 62
     7
 10
68.010885999999985
 20
72.829261000000002
 30
0.0
 40
0.199265
 50
179.85116199999999
 51
237.44693699999999
  0
ARC
  5
36
  8
0
 62
     7
 10
68.354641000000001
 20
75.792982999999992
 30
0.0
 40
0.954181
 50
72.940556000000001
 51
92.590890999999999
  0
ARC
  5
37
  8
0
 62
     7
 10
68.570488999999995
 20
76.471675000000005
 30
0.0
 40
0.242137
 50
5.7830490000000001
 51
74.655796999999993
  0
ARC
  5
38
  8
0
 62
     7
 10
68.309662000000003
 20
75.254491999999999
 30
0.0
 40
1.4916969999999989
 50
89.929107000000016
 51
98.948952000000006
  0
ARC
  5
39
  8
0
 62
     7
 10
68.14949399999999
 20
76.260997000000003
 30
0.0
 40
0.472532
 50
98.748631000000003
 51
121.348187
  0
ARC
  5
3A
  8
0
 62
     7
 10
68.010885999999985
 20
76.496589999999983
 30
0.0
 40
0.199265
 50
122.5530629999999
 51
180.1488379999999
  0
LINE
  5
3B
  8
0
 62
     7
 10
68.811400000000006
 20
72.829800000000006
 30
0.0
 11
68.811400000000006
 21
73.829599999999999
 31
0.0
  0
LINE
  5
3C
  8
0
 62
     7
 10
68.811400000000006
 20
75.496300000000005
 30
0.0
 11
68.811400000000006
 21
76.496099999999998
 31
0.0
  0
LINE
  5
3D
  8
0
 62
     7
 10
67.811599999999984
 20
76.496099999999998
 30
0.0
 11
67.811599999999984
 21
75.496300000000005
 31
0.0
  0
LINE
  5
3E
  8
0
 62
     7
 10
67.811599999999984
 20
73.829599999999999
 30
0.0
 11
67.811599999999984
 21
72.829800000000006
 31
0.0
  0
LINE
  5
3F
  8
0
 62
     7
 10
68.942700000000002
 20
72.212400000000002
 30
0.0
 11
69.3947
 21
73.162599999999983
 31
0.0
  0
LINE
  5
40
  8
0
 62
     7
 10
68.138599999999997
 20
71.912700000000001
 30
0.0
 11
68.484499999999997
 21
71.912700000000001
 31
0.0
  0
ARC
  5
41
  8
0
 62
     7
 10
68.476481000000007
 20
72.424971999999997
 30
0.0
 40
0.5123450000000001
 50
270.89150799999999
 51
335.48873900000001
  0
LINE
  5
42
  8
0
 62
     7
 10
67.680400000000006
 20
72.212400000000002
 30
0.0
 11
67.228000000000009
 21
73.162599999999983
 31
0.0
  0
ARC
  5
43
  8
0
 62
     7
 10
68.146439999999998
 20
72.424826999999993
 30
0.0
 40
0.512199
 50
204.50094899999991
 51
269.11884500000002
  0
LINE
  5
44
  8
0
 62
     7
 10
68.942700000000002
 20
77.113399999999984
 30
0.0
 11
69.3947
 21
76.162599999999998
 31
0.0
  0
LINE
  5
45
  8
0
 62
     7
 10
68.138599999999997
 20
77.413200000000003
 30
0.0
 11
68.484499999999997
 21
77.413200000000003
 31
0.0
  0
ARC
  5
46
  8
0
 62
     7
 10
68.476611000000005
 20
76.901078999999996
 30
0.0
 40
0.512144
 50
24.497084999999998
 51
89.122668999999973
  0
LINE
  5
47
  8
0
 62
     7
 10
67.680400000000006
 20
77.113399999999984
 30
0.0
 11
67.228000000000009
 21
76.162599999999998
 31
0.0
  0
ARC
  5
48
  8
0
 62
     7
 10
68.146534000000003
 20
76.900880000000001
 30
0.0
 40
0.5123450000000001
 50
90.891488000000024
 51
155.488719
  0
LINE
  5
49
  8
0
 62
     7
 10
69.3947
 20
76.162599999999998
 30
0.0
 11
69.3947
 21
73.162599999999983
 31
0.0
  0
LINE
  5
4A
  8
0
 62
     7
 10
67.228000000000009
 20
76.162599999999998
 30
0.0
 11
67.228000000000009
 21
73.162599999999983
 31
0.0
  0
ARC
  5
4B
  8
0
 62
     7
 10
68.292135000000002
 20
74.643566000000007
 30
0.0
 40
0.519608
 50
2.0972419999999992
 51
87.863275000000002
  0
ARC
  5
4C
  8
0
 62
     7
 10
68.330554000000006
 20
74.643892000000008
 30
0.0
 40
0.5192700000000001
 50
92.102046000000001
 51
177.93739699999989
  0
ARC
  5
4D
  8
0
 62
     7
 10
68.330209999999994
 20
74.681640999999999
 30
0.0
 40
0.518938
 50
182.10483199999999
 51
267.93469800000003
  0
ARC
  5
4E
  8
0
 62
     7
 10
68.292750999999996
 20
74.681696000000002
 30
0.0
 40
0.5189960000000001
 50
272.07119099999989
 51
357.889318
  0
LINE
  5
4F
  8
0
 62
     7
 10
69.144900000000007
 20
75.496300000000005
 30
0.0
 11
67.478099999999998
 21
75.496300000000005
 31
0.0
  0
LINE
  5
50
  8
0
 62
     7
 10
67.478099999999998
 20
75.496300000000005
 30
0.0
 11
67.478099999999998
 21
73.829599999999999
 31
0.0
  0
LINE
  5
51
  8
0
 62
     7
 10
67.478099999999998
 20
73.829599999999999
 30
0.0
 11
69.144900000000007
 21
73.829599999999999
 31
0.0
  0
LINE
  5
52
  8
0
 62
     7
 10
69.144900000000007
 20
73.829599999999999
 30
0.0
 11
69.144900000000007
 21
75.496300000000005
 31
0.0
  0
LINE
  5
53
  8
0
 62
     7
 10
71.853399999999993
 20
75.023600000000002
 30
0.0
 11
71.436599999999999
 21
75.023600000000002
 31
0.0
  0
LINE
  5
54
  8
0
 62
     7
 10
71.436599999999999
 20
75.023600000000002
 30
0.0
 11
71.228499999999997
 21
74.662599999999998
 31
0.0
  0
LINE
  5
55
  8
0
 62
     7
 10
71.228499999999997
 20
74.662599999999998
 30
0.0
 11
71.436599999999999
 21
74.302199999999999
 31
0.0
  0
LINE
  5
56
  8
0
 62
     7
 10
71.436599999999999
 20
74.302199999999999
 30
0.0
 11
71.853399999999993
 21
74.302199999999999
 31
0.0
  0
LINE
  5
57
  8
0
 62
     7
 10
71.853399999999993
 20
74.302199999999999
 30
0.0
 11
72.061499999999995
 21
74.662599999999998
 31
0.0
  0
LINE
  5
58
  8
0
 62
     7
 10
72.061499999999995
 20
74.662599999999998
 30
0.0
 11
71.853399999999993
 21
75.023600000000002
 31
0.0
  0
ARC
  5
59
  8
0
 62
     7
 10
71.606077999999997
 20
74.624371999999994
 30
0.0
 40
1.039401
 50
2.1067269999999998
 51
87.853789000000035
  0
ARC
  5
5A
  8
0
 62
     7
 10
71.645176000000006
 20
74.662753000000009
 30
0.0
 40
1.000289999999999
 50
90.009867000000014
 51
180.0098769999999
  0
ARC
  5
5B
  8
0
 62
     7
 10
71.682912000000002
 20
74.700847999999993
 30
0.0
 40
1.0387319999999991
 50
182.11125799999999
 51
267.90851199999997
  0
ARC
  5
5C
  8
0
 62
     7
 10
71.606770999999995
 20
74.700814000000008
 30
0.0
 40
1.0387090000000001
 50
272.10941600000001
 51
357.89059300000002
  0
LINE
  5
5D
  8
0
 62
     7
 10
63.478000000000002
 20
75.412899999999993
 30
0.0
 11
65.478200000000001
 21
75.412899999999993
 31
0.0
  0
LINE
  5
5E
  8
0
 62
     7
 10
63.478000000000002
 20
73.912899999999993
 30
0.0
 11
65.478200000000001
 21
73.912899999999993
 31
0.0
  0
ARC
  5
5F
  8
0
 62
     7
 10
65.473495999999997
 20
74.322496000000001
 30
0.0
 40
0.4096
 50
270.6640569999999
 51
322.437521
  0
ARC
  5
60
  8
0
 62
     7
 10
65.122591
 20
74.60126600000001
 30
0.0
 40
0.8577329999999999
 50
321.96612999999991
 51
4.099291
  0
ARC
  5
61
  8
0
 62
     7
 10
65.473510000000005
 20
75.003457999999995
 30
0.0
 40
0.409497
 50
37.546877000000002
 51
89.337660999999997
  0
ARC
  5
62
  8
0
 62
     7
 10
65.121690999999998
 20
74.724195999999992
 30
0.0
 40
0.8586530000000001
 50
355.88508100000001
 51
38.014792999999997
  0
ARC
  5
63
  8
0
 62
     7
 10
63.484793999999987
 20
74.340444999999974
 30
0.0
 40
0.427575
 50
204.197845
 51
269.09064799999987
  0
ARC
  5
64
  8
0
 62
     7
 10
63.948461999999992
 20
74.627798999999996
 30
0.0
 40
0.9709629999999998
 50
177.94706099999999
 51
208.45357199999989
  0
ARC
  5
65
  8
0
 62
     7
 10
63.484799000000002
 20
74.985478000000001
 30
0.0
 40
0.427504
 50
90.910109999999989
 51
155.8249769999999
  0
ARC
  5
66
  8
0
 62
     7
 10
63.949781000000009
 20
74.697590000000005
 30
0.0
 40
0.9722899999999999
 50
151.565349
 51
182.06348700000001
  0
LINE
  5
67
  8
0
 62
     7
 10
67.228000000000009
 20
75.829800000000006
 30
0.0
 11
62.1447
 21
75.829800000000006
 31
0.0
  0
LINE
  5
68
  8
0
 62
     7
 10
62.1447
 20
75.829800000000006
 30
0.0
 11
62.1447
 21
73.496099999999998
 31
0.0
  0
LINE
  5
69
  8
0
 62
     7
 10
62.1447
 20
73.496099999999998
 30
0.0
 11
67.228000000000009
 21
73.496099999999998
 31
0.0
  0
LINE
  5
6A
  8
0
 62
     7
 10
69.3947
 20
73.496099999999998
 30
0.0
 11
72.811499999999995
 21
73.496099999999998
 31
0.0
  0
LINE
  5
6B
  8
0
 62
     7
 10
72.811499999999995
 20
73.496099999999998
 30
0.0
 11
72.811499999999995
 21
75.829800000000006
 31
0.0
  0
LINE
  5
6C
  8
0
 62
     7
 10
72.811499999999995
 20
75.829800000000006
 30
0.0
 11
69.3947
 21
75.829800000000006
 31
0.0
  0
LINE
  5
6D
  8
0
  6
AIGENLINE001
 62
     7
 10
68.311499999999995
 20
78.208299999999994
 30
0.0
 11
68.311499999999995
 21
71.133399999999995
 31
0.0
  0
LINE
  5
6E
  8
0
  6
AIGENLINE001
 62
     7
 10
73.938100000000006
 20
74.663300000000007
 30
0.0
 11
61.073
 21
74.663300000000007
 31
0.0
  0
ARC
  5
6F
  8
0
 62
     7
 10
69.389962999999995
 20
240.75305899999989
 30
0.0
 40
0.328534
 50
31.43354699999999
 51
89.122054000000006
  0
ARC
  5
70
  8
0
 62
     7
 10
69.097943000000001
 20
240.54238100000001
 30
0.0
 40
0.6881180000000001
 50
16.003337999999999
 51
33.721344000000002
  0
ARC
  5
71
  8
0
 62
     7
 10
68.466878000000008
 20
240.3602479999999
 30
0.0
 40
1.34494
 50
358.77745099999999
 51
16.049939999999999
  0
ARC
  5
72
  8
0
 62
     7
 10
69.389962999999995
 20
239.91004599999999
 30
0.0
 40
0.328534
 50
270.87794600000001
 51
328.56645299999991
  0
ARC
  5
73
  8
0
 62
     7
 10
69.097943000000001
 20
240.120724
 30
0.0
 40
0.6881180000000001
 50
326.27865600000001
 51
343.99666200000001
  0
ARC
  5
74
  8
0
 62
     7
 10
68.466878000000008
 20
240.30285699999999
 30
0.0
 40
1.34494
 50
343.95006000000001
 51
1.222548999999999
  0
ARC
  5
75
  8
0
 62
     7
 10
67.229458999999991
 20
240.767156
 30
0.0
 40
0.314402
 50
90.262595000000005
 51
136.6114629999999
  0
ARC
  5
76
  8
0
 62
     7
 10
67.377758999999983
 20
240.625137
 30
0.0
 40
0.5197340000000001
 50
136.46438699999999
 51
156.369708
  0
ARC
  5
77
  8
0
 62
     7
 10
67.944428999999985
 20
240.38721799999999
 30
0.0
 40
1.1342920000000001
 50
156.83293699999999
 51
182.81292999999991
  0
ARC
  5
78
  8
0
 62
     7
 10
67.229458999999991
 20
239.895949
 30
0.0
 40
0.314402
 50
223.38853700000001
 51
269.73740499999991
  0
ARC
  5
79
  8
0
 62
     7
 10
67.377758999999983
 20
240.037969
 30
0.0
 40
0.5197340000000001
 50
203.63029199999991
 51
223.5356129999999
  0
ARC
  5
7A
  8
0
 62
     7
 10
67.944428999999985
 20
240.2758869999999
 30
0.0
 40
1.1342920000000001
 50
177.18707000000001
 51
203.1670629999999
  0
ARC
  5
7B
  8
0
 62
     7
 10
68.354624999999999
 20
241.46333100000001
 30
0.0
 40
0.952633
 50
72.910983999999999
 51
92.594155999999998
  0
ARC
  5
7C
  8
0
 62
     7
 10
68.570447000000001
 20
242.140354
 30
0.0
 40
0.242191
 50
5.8101549999999991
 51
74.649058999999994
  0
ARC
  5
7D
  8
0
 62
     7
 10
68.308520999999999
 20
240.94101900000001
 30
0.0
 40
1.473970999999999
 50
89.883874999999989
 51
99.012534000000016
  0
ARC
  5
7E
  8
0
 62
     7
 10
68.14971899999999
 20
241.92938100000001
 30
0.0
 40
0.47294
 50
98.76865699999999
 51
121.3500639999999
  0
ARC
  5
7F
  8
0
 62
     7
 10
68.010881000000012
 20
242.1653169999999
 30
0.0
 40
0.19926
 50
122.55225900000001
 51
180.1280679999999
  0
ARC
  5
80
  8
0
 62
     7
 10
68.35470500000001
 20
239.201233
 30
0.0
 40
0.9539209999999998
 50
267.40456799999998
 51
287.060227
  0
ARC
  5
81
  8
0
 62
     7
 10
68.570607999999993
 20
238.52271200000001
 30
0.0
 40
0.242027
 50
285.32217900000001
 51
354.19532099999992
  0
ARC
  5
82
  8
0
 62
     7
 10
68.308531000000002
 20
239.72584399999991
 30
0.0
 40
1.477557
 50
261.00911600000001
 51
270.11544700000002
  0
ARC
  5
83
  8
0
 62
     7
 10
68.149507999999997
 20
238.733822
 30
0.0
 40
0.4728760000000001
 50
238.67524499999999
 51
261.256103
  0
ARC
  5
84
  8
0
 62
     7
 10
68.010774999999995
 20
238.497773
 30
0.0
 40
0.199154
 50
179.86762499999989
 51
237.464383
  0
LINE
  5
85
  8
0
 62
     7
 10
68.811400000000006
 20
242.16499999999999
 30
0.0
 11
68.811400000000006
 21
241.16499999999991
 31
0.0
  0
LINE
  5
86
  8
0
 62
     7
 10
68.811400000000006
 20
239.49799999999991
 30
0.0
 11
68.811400000000006
 21
238.49799999999999
 31
0.0
  0
LINE
  5
87
  8
0
 62
     7
 10
67.811599999999984
 20
238.49799999999999
 30
0.0
 11
67.811599999999984
 21
239.49799999999991
 31
0.0
  0
LINE
  5
88
  8
0
 62
     7
 10
67.811599999999984
 20
241.16499999999991
 30
0.0
 11
67.811599999999984
 21
242.16499999999999
 31
0.0
  0
LINE
  5
89
  8
0
 62
     7
 10
68.942700000000002
 20
242.78200000000001
 30
0.0
 11
69.3947
 21
241.83199999999999
 31
0.0
  0
LINE
  5
8A
  8
0
 62
     7
 10
68.138599999999997
 20
243.08199999999999
 30
0.0
 11
68.484499999999997
 21
243.08199999999999
 31
0.0
  0
ARC
  5
8B
  8
0
 62
     7
 10
68.476748999999998
 20
242.56962200000001
 30
0.0
 40
0.512054
 50
24.511997000000001
 51
89.137931999999978
  0
LINE
  5
8C
  8
0
 62
     7
 10
67.680400000000006
 20
242.78200000000001
 30
0.0
 11
67.228000000000009
 21
241.83199999999999
 31
0.0
  0
ARC
  5
8D
  8
0
 62
     7
 10
68.146433000000002
 20
242.569368
 30
0.0
 40
0.5123100000000002
 50
90.880161999999999
 51
155.4698699999999
  0
LINE
  5
8E
  8
0
 62
     7
 10
68.942700000000002
 20
237.88099999999989
 30
0.0
 11
69.3947
 21
238.83199999999991
 31
0.0
  0
LINE
  5
8F
  8
0
 62
     7
 10
68.138599999999997
 20
237.58199999999999
 30
0.0
 11
68.484499999999997
 21
237.58199999999999
 31
0.0
  0
ARC
  5
90
  8
0
 62
     7
 10
68.476744999999994
 20
238.093661
 30
0.0
 40
0.512059
 50
270.86243300000001
 51
335.487639
  0
LINE
  5
91
  8
0
 62
     7
 10
67.680400000000006
 20
237.88099999999989
 30
0.0
 11
67.228000000000009
 21
238.83199999999991
 31
0.0
  0
ARC
  5
92
  8
0
 62
     7
 10
68.145942000000005
 20
238.0931589999999
 30
0.0
 40
0.511552
 50
204.476484
 51
269.17348399999992
  0
LINE
  5
93
  8
0
 62
     7
 10
69.3947
 20
238.83199999999991
 30
0.0
 11
69.3947
 21
241.83199999999999
 31
0.0
  0
LINE
  5
94
  8
0
 62
     7
 10
67.228000000000009
 20
238.83199999999991
 30
0.0
 11
67.228000000000009
 21
241.83199999999999
 31
0.0
  0
ARC
  5
95
  8
0
 62
     7
 10
68.292469999999994
 20
240.3505899999999
 30
0.0
 40
0.519273
 50
272.10104200000001
 51
357.89896800000002
  0
ARC
  5
96
  8
0
 62
     7
 10
68.330924999999993
 20
240.35096999999999
 30
0.0
 40
0.5196670000000001
 50
182.14136499999989
 51
267.85866499999992
  0
ARC
  5
97
  8
0
 62
     7
 10
68.330699999999993
 20
240.31253899999999
 30
0.0
 40
0.5194270000000002
 50
92.117517000000007
 51
177.90219300000001
  0
ARC
  5
98
  8
0
 62
     7
 10
68.292756999999995
 20
240.3129799999999
 30
0.0
 40
0.51897
 50
2.0508660000000001
 51
87.929383999999999
  0
LINE
  5
99
  8
0
 62
     7
 10
69.144900000000007
 20
239.49799999999991
 30
0.0
 11
67.478099999999998
 21
239.49799999999991
 31
0.0
  0
LINE
  5
9A
  8
0
 62
     7
 10
67.478099999999998
 20
239.49799999999991
 30
0.0
 11
67.478099999999998
 21
241.16499999999991
 31
0.0
  0
LINE
  5
9B
  8
0
 62
     7
 10
67.478099999999998
 20
241.16499999999991
 30
0.0
 11
69.144900000000007
 21
241.16499999999991
 31
0.0
  0
LINE
  5
9C
  8
0
 62
     7
 10
69.144900000000007
 20
241.16499999999991
 30
0.0
 11
69.144900000000007
 21
239.49799999999991
 31
0.0
  0
LINE
  5
9D
  8
0
 62
     7
 10
71.853399999999993
 20
239.97099999999989
 30
0.0
 11
71.436599999999999
 21
239.97099999999989
 31
0.0
  0
LINE
  5
9E
  8
0
 62
     7
 10
71.436599999999999
 20
239.97099999999989
 30
0.0
 11
71.228499999999997
 21
240.33199999999991
 31
0.0
  0
LINE
  5
9F
  8
0
 62
     7
 10
71.228499999999997
 20
240.33199999999991
 30
0.0
 11
71.436599999999999
 21
240.69199999999989
 31
0.0
  0
LINE
  5
A0
  8
0
 62
     7
 10
71.436599999999999
 20
240.69199999999989
 30
0.0
 11
71.853399999999993
 21
240.69300000000001
 31
0.0
  0
LINE
  5
A1
  8
0
 62
     7
 10
71.853399999999993
 20
240.69300000000001
 30
0.0
 11
72.061499999999995
 21
240.33199999999991
 31
0.0
  0
LINE
  5
A2
  8
0
 62
     7
 10
72.061499999999995
 20
240.33199999999991
 30
0.0
 11
71.853399999999993
 21
239.97099999999989
 31
0.0
  0
ARC
  5
A3
  8
0
 62
     7
 10
71.606591000000009
 20
240.36978599999989
 30
0.0
 40
1.0388889999999991
 50
272.11894799999999
 51
357.89093300000002
  0
ARC
  5
A4
  8
0
 62
     7
 10
71.644917000000007
 20
240.331639
 30
0.0
 40
1.000030999999999
 50
180.00494499999991
 51
270.004954
  0
ARC
  5
A5
  8
0
 62
     7
 10
71.645003000000003
 20
240.33155199999999
 30
0.0
 40
1.0001180000000001
 50
90.0
 51
179.99996999999991
  0
ARC
  5
A6
  8
0
 62
     7
 10
71.60635400000001
 20
240.293261
 30
0.0
 40
1.0391280000000001
 50
2.111791999999999
 51
87.868456999999978
  0
LINE
  5
A7
  8
0
 62
     7
 10
63.478000000000002
 20
239.58199999999999
 30
0.0
 11
65.478200000000001
 21
239.58199999999999
 31
0.0
  0
LINE
  5
A8
  8
0
 62
     7
 10
63.478000000000002
 20
241.08199999999999
 30
0.0
 11
65.478200000000001
 21
241.08199999999999
 31
0.0
  0
ARC
  5
A9
  8
0
 62
     7
 10
65.473489999999998
 20
240.67207999999991
 30
0.0
 40
0.4095030000000001
 50
37.543399999999998
 51
89.334967000000006
  0
ARC
  5
AA
  8
0
 62
     7
 10
65.121734000000004
 20
240.392852
 30
0.0
 40
0.8585870000000001
 50
355.90583299999997
 51
38.013863999999998
  0
ARC
  5
AB
  8
0
 62
     7
 10
65.473507999999995
 20
239.99088900000001
 30
0.0
 40
0.409366
 50
270.66274499999997
 51
322.477397
  0
ARC
  5
AC
  8
0
 62
     7
 10
65.121752999999998
 20
240.27030499999989
 30
0.0
 40
0.8585639999999999
 50
321.98599000000002
 51
4.0908129999999989
  0
ARC
  5
AD
  8
0
 62
     7
 10
63.484642000000001
 20
240.654358
 30
0.0
 40
0.427248
 50
90.889599000000018
 51
155.84997899999991
  0
ARC
  5
AE
  8
0
 62
     7
 10
63.948933999999987
 20
240.36641900000001
 30
0.0
 40
0.9714379999999998
 50
151.5531949999999
 51
182.05692099999999
  0
ARC
  5
AF
  8
0
 62
     7
 10
63.484644000000003
 20
240.00870599999999
 30
0.0
 40
0.427207
 50
204.13698400000001
 51
269.10996699999993
  0
ARC
  5
B0
  8
0
 62
     7
 10
63.949235999999999
 20
240.296817
 30
0.0
 40
0.9717349999999999
 50
177.95142699999991
 51
208.44176399999989
  0
LINE
  5
B1
  8
0
 62
     7
 10
67.228000000000009
 20
239.16499999999991
 30
0.0
 11
62.1447
 21
239.16499999999991
 31
0.0
  0
LINE
  5
B2
  8
0
 62
     7
 10
62.1447
 20
239.16499999999991
 30
0.0
 11
62.1447
 21
241.49799999999991
 31
0.0
  0
LINE
  5
B3
  8
0
 62
     7
 10
62.1447
 20
241.49799999999991
 30
0.0
 11
67.228000000000009
 21
241.49799999999991
 31
0.0
  0
LINE
  5
B4
  8
0
 62
     7
 10
69.3947
 20
241.49799999999991
 30
0.0
 11
72.811499999999995
 21
241.49799999999991
 31
0.0
  0
LINE
  5
B5
  8
0
 62
     7
 10
72.811499999999995
 20
241.49799999999991
 30
0.0
 11
72.811499999999995
 21
239.16499999999991
 31
0.0
  0
LINE
  5
B6
  8
0
 62
     7
 10
72.811499999999995
 20
239.16499999999991
 30
0.0
 11
69.3947
 21
239.16499999999991
 31
0.0
  0
LINE
  5
B7
  8
0
 62
     7
 10
117.83499999999999
 20
74.329800000000006
 30
0.0
 11
118.002
 21
74.163700000000006
 31
0.0
  0
LINE
  5
B8
  8
0
 62
     7
 10
117.83499999999999
 20
74.996799999999993
 30
0.0
 11
118.002
 21
75.163499999999999
 31
0.0
  0
LINE
  5
B9
  8
0
  6
AIGENLINE001
 62
     7
 10
116.2339999999999
 20
74.664000000000001
 30
0.0
 11
126.11199999999999
 21
74.664000000000001
 31
0.0
  0
LINE
  5
BA
  8
0
 62
     7
 10
119.502
 20
74.329800000000006
 30
0.0
 11
117.83499999999999
 21
74.329800000000006
 31
0.0
  0
LINE
  5
BB
  8
0
 62
     7
 10
121.496
 20
74.329800000000006
 30
0.0
 11
120.3359999999999
 21
74.329800000000006
 31
0.0
  0
LINE
  5
BC
  8
0
 62
     7
 10
123.669
 20
74.329800000000006
 30
0.0
 11
122.21299999999989
 21
74.329800000000006
 31
0.0
  0
LINE
  5
BD
  8
0
 62
     7
 10
119.502
 20
74.996799999999993
 30
0.0
 11
117.83499999999999
 21
74.996799999999993
 31
0.0
  0
LINE
  5
BE
  8
0
 62
     7
 10
121.496
 20
74.996799999999993
 30
0.0
 11
120.3359999999999
 21
74.996799999999993
 31
0.0
  0
LINE
  5
BF
  8
0
 62
     7
 10
123.669
 20
74.996799999999993
 30
0.0
 11
122.21299999999989
 21
74.996799999999993
 31
0.0
  0
LINE
  5
C0
  8
0
 62
     7
 10
119.502
 20
74.163700000000006
 30
0.0
 11
118.002
 21
74.163700000000006
 31
0.0
  0
LINE
  5
C1
  8
0
 62
     7
 10
121.496
 20
74.163700000000006
 30
0.0
 11
120.3359999999999
 21
74.163700000000006
 31
0.0
  0
LINE
  5
C2
  8
0
 62
     7
 10
123.669
 20
74.163700000000006
 30
0.0
 11
122.21299999999989
 21
74.163700000000006
 31
0.0
  0
LINE
  5
C3
  8
0
 62
     7
 10
117.83499999999999
 20
74.329800000000006
 30
0.0
 11
117.83499999999999
 21
74.996799999999993
 31
0.0
  0
LINE
  5
C4
  8
0
 62
     7
 10
118.002
 20
74.163700000000006
 30
0.0
 11
118.002
 21
75.163499999999999
 31
0.0
  0
LINE
  5
C5
  8
0
 62
     7
 10
120.3359999999999
 20
73.830200000000005
 30
0.0
 11
120.3359999999999
 21
74.664000000000001
 31
0.0
  0
LINE
  5
C6
  8
0
 62
     7
 10
120.3359999999999
 20
74.664000000000001
 30
0.0
 11
120.3359999999999
 21
75.497
 31
0.0
  0
LINE
  5
C7
  8
0
 62
     7
 10
119.502
 20
75.497
 30
0.0
 11
120.3359999999999
 21
75.497
 31
0.0
  0
LINE
  5
C8
  8
0
 62
     7
 10
119.502
 20
73.830200000000005
 30
0.0
 11
120.3359999999999
 21
73.830200000000005
 31
0.0
  0
LINE
  5
C9
  8
0
 62
     7
 10
119.502
 20
73.830200000000005
 30
0.0
 11
119.502
 21
74.664000000000001
 31
0.0
  0
LINE
  5
CA
  8
0
 62
     7
 10
119.502
 20
74.664000000000001
 30
0.0
 11
119.502
 21
75.497
 31
0.0
  0
LINE
  5
CB
  8
0
 62
     7
 10
122.21299999999989
 20
71.913399999999996
 30
0.0
 11
122.21299999999989
 21
74.664000000000001
 31
0.0
  0
LINE
  5
CC
  8
0
 62
     7
 10
122.21299999999989
 20
74.664000000000001
 30
0.0
 11
122.21299999999989
 21
77.413200000000003
 31
0.0
  0
LINE
  5
CD
  8
0
 62
     7
 10
121.79600000000001
 20
71.913399999999996
 30
0.0
 11
122.21299999999989
 21
71.913399999999996
 31
0.0
  0
LINE
  5
CE
  8
0
 62
     7
 10
121.79600000000001
 20
77.413200000000003
 30
0.0
 11
122.21299999999989
 21
77.413200000000003
 31
0.0
  0
LINE
  5
CF
  8
0
 62
     7
 10
121.79600000000001
 20
75.497
 30
0.0
 11
121.79600000000001
 21
77.413200000000003
 31
0.0
  0
LINE
  5
D0
  8
0
 62
     7
 10
121.79600000000001
 20
71.913399999999996
 30
0.0
 11
121.79600000000001
 21
73.830200000000005
 31
0.0
  0
LINE
  5
D1
  8
0
 62
     7
 10
121.496
 20
75.497
 30
0.0
 11
121.79600000000001
 21
75.497
 31
0.0
  0
LINE
  5
D2
  8
0
 62
     7
 10
121.496
 20
73.830200000000005
 30
0.0
 11
121.79600000000001
 21
73.830200000000005
 31
0.0
  0
LINE
  5
D3
  8
0
 62
     7
 10
121.496
 20
73.830200000000005
 30
0.0
 11
121.496
 21
75.497
 31
0.0
  0
LINE
  5
D4
  8
0
 62
     7
 10
119.502
 20
75.163499999999999
 30
0.0
 11
118.002
 21
75.163499999999999
 31
0.0
  0
LINE
  5
D5
  8
0
 62
     7
 10
121.496
 20
75.163499999999999
 30
0.0
 11
120.3359999999999
 21
75.163499999999999
 31
0.0
  0
LINE
  5
D6
  8
0
 62
     7
 10
123.669
 20
75.163499999999999
 30
0.0
 11
122.21299999999989
 21
75.163499999999999
 31
0.0
  0
LINE
  5
D7
  8
0
 62
     7
 10
117.83499999999999
 20
265.23200000000003
 30
0.0
 11
118.002
 21
265.065
 31
0.0
  0
LINE
  5
D8
  8
0
 62
     7
 10
117.83499999999999
 20
265.89799999999991
 30
0.0
 11
118.002
 21
266.06499999999988
 31
0.0
  0
LINE
  5
D9
  8
0
  6
AIGENLINE001
 62
     7
 10
116.2339999999999
 20
265.56599999999992
 30
0.0
 11
126.11199999999999
 21
265.56599999999992
 31
0.0
  0
LINE
  5
DA
  8
0
 62
     7
 10
119.502
 20
265.23200000000003
 30
0.0
 11
117.83499999999999
 21
265.23200000000003
 31
0.0
  0
LINE
  5
DB
  8
0
 62
     7
 10
121.496
 20
265.23200000000003
 30
0.0
 11
120.33499999999989
 21
265.23200000000003
 31
0.0
  0
LINE
  5
DC
  8
0
 62
     7
 10
123.66800000000001
 20
265.23200000000003
 30
0.0
 11
122.212
 21
265.23200000000003
 31
0.0
  0
LINE
  5
DD
  8
0
 62
     7
 10
119.502
 20
265.89799999999991
 30
0.0
 11
117.83499999999999
 21
265.89799999999991
 31
0.0
  0
LINE
  5
DE
  8
0
 62
     7
 10
121.496
 20
265.89799999999991
 30
0.0
 11
120.33499999999989
 21
265.89799999999991
 31
0.0
  0
LINE
  5
DF
  8
0
 62
     7
 10
123.66800000000001
 20
265.89799999999991
 30
0.0
 11
122.212
 21
265.89799999999991
 31
0.0
  0
LINE
  5
E0
  8
0
 62
     7
 10
119.502
 20
265.065
 30
0.0
 11
118.002
 21
265.065
 31
0.0
  0
LINE
  5
E1
  8
0
 62
     7
 10
121.496
 20
265.065
 30
0.0
 11
120.33499999999989
 21
265.065
 31
0.0
  0
LINE
  5
E2
  8
0
 62
     7
 10
123.66800000000001
 20
265.065
 30
0.0
 11
122.212
 21
265.065
 31
0.0
  0
LINE
  5
E3
  8
0
 62
     7
 10
117.83499999999999
 20
265.23200000000003
 30
0.0
 11
117.83499999999999
 21
265.89799999999991
 31
0.0
  0
LINE
  5
E4
  8
0
 62
     7
 10
118.002
 20
265.065
 30
0.0
 11
118.002
 21
266.06499999999988
 31
0.0
  0
LINE
  5
E5
  8
0
 62
     7
 10
120.33499999999989
 20
264.73200000000003
 30
0.0
 11
120.33499999999989
 21
265.56599999999992
 31
0.0
  0
LINE
  5
E6
  8
0
 62
     7
 10
120.33499999999989
 20
265.56599999999992
 30
0.0
 11
120.33499999999989
 21
266.399
 31
0.0
  0
LINE
  5
E7
  8
0
 62
     7
 10
119.502
 20
266.399
 30
0.0
 11
120.33499999999989
 21
266.399
 31
0.0
  0
LINE
  5
E8
  8
0
 62
     7
 10
119.502
 20
264.73200000000003
 30
0.0
 11
120.33499999999989
 21
264.73200000000003
 31
0.0
  0
LINE
  5
E9
  8
0
 62
     7
 10
119.502
 20
264.73200000000003
 30
0.0
 11
119.502
 21
265.56599999999992
 31
0.0
  0
LINE
  5
EA
  8
0
 62
     7
 10
119.502
 20
265.56599999999992
 30
0.0
 11
119.502
 21
266.399
 31
0.0
  0
LINE
  5
EB
  8
0
 62
     7
 10
119.502
 20
266.06499999999988
 30
0.0
 11
118.002
 21
266.06499999999988
 31
0.0
  0
LINE
  5
EC
  8
0
 62
     7
 10
121.496
 20
266.06499999999988
 30
0.0
 11
120.33499999999989
 21
266.06499999999988
 31
0.0
  0
LINE
  5
ED
  8
0
 62
     7
 10
123.66800000000001
 20
266.06499999999988
 30
0.0
 11
122.212
 21
266.06499999999988
 31
0.0
  0
LINE
  5
EE
  8
0
 62
     7
 10
117.83499999999999
 20
239.99799999999991
 30
0.0
 11
118.002
 21
239.83199999999999
 31
0.0
  0
LINE
  5
EF
  8
0
 62
     7
 10
117.83499999999999
 20
240.66499999999991
 30
0.0
 11
118.002
 21
240.83199999999991
 31
0.0
  0
LINE
  5
F0
  8
0
 62
     7
 10
68.269499999999994
 20
97.961200000000005
 30
0.0
 11
70.481200000000001
 21
98.553799999999995
 31
0.0
  0
LINE
  5
F1
  8
0
 62
     7
 10
70.481200000000001
 20
98.553799999999995
 30
0.0
 11
68.269499999999994
 21
99.146299999999997
 31
0.0
  0
LINE
  5
F2
  8
0
 62
     7
 10
68.269499999999994
 20
99.146299999999997
 30
0.0
 11
68.269499999999994
 21
97.961200000000005
 31
0.0
  0
LINE
  5
F3
  8
0
 62
     7
 10
70.479900000000001
 20
98.544100000000014
 30
0.0
 11
64.517099999999999
 21
98.544100000000014
 31
0.0
  0
LINE
  5
F4
  8
0
 62
     7
 10
75.023300000000006
 20
99.126999999999995
 30
0.0
 11
72.811499999999995
 21
98.534499999999994
 31
0.0
  0
LINE
  5
F5
  8
0
 62
     7
 10
72.811499999999995
 20
98.534499999999994
 30
0.0
 11
75.023300000000006
 21
97.941900000000004
 31
0.0
  0
LINE
  5
F6
  8
0
 62
     7
 10
75.023300000000006
 20
97.941900000000004
 30
0.0
 11
75.023300000000006
 21
99.126999999999995
 31
0.0
  0
LINE
  5
F7
  8
0
 62
     7
 10
77.036299999999997
 20
98.544100000000014
 30
0.0
 11
72.812899999999999
 21
98.544100000000014
 31
0.0
  0
LINE
  5
F8
  8
0
 62
     7
 10
72.812899999999999
 20
98.544100000000014
 30
0.0
 11
70.479900000000001
 21
98.544100000000014
 31
0.0
  0
LINE
  5
F9
  8
0
 62
     7
 10
133.292
 20
245.91499999999999
 30
0.0
 11
135.5029999999999
 21
246.5079999999999
 31
0.0
  0
LINE
  5
FA
  8
0
 62
     7
 10
135.5029999999999
 20
246.5079999999999
 30
0.0
 11
133.292
 21
247.101
 31
0.0
  0
LINE
  5
FB
  8
0
 62
     7
 10
133.292
 20
247.101
 30
0.0
 11
133.292
 21
245.91499999999999
 31
0.0
  0
LINE
  5
FC
  8
0
 62
     7
 10
125.87899999999991
 20
247.0809999999999
 30
0.0
 11
123.6669999999999
 21
246.489
 31
0.0
  0
LINE
  5
FD
  8
0
 62
     7
 10
123.6669999999999
 20
246.489
 30
0.0
 11
125.87899999999991
 21
245.8959999999999
 31
0.0
  0
LINE
  5
FE
  8
0
 62
     7
 10
125.87899999999991
 20
245.8959999999999
 30
0.0
 11
125.87899999999991
 21
247.0809999999999
 31
0.0
  0
LINE
  5
FF
  8
0
 62
     7
 10
135.50200000000001
 20
246.49799999999999
 30
0.0
 11
123.669
 21
246.49799999999999
 31
0.0
  0
LINE
  5
100
  8
0
 62
     7
 10
123.669
 20
242.12899999999999
 30
0.0
 11
123.669
 21
247.12899999999999
 31
0.0
  0
LINE
  5
101
  8
0
 62
     7
 10
135.50200000000001
 20
242.12899999999999
 30
0.0
 11
135.50200000000001
 21
247.12899999999999
 31
0.0
  0
LINE
  5
102
  8
0
 62
     7
 10
145.703
 20
241.49799999999991
 30
0.0
 11
136.202
 21
241.49799999999991
 31
0.0
  0
LINE
  5
103
  8
0
 62
     7
 10
145.703
 20
73.497399999999999
 30
0.0
 11
136.202
 21
73.497399999999999
 31
0.0
  0
LINE
  5
104
  8
0
  6
AIGENLINE001
 62
     7
 10
68.311499999999995
 20
236.78699999999989
 30
0.0
 11
68.311499999999995
 21
243.86099999999999
 31
0.0
  0
LINE
  5
105
  8
0
  6
AIGENLINE001
 62
     7
 10
73.938100000000006
 20
240.3309999999999
 30
0.0
 11
61.073
 21
240.3309999999999
 31
0.0
  0
LINE
  5
106
  8
0
 62
     7
 10
124.502
 20
73.497399999999999
 30
0.0
 11
124.502
 21
75.830500000000001
 31
0.0
  0
LINE
  5
107
  8
0
 62
     7
 10
123.669
 20
73.497399999999999
 30
0.0
 11
123.669
 21
75.830500000000001
 31
0.0
  0
LINE
  5
108
  8
0
  6
AIGENLINE001
 62
     7
 10
116.2339999999999
 20
240.33199999999991
 30
0.0
 11
126.11199999999999
 21
240.33199999999991
 31
0.0
  0
LINE
  5
109
  8
0
 62
     7
 10
121.496
 20
266.649
 30
0.0
 11
122.21299999999989
 21
266.649
 31
0.0
  0
LINE
  5
10A
  8
0
 62
     7
 10
121.79600000000001
 20
264.483
 30
0.0
 11
121.79600000000001
 21
266.649
 31
0.0
  0
LINE
  5
10B
  8
0
 62
     7
 10
122.21299999999989
 20
264.483
 30
0.0
 11
122.21299999999989
 21
266.649
 31
0.0
  0
LINE
  5
10C
  8
0
 62
     7
 10
121.496
 20
264.483
 30
0.0
 11
121.496
 21
266.649
 31
0.0
  0
LINE
  5
10D
  8
0
 62
     7
 10
121.496
 20
264.483
 30
0.0
 11
122.21299999999989
 21
264.483
 31
0.0
  0
LINE
  5
10E
  8
0
 62
     7
 10
124.502
 20
263.399
 30
0.0
 11
135.50200000000001
 21
263.399
 31
0.0
  0
LINE
  5
10F
  8
0
 62
     7
 10
135.50200000000001
 20
263.399
 30
0.0
 11
135.50200000000001
 21
261.06599999999992
 31
0.0
  0
LINE
  5
110
  8
0
 62
     7
 10
124.502
 20
263.399
 30
0.0
 11
124.502
 21
261.06599999999992
 31
0.0
  0
LINE
  5
111
  8
0
 62
     7
 10
123.66800000000001
 20
261.06599999999992
 30
0.0
 11
135.50200000000001
 21
261.06599999999992
 31
0.0
  0
LINE
  5
112
  8
0
 62
     7
 10
124.502
 20
271.733
 30
0.0
 11
123.66800000000001
 21
271.733
 31
0.0
  0
LINE
  5
113
  8
0
 62
     7
 10
124.502
 20
263.399
 30
0.0
 11
124.502
 21
271.733
 31
0.0
  0
LINE
  5
114
  8
0
 62
     7
 10
123.66800000000001
 20
261.06599999999992
 30
0.0
 11
123.66800000000001
 21
271.733
 31
0.0
  0
LINE
  5
115
  8
0
 62
     7
 10
119.502
 20
239.99799999999991
 30
0.0
 11
117.83499999999999
 21
239.99799999999991
 31
0.0
  0
LINE
  5
116
  8
0
 62
     7
 10
121.496
 20
239.99799999999991
 30
0.0
 11
120.3359999999999
 21
239.99799999999991
 31
0.0
  0
LINE
  5
117
  8
0
 62
     7
 10
123.669
 20
239.99799999999991
 30
0.0
 11
122.21299999999989
 21
239.99799999999991
 31
0.0
  0
LINE
  5
118
  8
0
 62
     7
 10
119.502
 20
240.66499999999991
 30
0.0
 11
117.83499999999999
 21
240.66499999999991
 31
0.0
  0
LINE
  5
119
  8
0
 62
     7
 10
121.496
 20
240.66499999999991
 30
0.0
 11
120.3359999999999
 21
240.66499999999991
 31
0.0
  0
LINE
  5
11A
  8
0
 62
     7
 10
123.669
 20
240.66499999999991
 30
0.0
 11
122.21299999999989
 21
240.66499999999991
 31
0.0
  0
LINE
  5
11B
  8
0
 62
     7
 10
119.502
 20
239.83199999999999
 30
0.0
 11
118.002
 21
239.83199999999999
 31
0.0
  0
LINE
  5
11C
  8
0
 62
     7
 10
121.496
 20
239.83199999999999
 30
0.0
 11
120.3359999999999
 21
239.83199999999999
 31
0.0
  0
LINE
  5
11D
  8
0
 62
     7
 10
123.669
 20
239.83199999999999
 30
0.0
 11
122.21299999999989
 21
239.83199999999999
 31
0.0
  0
LINE
  5
11E
  8
0
 62
     7
 10
117.83499999999999
 20
239.99799999999991
 30
0.0
 11
117.83499999999999
 21
240.66499999999991
 31
0.0
  0
LINE
  5
11F
  8
0
 62
     7
 10
118.002
 20
239.83199999999999
 30
0.0
 11
118.002
 21
240.83199999999991
 31
0.0
  0
LINE
  5
120
  8
0
 62
     7
 10
120.3359999999999
 20
239.499
 30
0.0
 11
120.3359999999999
 21
240.33199999999991
 31
0.0
  0
LINE
  5
121
  8
0
 62
     7
 10
120.3359999999999
 20
240.33199999999991
 30
0.0
 11
120.3359999999999
 21
241.16599999999991
 31
0.0
  0
LINE
  5
122
  8
0
 62
     7
 10
119.502
 20
241.16599999999991
 30
0.0
 11
120.3359999999999
 21
241.16599999999991
 31
0.0
  0
LINE
  5
123
  8
0
 62
     7
 10
119.502
 20
239.499
 30
0.0
 11
120.3359999999999
 21
239.499
 31
0.0
  0
LINE
  5
124
  8
0
 62
     7
 10
119.502
 20
239.499
 30
0.0
 11
119.502
 21
240.33199999999991
 31
0.0
  0
LINE
  5
125
  8
0
 62
     7
 10
119.502
 20
240.33199999999991
 30
0.0
 11
119.502
 21
241.16599999999991
 31
0.0
  0
LINE
  5
126
  8
0
 62
     7
 10
122.21299999999989
 20
237.58199999999999
 30
0.0
 11
122.21299999999989
 21
240.33199999999991
 31
0.0
  0
LINE
  5
127
  8
0
 62
     7
 10
122.21299999999989
 20
240.33199999999991
 30
0.0
 11
122.21299999999989
 21
243.08199999999999
 31
0.0
  0
LINE
  5
128
  8
0
 62
     7
 10
121.79600000000001
 20
237.58199999999999
 30
0.0
 11
122.21299999999989
 21
237.58199999999999
 31
0.0
  0
LINE
  5
129
  8
0
 62
     7
 10
121.79600000000001
 20
243.08199999999999
 30
0.0
 11
122.21299999999989
 21
243.08199999999999
 31
0.0
  0
LINE
  5
12A
  8
0
 62
     7
 10
121.79600000000001
 20
241.16599999999991
 30
0.0
 11
121.79600000000001
 21
243.08199999999999
 31
0.0
  0
LINE
  5
12B
  8
0
 62
     7
 10
121.79600000000001
 20
237.58199999999999
 30
0.0
 11
121.79600000000001
 21
239.499
 31
0.0
  0
LINE
  5
12C
  8
0
 62
     7
 10
121.496
 20
241.16599999999991
 30
0.0
 11
121.79600000000001
 21
241.16599999999991
 31
0.0
  0
LINE
  5
12D
  8
0
 62
     7
 10
121.496
 20
239.499
 30
0.0
 11
121.79600000000001
 21
239.499
 31
0.0
  0
LINE
  5
12E
  8
0
 62
     7
 10
121.496
 20
239.499
 30
0.0
 11
121.496
 21
241.16599999999991
 31
0.0
  0
LINE
  5
12F
  8
0
 62
     7
 10
119.502
 20
240.83199999999991
 30
0.0
 11
118.002
 21
240.83199999999991
 31
0.0
  0
LINE
  5
130
  8
0
 62
     7
 10
121.496
 20
240.83199999999991
 30
0.0
 11
120.3359999999999
 21
240.83199999999991
 31
0.0
  0
LINE
  5
131
  8
0
 62
     7
 10
123.669
 20
240.83199999999991
 30
0.0
 11
122.21299999999989
 21
240.83199999999991
 31
0.0
  0
LINE
  5
132
  8
0
 62
     7
 10
70.478099999999998
 20
75.829800000000006
 30
0.0
 11
70.478099999999998
 21
239.16499999999991
 31
0.0
  0
LINE
  5
133
  8
0
 62
     7
 10
72.811499999999995
 20
75.829800000000006
 30
0.0
 11
72.811499999999995
 21
239.16499999999991
 31
0.0
  0
LINE
  5
134
  8
0
 62
     7
 10
124.502
 20
239.16499999999991
 30
0.0
 11
124.502
 21
241.49799999999991
 31
0.0
  0
LINE
  5
135
  8
0
 62
     7
 10
135.50200000000001
 20
73.497399999999999
 30
0.0
 11
123.669
 21
73.497399999999999
 31
0.0
  0
LINE
  5
136
  8
0
 62
     7
 10
133.1689999999999
 20
75.830500000000001
 30
0.0
 11
123.669
 21
75.830500000000001
 31
0.0
  0
LINE
  5
137
  8
0
 62
     7
 10
123.669
 20
239.16499999999991
 30
0.0
 11
123.669
 21
241.49799999999991
 31
0.0
  0
LINE
  5
138
  8
0
 62
     7
 10
133.1689999999999
 20
239.16499999999991
 30
0.0
 11
123.669
 21
239.16499999999991
 31
0.0
  0
LINE
  5
139
  8
0
 62
     7
 10
135.50200000000001
 20
241.49799999999991
 30
0.0
 11
123.669
 21
241.49799999999991
 31
0.0
  0
LINE
  5
13A
  8
0
 62
     7
 10
133.1689999999999
 20
75.830500000000001
 30
0.0
 11
133.1689999999999
 21
239.16599999999991
 31
0.0
  0
LINE
  5
13B
  8
0
 62
     7
 10
144.4189999999999
 20
75.707800000000006
 30
0.0
 11
145.012
 21
73.496099999999998
 31
0.0
  0
LINE
  5
13C
  8
0
 62
     7
 10
145.012
 20
73.496099999999998
 30
0.0
 11
145.6039999999999
 21
75.707800000000006
 31
0.0
  0
LINE
  5
13D
  8
0
 62
     7
 10
145.6039999999999
 20
75.707800000000006
 30
0.0
 11
144.4189999999999
 21
75.707800000000006
 31
0.0
  0
LINE
  5
13E
  8
0
 62
     7
 10
145.58500000000001
 20
239.28899999999999
 30
0.0
 11
144.99299999999991
 21
241.5
 31
0.0
  0
LINE
  5
13F
  8
0
 62
     7
 10
144.99299999999991
 20
241.5
 30
0.0
 11
144.40000000000001
 21
239.28899999999999
 31
0.0
  0
LINE
  5
140
  8
0
 62
     7
 10
144.40000000000001
 20
239.28899999999999
 30
0.0
 11
145.58500000000001
 21
239.28899999999999
 31
0.0
  0
LINE
  5
141
  8
0
 62
     7
 10
145.00200000000001
 20
73.497399999999999
 30
0.0
 11
145.00200000000001
 21
241.49799999999991
 31
0.0
  0
LINE
  5
142
  8
0
 62
     7
 10
135.50200000000001
 20
73.497399999999999
 30
0.0
 11
135.50200000000001
 21
241.49799999999991
 31
0.0
  0
TEXT
  5
143
  8
_________2
 62
     7
 10
29.525700000000001
 20
22.226900000000001
 30
0.0
 40
3.9357000000000002
  1
洗面器DV032910（N）専用品
 41
0.5
  0
LINE
  5
144
  8
_________2
 62
     7
 10
210.24000000000001
 20
148.93100000000001
 30
0.0
 11
188.49000000000001
 21
148.93100000000001
 31
0.0
  0
LINE
  5
145
  8
_________2
 62
     7
 10
105.2389999999999
 20
17.428499999999989
 30
0.0
 11
105.2389999999999
 21
0.4482100000000001
 31
0.0
  0
LINE
  5
146
  8
_________2
 62
     7
 10
105.2389999999999
 20
297.44999999999987
 30
0.0
 11
105.2389999999999
 21
280.42999999999989
 31
0.0
  0
LINE
  5
147
  8
_________2
 62
     7
 10
21.988499999999991
 20
148.93100000000001
 30
0.0
 11
0.238058
 21
148.93100000000001
 31
0.0
  0
LINE
  5
148
  8
_________2
 62
     7
 10
81.679900000000004
 20
51.324300000000001
 30
0.0
 11
79.493700000000004
 21
51.324300000000001
 31
0.0
  0
LINE
  5
149
  8
_________2
 62
     7
 10
82.172600000000017
 20
51.324300000000001
 30
0.0
 11
81.920400000000001
 21
51.324300000000001
 31
0.0
  0
LINE
  5
14A
  8
_________2
 62
     7
 10
82.665199999999984
 20
51.324300000000001
 30
0.0
 11
85.590100000000007
 21
51.324300000000001
 31
0.0
  0
LINE
  5
14B
  8
_________2
 62
     7
 10
82.172600000000017
 20
51.324300000000001
 30
0.0
 11
82.424800000000005
 21
51.324300000000001
 31
0.0
  0
LINE
  5
14C
  8
_________2
 62
     7
 10
75.776399999999995
 20
51.324300000000001
 30
0.0
 11
73.589399999999998
 21
51.324300000000001
 31
0.0
  0
LINE
  5
14D
  8
_________2
 62
     7
 10
76.2684
 20
51.324300000000001
 30
0.0
 11
76.016900000000007
 21
51.324300000000001
 31
0.0
  0
LINE
  5
14E
  8
_________2
 62
     7
 10
76.2684
 20
51.817
 30
0.0
 11
76.2684
 21
54.003900000000002
 31
0.0
  0
LINE
  5
14F
  8
_________2
 62
     7
 10
76.2684
 20
51.324300000000001
 30
0.0
 11
76.2684
 21
51.576500000000003
 31
0.0
  0
LINE
  5
150
  8
_________2
 62
     7
 10
76.76100000000001
 20
51.324300000000001
 30
0.0
 11
78.947999999999993
 21
51.324300000000001
 31
0.0
  0
LINE
  5
151
  8
_________2
 62
     7
 10
76.2684
 20
51.324300000000001
 30
0.0
 11
76.520499999999998
 21
51.324300000000001
 31
0.0
  0
LINE
  5
152
  8
_________2
 62
     7
 10
76.2684
 20
50.832399999999993
 30
0.0
 11
76.2684
 21
48.645400000000002
 31
0.0
  0
LINE
  5
153
  8
_________2
 62
     7
 10
76.2684
 20
51.324300000000001
 30
0.0
 11
76.2684
 21
51.072800000000001
 31
0.0
  0
LINE
  5
154
  8
_________2
 62
     7
 10
79.979399999999984
 20
50.104799999999997
 30
0.0
 11
85.157399999999996
 21
49.240000000000002
 31
0.0
  0
LINE
  5
155
  8
_________2
 62
     7
 10
79.979399999999984
 20
52.543900000000001
 30
0.0
 11
85.157399999999996
 21
53.409300000000002
 31
0.0
  0
LINE
  5
156
  8
_________2
 62
     7
 10
85.157399999999996
 20
49.240000000000002
 30
0.0
 11
85.157399999999996
 21
53.409300000000002
 31
0.0
  0
LINE
  5
157
  8
_________2
 62
     7
 10
79.979399999999984
 20
50.104799999999997
 30
0.0
 11
79.979399999999984
 21
52.543900000000001
 31
0.0
  0
ARC
  5
158
  8
_________2
 62
     7
 10
76.222110000000001
 20
51.277366999999991
 30
0.0
 40
1.2673709999999989
 50
2.1232950000000002
 51
87.909056000000007
  0
ARC
  5
159
  8
_________2
 62
     7
 10
76.315273000000005
 20
51.277400999999998
 30
0.0
 40
1.267363
 50
92.121785999999986
 51
177.878185
  0
ARC
  5
15A
  8
_________2
 62
     7
 10
76.315273000000005
 20
51.371245999999992
 30
0.0
 40
1.267363
 50
182.12181499999991
 51
267.87821400000001
  0
ARC
  5
15B
  8
_________2
 62
     7
 10
76.221461000000005
 20
51.371928999999987
 30
0.0
 40
1.2680439999999991
 50
272.11916400000001
 51
357.84848499999993
  0
ARC
  5
15C
  8
_________2
 62
     7
 10
76.268349999999984
 20
51.324323
 30
0.0
 40
2.0849849999999992
 50
0.00001
 51
89.999980000000008
  0
ARC
  5
15D
  8
_________2
 62
     7
 10
76.348388
 20
51.245001999999992
 30
0.0
 40
2.1657860000000002
 50
92.117855000000034
 51
177.90105299999991
  0
ARC
  5
15E
  8
_________2
 62
     7
 10
76.348354
 20
51.404327000000002
 30
0.0
 40
2.1657779999999991
 50
182.11700400000001
 51
267.88302499999992
  0
ARC
  5
15F
  8
_________2
 62
     7
 10
76.188378999999983
 20
51.405009999999997
 30
0.0
 40
2.1664590000000001
 50
272.11546800000002
 51
357.86560400000002
  0
TEXT
  5
160
  8
_________2
 62
     7
 10
109.5439999999999
 20
23.199100000000001
 30
0.0
 40
3.0923400000000001
  1
図番
 41
0.5
  0
LINE
  5
161
  8
_________2
 62
     7
 10
108.4889999999999
 20
27.4283
 30
0.0
 11
188.49000000000001
 21
27.4283
 31
0.0
  0
TEXT
  5
162
  8
_________2
 62
     7
 10
109.5439999999999
 20
33.198900000000002
 30
0.0
 40
3.0923400000000001
  1
品番
 41
0.5
  0
TEXT
  5
163
  8
_________2
 62
     7
 10
109.5439999999999
 20
53.337699999999998
 30
0.0
 40
3.0923400000000001
  1
名称
 41
0.5
  0
TEXT
  5
164
  8
_________2
 62
     7
 10
96.784058333333334
 20
48.341500000000011
 30
0.0
 40
3.6545800000000002
  1
mm
 41
0.5
 72
     1
 11
98.306799999999996
 21
48.341500000000011
 31
0.0
  0
TEXT
  5
165
  8
_________2
 62
     7
 10
90.582099999999997
 20
53.337699999999998
 30
0.0
 40
3.0923400000000001
  1
単位
 41
0.5
  0
TEXT
  5
166
  8
_________2
 62
     7
 10
90.582099999999997
 20
40.930399999999999
 30
0.0
 40
3.0923400000000001
  1
尺度
 41
0.5
  0
TEXT
  5
167
  8
_________2
 62
     7
 10
95.487658666666675
 20
34.73749999999999
 30
0.0
 40
3.6545800000000002
  1
1 ： 6
 41
0.5
 72
     1
 11
98.898600000000002
 21
34.73749999999999
 31
0.0
  0
TEXT
  5
168
  8
_________2
 62
     7
 10
141.10956250000001
 20
30.627400000000002
 30
0.0
 40
3.9357000000000002
  1
DV003035
 41
0.5
 72
     1
 11
148.489
 21
30.627400000000002
 31
0.0
  0
TEXT
  5
169
  8
_________2
 62
     7
 10
141.10956250000001
 20
20.626999999999988
 30
0.0
 40
3.9357000000000002
  1
DV003035
 41
0.5
 72
     1
 11
148.489
 21
20.626999999999988
 31
0.0
  0
TEXT
  5
16A
  8
_________2
 62
     7
 10
114.11799999999999
 20
45.7453
 30
0.0
 40
3.9357000000000002
  1
ヴェーロ　タオルバー
 41
0.5
  0
TEXT
  5
16B
  8
_________2
 62
     7
 10
44.303290666666669
 20
35.122599999999991
 30
0.0
 40
3.6545800000000002
  1
石原
 41
0.5
 72
     1
 11
46.252400000000002
 21
35.122599999999991
 31
0.0
  0
TEXT
  5
16C
  8
_________2
 62
     7
 10
25.729290666666671
 20
35.122599999999991
 30
0.0
 40
3.6545800000000002
  1
菅原
 41
0.5
 72
     1
 11
27.6784
 21
35.122599999999991
 31
0.0
  0
TEXT
  5
16D
  8
_________2
 62
     7
 10
72.724699999999999
 20
34.73749999999999
 30
0.0
 40
3.6545800000000002
  1
11.11.07
 41
0.5
  0
TEXT
  5
16E
  8
_________2
 62
     7
 10
71.531999999999996
 20
40.930399999999999
 30
0.0
 40
3.0923400000000001
  1
日付
 41
0.5
  0
TEXT
  5
16F
  8
_________2
 62
     7
 10
34.578299999999992
 20
40.930399999999999
 30
0.0
 40
3.0923400000000001
  1
検図
 41
0.5
  0
TEXT
  5
170
  8
_________2
 62
     7
 10
22.960000000000001
 20
26.730999999999991
 30
0.0
 40
3.0923400000000001
  1
備考
 41
0.5
  0
TEXT
  5
171
  8
_________2
 62
     7
 10
22.960000000000001
 20
40.930399999999999
 30
0.0
 40
3.0923400000000001
  1
製図
 41
0.5
  0
TEXT
  5
172
  8
_________2
 62
     7
 10
28.727365333333339
 20
49.456400000000002
 30
0.0
 40
4.4979399999999989
  1
セラトレーディング株式会社
 41
0.5
 72
     1
 11
46.119399999999992
 21
49.456400000000002
 31
0.0
  0
LINE
  5
173
  8
_________2
 62
     7
 10
188.49000000000001
 20
17.428499999999989
 30
0.0
 11
21.988499999999991
 21
17.428499999999989
 31
0.0
  0
LINE
  5
174
  8
_________2
 62
     7
 10
21.988499999999991
 20
17.428499999999989
 30
0.0
 11
21.988499999999991
 21
280.42999999999989
 31
0.0
  0
LINE
  5
175
  8
_________2
 62
     7
 10
21.988499999999991
 20
280.42999999999989
 30
0.0
 11
188.49000000000001
 21
280.42999999999989
 31
0.0
  0
LINE
  5
176
  8
_________2
 62
     7
 10
188.49000000000001
 20
280.42999999999989
 30
0.0
 11
188.49000000000001
 21
17.428499999999989
 31
0.0
  0
LINE
  5
177
  8
_________2
 62
     7
 10
70.488799999999998
 20
30.9285
 30
0.0
 11
70.488799999999998
 21
57.428400000000011
 31
0.0
  0
LINE
  5
178
  8
_________2
 62
     7
 10
89.488600000000005
 20
30.9285
 30
0.0
 11
89.488600000000005
 21
57.428400000000011
 31
0.0
  0
LINE
  5
179
  8
_________2
 62
     7
 10
108.4889999999999
 20
17.428499999999989
 30
0.0
 11
108.4889999999999
 21
57.428400000000011
 31
0.0
  0
LINE
  5
17A
  8
_________2
 62
     7
 10
33.488300000000002
 20
30.9285
 30
0.0
 11
33.488300000000002
 21
44.928800000000003
 31
0.0
  0
LINE
  5
17B
  8
_________2
 62
     7
 10
21.988499999999991
 20
30.9285
 30
0.0
 11
108.4889999999999
 21
30.9285
 31
0.0
  0
LINE
  5
17C
  8
_________2
 62
     7
 10
21.988499999999991
 20
44.928800000000003
 30
0.0
 11
108.4889999999999
 21
44.928800000000003
 31
0.0
  0
LINE
  5
17D
  8
_________2
 62
     7
 10
108.4889999999999
 20
37.428100000000001
 30
0.0
 11
188.49000000000001
 21
37.428100000000001
 31
0.0
  0
LINE
  5
17E
  8
_________2
 62
     7
 10
21.988499999999991
 20
57.428400000000011
 30
0.0
 11
188.49000000000001
 21
57.428400000000011
 31
0.0
  0
ENDSEC
  0
EOF
