  0
SECTION
  2
HEADER
  9
$ACADVER
  1
AC1009
  9
$INSBASE
 10
0.0
 20
0.0
 30
0.0
  9
$EXTMIN
 10
-4.70052
 20
-21.071400000000001
 30
0.0
  9
$EXTMAX
 10
205.30099999999999
 20
275.93099999999998
 30
0.0
  9
$LIMMIN
 10
0.0
 20
0.0
  9
$LIMMAX
 10
12.0
 20
9.0
  9
$ORTHOMODE
 70
     0
  9
$REGENMODE
 70
     1
  9
$FILLMODE
 70
     1
  9
$QTEXTMODE
 70
     0
  9
$MIRRTEXT
 70
     1
  9
$DRAGMODE
 70
     2
  9
$LTSCALE
 40
1.0
  9
$OSMODE
 70
    37
  9
$ATTMODE
 70
     1
  9
$TEXTSIZE
 40
0.0
  9
$TRACEWID
 40
0.05
  9
$TEXTSTYLE
  7
STANDARD
  9
$CLAYER
  8
0
  9
$CELTYPE
  6
CONTINUOUS
  9
$CECOLOR
 62
   256
  9
$DIMSCALE
 40
1.0
  9
$DIMASZ
 40
0.18
  9
$DIMEXO
 40
0.0625
  9
$DIMDLI
 40
0.38
  9
$DIMRND
 40
0.0
  9
$DIMDLE
 40
0.0
  9
$DIMEXE
 40
0.18
  9
$DIMTP
 40
0.0
  9
$DIMTM
 40
0.0
  9
$DIMTXT
 40
0.18
  9
$DIMCEN
 40
0.09
  9
$DIMTSZ
 40
0.0
  9
$DIMTOL
 70
     0
  9
$DIMLIM
 70
     0
  9
$DIMTIH
 70
     1
  9
$DIMTOH
 70
     1
  9
$DIMSE1
 70
     0
  9
$DIMSE2
 70
     0
  9
$DIMTAD
 70
     0
  9
$DIMZIN
 70
     0
  9
$DIMBLK
  1

  9
$DIMASO
 70
     1
  9
$DIMSHO
 70
     1
  9
$DIMPOST
  1

  9
$DIMAPOST
  1

  9
$DIMALT
 70
     0
  9
$DIMALTD
 70
     2
  9
$DIMALTF
 40
25.399999999999999
  9
$DIMLFAC
 40
1.0
  9
$DIMTOFL
 70
     0
  9
$DIMTVP
 40
0.0
  9
$DIMTIX
 70
     0
  9
$DIMSOXD
 70
     0
  9
$DIMSAH
 70
     0
  9
$DIMBLK1
  1

  9
$DIMBLK2
  1

  9
$DIMSTYLE
  2
STANDARD
  9
$DIMCLRD
 70
     0
  9
$DIMCLRE
 70
     0
  9
$DIMCLRT
 70
     0
  9
$DIMTFAC
 40
1.0
  9
$DIMGAP
 40
0.09
  9
$LUNITS
 70
     2
  9
$LUPREC
 70
     4
  9
$SKETCHINC
 40
0.1
  9
$FILLETRAD
 40
0.0
  9
$AUNITS
 70
     0
  9
$AUPREC
 70
     0
  9
$MENU
  1
.
  9
$ELEVATION
 40
0.0
  9
$PELEVATION
 40
0.0
  9
$THICKNESS
 40
0.0
  9
$LIMCHECK
 70
     0
  9
$BLIPMODE
 70
     0
  9
$CHAMFERA
 40
0.0
  9
$CHAMFERB
 40
0.0
  9
$SKPOLY
 70
     0
  9
$TDCREATE
 40
2444972.375
  9
$TDUPDATE
 40
2458640.577150648
  9
$TDINDWG
 40
0.0000262384
  9
$TDUSRTIMER
 40
0.0000262384
  9
$USRTIMER
 70
     1
  9
$ANGBASE
 50
0.0
  9
$ANGDIR
 70
     0
  9
$PDMODE
 70
     0
  9
$PDSIZE
 40
0.0
  9
$PLINEWID
 40
0.0
  9
$COORDS
 70
     1
  9
$SPLFRAME
 70
     0
  9
$SPLINETYPE
 70
     6
  9
$SPLINESEGS
 70
     8
  9
$ATTDIA
 70
     1
  9
$ATTREQ
 70
     1
  9
$HANDLING
 70
     1
  9
$HANDSEED
  5
2DD
  9
$SURFTAB1
 70
     6
  9
$SURFTAB2
 70
     6
  9
$SURFTYPE
 70
     6
  9
$SURFU
 70
     6
  9
$SURFV
 70
     6
  9
$UCSNAME
  2

  9
$UCSORG
 10
0.0
 20
0.0
 30
0.0
  9
$UCSXDIR
 10
1.0
 20
0.0
 30
0.0
  9
$UCSYDIR
 10
0.0
 20
1.0
 30
0.0
  9
$PUCSNAME
  2

  9
$PUCSORG
 10
0.0
 20
0.0
 30
0.0
  9
$PUCSXDIR
 10
1.0
 20
0.0
 30
0.0
  9
$PUCSYDIR
 10
0.0
 20
1.0
 30
0.0
  9
$USERI1
 70
     0
  9
$USERI2
 70
     0
  9
$USERI3
 70
     0
  9
$USERI4
 70
     0
  9
$USERI5
 70
     0
  9
$USERR1
 40
0.0
  9
$USERR2
 40
0.0
  9
$USERR3
 40
0.0
  9
$USERR4
 40
0.0
  9
$USERR5
 40
0.0
  9
$WORLDVIEW
 70
     1
  9
$SHADEDGE
 70
     3
  9
$SHADEDIF
 70
    70
  9
$TILEMODE
 70
     1
  9
$MAXACTVP
 70
    48
  9
$PLIMCHECK
 70
     0
  9
$PEXTMIN
 10
1.0000000000000000E+020
 20
1.0000000000000000E+020
 30
1.0000000000000000E+020
  9
$PEXTMAX
 10
-1.0000000000000000E+020
 20
-1.0000000000000000E+020
 30
-1.0000000000000000E+020
  9
$PLIMMIN
 10
0.0
 20
0.0
  9
$PLIMMAX
 10
12.0
 20
9.0
  9
$UNITMODE
 70
     0
  9
$VISRETAIN
 70
     1
  9
$PLINEGEN
 70
     0
  9
$PSLTSCALE
 70
     1
  0
ENDSEC
  0
SECTION
  2
TABLES
  0
TABLE
  2
VPORT
 70
     1
  0
VPORT
  2
*ACTIVE
 70
     0
 10
0.0
 20
0.0
 11
1.0
 21
1.0
 12
187.989442759421
 22
127.4298
 13
0.0
 23
0.0
 14
1.0
 24
1.0
 15
0.0
 25
0.0
 16
0.0
 26
0.0
 36
1.0
 17
0.0
 27
0.0
 37
0.0
 40
281.2558160629921
 41
2.2755555555555551
 42
50.0
 43
0.0
 44
0.0
 50
0.0
 51
0.0
 71
     0
 72
   100
 73
     1
 74
     1
 75
     0
 76
     0
 77
     0
 78
     0
  0
ENDTAB
  0
TABLE
  2
LTYPE
 70
     3
  0
LTYPE
  2
CONTINUOUS
 70
     0
  3
Solid line
 72
    65
 73
     0
 40
0.0
  0
LTYPE
  2
AIGENLINE001
 70
     0
  3
generate AI->DXF Converter
 72
    65
 73
     4
 40
5.8561449999999988
 49
3.5278
 49
-0.776115
 49
0.776115
 49
-0.776115
  0
LTYPE
  2
AIGENLINE002
 70
     0
  3
generate AI->DXF Converter
 72
    65
 73
     2
 40
1.5522299999999991
 49
0.776115
 49
-0.776115
  0
ENDTAB
  0
TABLE
  2
LAYER
 70
     2
  0
LAYER
  2
0
 70
     0
 62
     7
  6
CONTINUOUS
  0
LAYER
  2
_________2
 70
     0
 62
     7
  6
CONTINUOUS
  0
ENDTAB
  0
TABLE
  2
STYLE
 70
     1
  0
STYLE
  2
STANDARD
 70
     0
 40
0.0
 41
0.0
 50
0.0
 71
     0
 42
0.0
  3
TXT
  4
EXTFONT
  0
ENDTAB
  0
TABLE
  2
VIEW
 70
     0
  0
ENDTAB
  0
TABLE
  2
UCS
 70
     0
  0
ENDTAB
  0
TABLE
  2
APPID
 70
     3
  0
APPID
  2
ACAD
 70
     0
  0
APPID
  2
ACAD_NAV_VCDISPLAY
 70
     0
  0
APPID
  2
ACAD_MLEADERVER
 70
     0
  0
ENDTAB
  0
TABLE
  2
DIMSTYLE
 70
     1
  0
DIMSTYLE
  2
STANDARD
 70
     0
  3

  4

  5

  6

  7

 40
1.0
 41
0.18
 42
0.0625
 43
0.38
 44
0.18
 45
0.0
 46
0.0
 47
0.0
 48
0.0
140
0.18
141
0.09
142
0.0
143
25.399999999999999
144
1.0
145
0.0
146
1.0
147
0.09
 71
     0
 72
     0
 73
     1
 74
     1
 75
     0
 76
     0
 77
     0
 78
     0
170
     0
171
     2
172
     0
173
     0
174
     0
175
     0
176
     0
177
     0
178
     0
  0
ENDTAB
  0
ENDSEC
  0
SECTION
  2
BLOCKS
  0
BLOCK
  8
0
  2
$MODEL_SPACE
 70
     0
 10
0.0
 20
0.0
 30
0.0
  3
$MODEL_SPACE
  1

  0
ENDBLK
  5
1A
  8
0
  0
BLOCK
 67
     1
  8
0
  2
$PAPER_SPACE
 70
     0
 10
0.0
 20
0.0
 30
0.0
  3
$PAPER_SPACE
  1

  0
ENDBLK
  5
17
 67
     1
  8
0
  0
ENDSEC
  0
SECTION
  2
ENTITIES
  0
TEXT
  5
23
  8
0
 10
135.05500000000001
 20
59.590899999999991
 30
0.0
 40
3.0923400000000001
  1
〈付属品〉
 41
0.5
  0
TEXT
  5
24
  8
0
 10
135.05500000000001
 20
55.72549999999999
 30
0.0
 40
3.0923400000000001
  1
洗面器固定金具\U+00D74
 41
0.5
  0
TEXT
  5
25
  8
0
 10
135.05500000000001
 20
51.859999999999992
 30
0.0
 40
3.0923400000000001
  1
%%c4.7\U+00D718十字穴付
 41
0.5
  0
TEXT
  5
26
  8
0
 10
135.05500000000001
 20
47.994599999999991
 30
0.0
 40
3.0923400000000001
  1
なべ頭タッピンねじ付
 41
0.5
  0
TEXT
  5
27
  8
0
 10
135.05500000000001
 20
44.12919999999999
 30
0.0
 40
3.0923400000000001
  1
（尺度 1：3）
 41
0.5
  0
TEXT
  5
28
  8
0
 10
158.54105000000001
 20
100.41
 30
0.0
 40
3.0923400000000001
  1
%%c7
 41
0.5
 72
     2
 11
161.11799999999999
 21
100.41
 31
0.0
  0
TEXT
  5
29
  8
0
 10
140.97052500000001
 20
82.294899999999998
 30
0.0
 40
3.0923400000000001
  1
34
 41
0.5
 72
     1
 11
142.25899999999999
 21
82.294899999999998
 31
0.0
  0
TEXT
  5
2A
  8
0
 10
145.908525
 20
76.180199999999999
 30
0.0
 40
3.0923400000000001
  1
64
 41
0.5
 72
     1
 11
147.197
 21
76.180199999999999
 31
0.0
  0
TEXT
  5
2B
  8
0
 10
151.80037250000001
 20
82.294899999999998
 30
0.0
 40
3.0923400000000001
  1
30
 41
0.5
 72
     1
 11
152.96000000000001
 21
82.294899999999998
 31
0.0
  0
TEXT
  5
2C
  8
0
 10
166.80500000000001
 20
91.348272499999993
 30
0.0
 40
3.0923400000000001
  1
30
 50
90.0
 41
0.5
 72
     1
 11
166.80500000000001
 21
92.507900000000006
 31
0.0
  0
TEXT
  5
2D
  8
0
 10
126.32028750000001
 20
209.542
 30
0.0
 40
3.0923400000000001
  1
R30
 41
0.5
 72
     1
 11
128.25299999999999
 21
209.542
 31
0.0
  0
TEXT
  5
2E
  8
0
 10
126.4032875
 20
221.82900000000001
 30
0.0
 40
3.0923400000000001
  1
R30
 41
0.5
 72
     1
 11
128.33600000000001
 21
221.82900000000001
 31
0.0
  0
TEXT
  5
2F
  8
0
 10
156.13399999999999
 20
212.68544
 30
0.0
 40
3.0923400000000001
  1
345
 50
90.0
 41
0.5
 72
     1
 11
156.13399999999999
 21
214.74700000000001
 31
0.0
  0
TEXT
  5
30
  8
0
 10
108.199
 20
162.15000000000001
 30
0.0
 40
3.0923400000000001
  1
（t24～30）
 41
0.5
  0
TEXT
  5
31
  8
0
 10
108.199
 20
166.43199999999999
 30
0.0
 40
3.0923400000000001
  1
カウンター裏補強木
 41
0.5
  0
TEXT
  5
32
  8
0
 10
108.199
 20
171.88999999999999
 30
0.0
 40
3.0923400000000001
  1
洗面器固定用
 41
0.5
  0
TEXT
  5
33
  8
0
 10
130.87576000000001
 20
180.83600000000001
 30
0.0
 40
3.0923400000000001
  1
カウンター切込寸法
 41
0.5
 72
     1
 11
139.12200000000001
 21
180.83600000000001
 31
0.0
  0
TEXT
  5
34
  8
0
 10
146.8122875
 20
112.294
 30
0.0
 40
3.0923400000000001
  1
205
 41
0.5
 72
     1
 11
148.745
 21
112.294
 31
0.0
  0
TEXT
  5
35
  8
0
 10
162.85388
 20
145.20500000000001
 30
0.0
 40
3.0923400000000001
  1
17.5
 41
0.5
 72
     2
 11
166.977
 21
145.20500000000001
 31
0.0
  0
TEXT
  5
36
  8
0
 10
109.831
 20
145.20500000000001
 30
0.0
 40
3.0923400000000001
  1
17.5
 41
0.5
  0
TEXT
  5
37
  8
0
 10
137.16043999999999
 20
145.20500000000001
 30
0.0
 40
3.0923400000000001
  1
365
 41
0.5
 72
     1
 11
139.22200000000001
 21
145.20500000000001
 31
0.0
  0
TEXT
  5
38
  8
0
 10
137.41813500000001
 20
151.90799999999999
 30
0.0
 40
3.0923400000000001
  1
400
 41
0.5
 72
     1
 11
139.22200000000001
 21
151.90799999999999
 31
0.0
  0
TEXT
  5
39
  8
0
 10
137.2892875
 20
188.96000000000001
 30
0.0
 40
3.0923400000000001
  1
470
 41
0.5
 72
     1
 11
139.22200000000001
 21
188.96000000000001
 31
0.0
  0
TEXT
  5
3A
  8
0
 10
66.4981875
 20
175.12799999999999
 30
0.0
 40
3.0923400000000001
  1
530
 41
0.5
 72
     1
 11
68.430899999999994
 21
175.12799999999999
 31
0.0
  0
TEXT
  5
3B
  8
0
 10
99.52474500000001
 20
181.672
 30
0.0
 40
3.0923400000000001
  1
20
 41
0.5
 72
     2
 11
101.84399999999999
 21
181.672
 31
0.0
  0
TEXT
  5
3C
  8
0
 10
35.139299999999999
 20
181.672
 30
0.0
 40
3.0923400000000001
  1
20
 41
0.5
  0
TEXT
  5
3D
  8
0
 10
66.4981875
 20
181.97499999999999
 30
0.0
 40
3.0923400000000001
  1
490
 41
0.5
 72
     1
 11
68.430899999999994
 21
181.97499999999999
 31
0.0
  0
TEXT
  5
3E
  8
0
 10
149.89944
 20
243.411
 30
0.0
 40
3.0923400000000001
  1
272
 41
0.5
 72
     1
 11
151.96100000000001
 21
243.411
 31
0.0
  0
TEXT
  5
3F
  8
0
 10
123.00144
 20
243.411
 30
0.0
 40
3.0923400000000001
  1
272
 41
0.5
 72
     1
 11
125.063
 21
243.411
 31
0.0
  0
TEXT
  5
40
  8
0
 10
167.47942950000001
 20
243.76300000000001
 30
0.0
 40
3.0923400000000001
  1
50以上
 41
0.5
 72
     1
 11
170.54599999999999
 21
243.76300000000001
 31
0.0
  0
TEXT
  5
41
  8
0
 10
105.0004295
 20
243.76300000000001
 30
0.0
 40
3.0923400000000001
  1
50以上
 41
0.5
 72
     1
 11
108.06699999999999
 21
243.76300000000001
 31
0.0
  0
TEXT
  5
42
  8
0
 10
51.875
 20
206.79499999999999
 30
0.0
 40
3.0923400000000001
  1
%%c46
 41
0.5
  0
TEXT
  5
43
  8
0
 10
34.490099999999998
 20
186.38900000000001
 30
0.0
 40
3.0923400000000001
  1
17.5
 50
90.0
 41
0.5
  0
TEXT
  5
44
  8
0
 10
34.490099999999998
 20
238.79687999999999
 30
0.0
 40
3.0923400000000001
  1
17.5
 50
90.0
 41
0.5
 72
     2
 11
34.490099999999998
 21
242.91999999999999
 31
0.0
  0
TEXT
  5
45
  8
0
 10
34.274999999999999
 20
212.50844000000001
 30
0.0
 40
3.0923400000000001
  1
365
 50
90.0
 41
0.5
 72
     1
 11
34.274999999999999
 21
214.56999999999999
 31
0.0
  0
TEXT
  5
46
  8
0
 10
135.88499999999999
 20
129.94798249999999
 30
0.0
 40
3.0923400000000001
  1
130
 50
90.0
 41
0.5
 72
     1
 11
135.88499999999999
 21
131.62299999999999
 31
0.0
  0
TEXT
  5
47
  8
0
 10
165.03399999999999
 20
126.9229825
 30
0.0
 40
3.0923400000000001
  1
180
 50
90.0
 41
0.5
 72
     1
 11
165.03399999999999
 21
128.59800000000001
 31
0.0
  0
TEXT
  5
48
  8
0
 10
34.740000000000002
 20
142.38804999999999
 30
0.0
 40
3.0923400000000001
  1
35
 50
90.0
 41
0.5
 72
     2
 11
34.740000000000002
 21
144.965
 31
0.0
  0
TEXT
  5
49
  8
0
 10
29.4452
 20
127.0629825
 30
0.0
 40
3.0923400000000001
  1
180
 50
90.0
 41
0.5
 72
     1
 11
29.4452
 21
128.738
 31
0.0
  0
TEXT
  5
4A
  8
0
 10
27.008900000000001
 20
212.76613499999999
 30
0.0
 40
3.0923400000000001
  1
400
 50
90.0
 41
0.5
 72
     1
 11
27.008900000000001
 21
214.56999999999999
 31
0.0
  0
LINE
  5
4B
  8
0
 10
149.69900000000001
 20
95.203400000000002
 30
0.0
 11
148.554
 21
93.220699999999994
 31
0.0
  0
LINE
  5
4C
  8
0
 10
148.554
 20
93.220699999999994
 30
0.0
 11
150.53700000000001
 21
94.365199999999987
 31
0.0
  0
LINE
  5
4D
  8
0
 10
150.53700000000001
 20
94.365199999999987
 30
0.0
 11
149.69900000000001
 21
95.203400000000002
 31
0.0
  0
LINE
  5
4E
  8
0
 10
145.76400000000001
 20
89.602300000000014
 30
0.0
 11
146.90799999999999
 21
91.584999999999994
 31
0.0
  0
LINE
  5
4F
  8
0
 10
146.90799999999999
 20
91.584999999999994
 30
0.0
 11
144.92500000000001
 21
90.4405
 31
0.0
  0
LINE
  5
50
  8
0
 10
144.92500000000001
 20
90.4405
 30
0.0
 11
145.76400000000001
 21
89.602300000000014
 31
0.0
  0
LINE
  5
51
  8
0
 10
143.934
 20
88.600800000000007
 30
0.0
 11
155.04300000000001
 21
99.709599999999995
 31
0.0
  0
LINE
  5
52
  8
0
 10
149.94499999999999
 20
81.943099999999987
 30
0.0
 11
147.73400000000001
 21
81.350600000000014
 31
0.0
  0
LINE
  5
53
  8
0
 10
147.73400000000001
 20
81.350600000000014
 30
0.0
 11
149.94499999999999
 21
80.757999999999996
 31
0.0
  0
LINE
  5
54
  8
0
 10
149.94499999999999
 20
80.757999999999996
 30
0.0
 11
149.94499999999999
 21
81.943099999999987
 31
0.0
  0
LINE
  5
55
  8
0
 10
138.61199999999999
 20
81.943099999999987
 30
0.0
 11
136.40000000000001
 21
81.350600000000014
 31
0.0
  0
LINE
  5
56
  8
0
 10
136.40000000000001
 20
81.350600000000014
 30
0.0
 11
138.61199999999999
 21
80.757999999999996
 31
0.0
  0
LINE
  5
57
  8
0
 10
138.61199999999999
 20
80.757999999999996
 30
0.0
 11
138.61199999999999
 21
81.943099999999987
 31
0.0
  0
LINE
  5
58
  8
0
 10
145.52199999999999
 20
80.757999999999996
 30
0.0
 11
147.73400000000001
 21
81.350600000000014
 31
0.0
  0
LINE
  5
59
  8
0
 10
147.73400000000001
 20
81.350600000000014
 30
0.0
 11
145.52199999999999
 21
81.943099999999987
 31
0.0
  0
LINE
  5
5A
  8
0
 10
145.52199999999999
 20
81.943099999999987
 30
0.0
 11
145.52199999999999
 21
80.757999999999996
 31
0.0
  0
LINE
  5
5B
  8
0
 10
155.523
 20
80.772499999999994
 30
0.0
 11
157.73400000000001
 21
81.365099999999984
 31
0.0
  0
LINE
  5
5C
  8
0
 10
157.73400000000001
 20
81.365099999999984
 30
0.0
 11
155.523
 21
81.957599999999985
 31
0.0
  0
LINE
  5
5D
  8
0
 10
155.523
 20
81.957599999999985
 30
0.0
 11
155.523
 21
80.772499999999994
 31
0.0
  0
LINE
  5
5E
  8
0
 10
136.40000000000001
 20
81.350600000000014
 30
0.0
 11
157.73400000000001
 21
81.350600000000014
 31
0.0
  0
LINE
  5
5F
  8
0
 10
138.61199999999999
 20
75.935900000000004
 30
0.0
 11
136.40000000000001
 21
75.343299999999999
 31
0.0
  0
LINE
  5
60
  8
0
 10
136.40000000000001
 20
75.343299999999999
 30
0.0
 11
138.61199999999999
 21
74.750799999999998
 31
0.0
  0
LINE
  5
61
  8
0
 10
138.61199999999999
 20
74.750799999999998
 30
0.0
 11
138.61199999999999
 21
75.935900000000004
 31
0.0
  0
LINE
  5
62
  8
0
 10
155.523
 20
74.765199999999993
 30
0.0
 11
157.73400000000001
 21
75.357799999999983
 31
0.0
  0
LINE
  5
63
  8
0
 10
157.73400000000001
 20
75.357799999999983
 30
0.0
 11
155.523
 21
75.950400000000002
 31
0.0
  0
LINE
  5
64
  8
0
 10
155.523
 20
75.950400000000002
 30
0.0
 11
155.523
 21
74.765199999999993
 31
0.0
  0
LINE
  5
65
  8
0
 10
136.40000000000001
 20
75.343299999999999
 30
0.0
 11
157.73400000000001
 21
75.343299999999999
 31
0.0
  0
LINE
  5
66
  8
0
 10
168.33799999999999
 20
95.188900000000004
 30
0.0
 11
167.745
 21
97.400400000000005
 31
0.0
  0
LINE
  5
67
  8
0
 10
167.745
 20
97.400400000000005
 30
0.0
 11
167.15299999999999
 21
95.188900000000004
 31
0.0
  0
LINE
  5
68
  8
0
 10
167.15299999999999
 20
95.188900000000004
 30
0.0
 11
168.33799999999999
 21
95.188900000000004
 31
0.0
  0
LINE
  5
69
  8
0
 10
167.167
 20
89.611599999999996
 30
0.0
 11
167.75999999999999
 21
87.400199999999984
 31
0.0
  0
LINE
  5
6A
  8
0
 10
167.75999999999999
 20
87.400199999999984
 30
0.0
 11
168.352
 21
89.611599999999996
 31
0.0
  0
LINE
  5
6B
  8
0
 10
168.352
 20
89.611599999999996
 30
0.0
 11
167.167
 21
89.611599999999996
 31
0.0
  0
LINE
  5
6C
  8
0
 10
167.745
 20
97.400400000000005
 30
0.0
 11
167.745
 21
87.400199999999984
 31
0.0
  0
LINE
  5
6D
  8
0
 10
141.733
 20
67.287300000000002
 30
0.0
 11
144.53800000000001
 21
69.5535
 31
0.0
  0
LINE
  5
6E
  8
0
 10
140.958
 20
67.222499999999997
 30
0.0
 11
136.64500000000001
 21
69.645099999999999
 31
0.0
  0
ARC
  5
6F
  8
0
 10
141.295997
 20
67.848322999999993
 30
0.0
 40
0.7112560000000001
 50
241.62742800000001
 51
307.925163
  0
LINE
  5
70
  8
0
 10
142.059
 20
66.908000000000001
 30
0.0
 11
144.88
 21
69.186199999999999
 31
0.0
  0
LINE
  5
71
  8
0
 10
140.69999999999999
 20
66.793899999999994
 30
0.0
 11
136.40000000000001
 21
69.209599999999995
 31
0.0
  0
ARC
  5
72
  8
0
 10
141.29259400000001
 20
67.888718999999995
 30
0.0
 40
1.244729999999999
 50
241.586479
 51
308.00814600000001
  0
LINE
  5
73
  8
0
 10
145.721
 20
69.418800000000005
 30
0.0
 11
149.81100000000001
 21
68.838999999999999
 31
0.0
  0
ARC
  5
74
  8
0
 10
145.57248300000001
 20
68.318798999999999
 30
0.0
 40
1.1099799999999991
 50
82.298918999999998
 51
128.604015
  0
LINE
  5
75
  8
0
 10
145.82599999999999
 20
69.908999999999992
 30
0.0
 11
149.87799999999999
 21
69.334400000000002
 31
0.0
  0
ARC
  5
76
  8
0
 10
145.59730400000001
 20
68.227204
 30
0.0
 40
1.6972769999999999
 50
82.257712999999995
 51
128.61016100000001
  0
LINE
  5
77
  8
0
 10
150.68799999999999
 20
68.938199999999995
 30
0.0
 11
153.53399999999999
 21
70.026799999999994
 31
0.0
  0
ARC
  5
78
  8
0
 10
150.056918
 20
70.590937999999994
 30
0.0
 40
1.7691680000000001
 50
262.00744200000003
 51
290.900147
  0
LINE
  5
79
  8
0
 10
150.512
 20
69.406000000000006
 30
0.0
 11
153.24700000000001
 21
70.451999999999998
 31
0.0
  0
ARC
  5
7A
  8
0
 10
150.05602200000001
 20
70.598757999999989
 30
0.0
 40
1.2768040000000001
 50
262.005583
 51
290.90742299999999
  0
LINE
  5
7B
  8
0
 10
154.15700000000001
 20
69.8994
 30
0.0
 11
157.386
 21
66.773300000000006
 31
0.0
  0
ARC
  5
7C
  8
0
 10
153.74235300000001
 20
69.459620999999999
 30
0.0
 40
0.6041270000000001
 50
46.710246999999988
 51
110.133489
  0
LINE
  5
7D
  8
0
 10
154.58799999999999
 20
70.177700000000002
 30
0.0
 11
157.73400000000001
 21
67.132599999999996
 31
0.0
  0
ARC
  5
7E
  8
0
 10
153.695199
 20
69.22789499999999
 30
0.0
 40
1.3035099999999991
 50
46.775235999999992
 51
110.10705400000001
  0
LINE
  5
7F
  8
0
  6
AIGENLINE001
 10
147.73400000000001
 20
94.531299999999987
 30
0.0
 11
147.73400000000001
 21
90.488799999999998
 31
0.0
  0
LINE
  5
80
  8
0
  6
AIGENLINE001
 10
149.642
 20
92.400099999999995
 30
0.0
 11
145.827
 21
92.400099999999995
 31
0.0
  0
ARC
  5
81
  8
0
 10
147.67763400000001
 20
92.356084999999993
 30
0.0
 40
1.2121770000000001
 50
2.0814590000000002
 51
87.357562000000001
  0
ARC
  5
82
  8
0
 10
147.77881500000001
 20
92.367633999999995
 30
0.0
 40
1.2001949999999999
 50
92.162887999999995
 51
178.44932
  0
ARC
  5
83
  8
0
 10
147.79006100000001
 20
92.444074999999984
 30
0.0
 40
1.2117990000000001
 50
182.07909900000001
 51
267.32561099999998
  0
ARC
  5
84
  8
0
 10
147.68828400000001
 20
92.433947000000003
 30
0.0
 40
1.201203
 50
272.15813800000001
 51
358.38592299999999
  0
LINE
  5
85
  8
0
  6
AIGENLINE001
 10
147.40799999999999
 20
67.338300000000004
 30
0.0
 11
148.03399999999999
 21
71.755600000000001
 31
0.0
  0
LINE
  5
86
  8
0
 10
136.64500000000001
 20
97.400400000000005
 30
0.0
 11
136.64500000000001
 21
87.400199999999984
 31
0.0
  0
LINE
  5
87
  8
0
 10
141.40299999999999
 20
96.900099999999995
 30
0.0
 11
141.40299999999999
 21
87.900099999999995
 31
0.0
  0
LINE
  5
88
  8
0
 10
145.21799999999999
 20
96.900099999999995
 30
0.0
 11
145.21799999999999
 21
87.900099999999995
 31
0.0
  0
LINE
  5
89
  8
0
 10
150.10400000000001
 20
96.900099999999995
 30
0.0
 11
150.10400000000001
 21
87.900099999999995
 31
0.0
  0
LINE
  5
8A
  8
0
 10
153.733
 20
96.900099999999995
 30
0.0
 11
153.733
 21
87.900099999999995
 31
0.0
  0
LINE
  5
8B
  8
0
 10
157.73400000000001
 20
67.132599999999996
 30
0.0
 11
157.386
 21
66.773300000000006
 31
0.0
  0
LINE
  5
8C
  8
0
 10
136.40000000000001
 20
69.209599999999995
 30
0.0
 11
136.64500000000001
 21
69.645099999999999
 31
0.0
  0
LINE
  5
8D
  8
0
 10
168.727
 20
87.400199999999984
 30
0.0
 11
158.786
 21
87.400199999999984
 31
0.0
  0
LINE
  5
8E
  8
0
 10
161.11799999999999
 20
99.709599999999995
 30
0.0
 11
155.04300000000001
 21
99.709599999999995
 31
0.0
  0
LINE
  5
8F
  8
0
 10
168.727
 20
97.400400000000005
 30
0.0
 11
158.786
 21
97.400400000000005
 31
0.0
  0
LINE
  5
90
  8
0
 10
157.73400000000001
 20
87.400199999999984
 30
0.0
 11
136.40000000000001
 21
87.400199999999984
 31
0.0
  0
LINE
  5
91
  8
0
 10
157.73400000000001
 20
97.400400000000005
 30
0.0
 11
136.40000000000001
 21
97.400400000000005
 31
0.0
  0
LINE
  5
92
  8
0
 10
157.73400000000001
 20
86.610899999999987
 30
0.0
 11
157.73400000000001
 21
74.804900000000004
 31
0.0
  0
LINE
  5
93
  8
0
 10
147.73400000000001
 20
89.753600000000006
 30
0.0
 11
147.73400000000001
 21
80.750399999999985
 31
0.0
  0
LINE
  5
94
  8
0
 10
136.40000000000001
 20
86.610899999999987
 30
0.0
 11
136.40000000000001
 21
74.804900000000004
 31
0.0
  0
LINE
  5
95
  8
0
 10
157.73400000000001
 20
97.400400000000005
 30
0.0
 11
157.73400000000001
 21
87.400199999999984
 31
0.0
  0
LINE
  5
96
  8
0
 10
136.40000000000001
 20
97.400400000000005
 30
0.0
 11
136.40000000000001
 21
87.400199999999984
 31
0.0
  0
ARC
  5
97
  8
0
 10
141.65321900000001
 20
120.591174
 30
0.0
 40
0.51955
 50
272.12940500000002
 51
357.87060500000001
  0
LINE
  5
98
  8
0
 10
119.98399999999999
 20
137.27199999999999
 30
0.0
 11
119.735
 21
137.27199999999999
 31
0.0
  0
ARC
  5
99
  8
0
 10
64.947676999999999
 20
134.05310600000001
 30
0.0
 40
0.5197350000000001
 50
2.149020999999999
 51
87.870708999999991
  0
ARC
  5
9A
  8
0
 10
71.986260000000001
 20
134.05327800000001
 30
0.0
 40
0.5195560000000001
 50
92.110963999999996
 51
177.86926600000001
  0
ARC
  5
9B
  8
0
 10
118.621933
 20
200.496522
 30
0.0
 40
3.0000079999999998
 50
179.99996999999999
 51
270.00002000000001
  0
ARC
  5
9C
  8
0
 10
118.621934
 20
228.99694400000001
 30
0.0
 40
3.000008999999999
 50
90.0
 51
179.99996999999999
  0
LINE
  5
9D
  8
0
 10
122.288
 20
132.64599999999999
 30
0.0
 11
122.998
 21
133.10300000000001
 31
0.0
  0
LINE
  5
9E
  8
0
 10
121.729
 20
133.47399999999999
 30
0.0
 11
122.443
 21
133.93299999999999
 31
0.0
  0
LINE
  5
9F
  8
0
  6
AIGENLINE001
 10
121.045
 20
132.44
 30
0.0
 11
124.288
 21
134.52600000000001
 31
0.0
  0
LINE
  5
A0
  8
0
 10
131.57400000000001
 20
208.55699999999999
 30
0.0
 11
123.017
 21
208.55699999999999
 31
0.0
  0
LINE
  5
A1
  8
0
 10
118.001
 20
199.96899999999999
 30
0.0
 11
116.283
 21
198.458
 31
0.0
  0
LINE
  5
A2
  8
0
 10
116.283
 20
198.458
 30
0.0
 11
117.015
 21
200.625
 31
0.0
  0
LINE
  5
A3
  8
0
 10
117.015
 20
200.625
 30
0.0
 11
118.001
 21
199.96899999999999
 31
0.0
  0
LINE
  5
A4
  8
0
 10
123.017
 20
208.55699999999999
 30
0.0
 11
116.29000000000001
 21
198.453
 31
0.0
  0
LINE
  5
A5
  8
0
 10
131.65700000000001
 20
220.81700000000001
 30
0.0
 11
123.099
 21
220.81700000000001
 31
0.0
  0
LINE
  5
A6
  8
0
 10
118.084
 20
229.405
 30
0.0
 11
116.366
 21
230.916
 31
0.0
  0
LINE
  5
A7
  8
0
 10
116.366
 20
230.916
 30
0.0
 11
117.098
 21
228.74799999999999
 31
0.0
  0
LINE
  5
A8
  8
0
 10
117.098
 20
228.74799999999999
 30
0.0
 11
118.084
 21
229.405
 31
0.0
  0
LINE
  5
A9
  8
0
 10
123.099
 20
220.81700000000001
 30
0.0
 11
116.372
 21
230.91999999999999
 31
0.0
  0
LINE
  5
AA
  8
0
 10
156.25
 20
199.70699999999999
 30
0.0
 11
156.84200000000001
 21
197.49700000000001
 31
0.0
  0
LINE
  5
AB
  8
0
 10
156.84200000000001
 20
197.49700000000001
 30
0.0
 11
157.434
 21
199.70699999999999
 31
0.0
  0
LINE
  5
AC
  8
0
 10
157.434
 20
199.70699999999999
 30
0.0
 11
156.25
 21
199.70699999999999
 31
0.0
  0
LINE
  5
AD
  8
0
 10
157.4189999999999
 20
229.786
 30
0.0
 11
156.828
 21
231.99700000000001
 31
0.0
  0
LINE
  5
AE
  8
0
 10
156.828
 20
231.99700000000001
 30
0.0
 11
156.23500000000001
 21
229.786
 31
0.0
  0
LINE
  5
AF
  8
0
 10
156.23500000000001
 20
229.786
 30
0.0
 11
157.4189999999999
 21
229.786
 31
0.0
  0
LINE
  5
B0
  8
0
 10
156.834
 20
197.49700000000001
 30
0.0
 11
156.834
 21
231.99700000000001
 31
0.0
  0
ARC
  5
B1
  8
0
 10
69.231358999999998
 20
198.24817400000001
 30
0.0
 40
0.485759
 50
324.07653599999998
 51
359.82484299999999
  0
ARC
  5
B2
  8
0
 10
69.023568999999995
 20
198.375933
 30
0.0
 40
0.7292170000000001
 50
309.40670699999998
 51
325.52645200000001
  0
ARC
  5
B3
  8
0
 10
68.763749000000004
 20
198.67892000000001
 30
0.0
 40
1.1282939999999999
 50
290.88527699999997
 51
309.83381200000002
  0
ARC
  5
B4
  8
0
 10
68.500466000000003
 20
199.285517
 30
0.0
 40
1.7891410000000001
 50
268.9299759999999
 51
291.83751100000001
  0
ARC
  5
B5
  8
0
 10
68.467913999999993
 20
199.46202500000001
 30
0.0
 40
1.965338
 50
248.37216900000001
 51
269.97496000000001
  0
ARC
  5
B6
  8
0
 10
68.217076000000006
 20
198.75634600000001
 30
0.0
 40
1.2171849999999991
 50
229.75135499999999
 51
247.10497100000001
  0
ARC
  5
B7
  8
0
 10
67.897622999999996
 20
198.35928799999999
 30
0.0
 40
0.707845
 50
205.081108
 51
228.72168099999999
  0
ARC
  5
B8
  8
0
 10
67.698864999999998
 20
198.24995799999999
 30
0.0
 40
0.48171
 50
180.38880800000001
 51
203.3243580000001
  0
ARC
  5
B9
  8
0
 10
67.702945999999983
 20
198.245204
 30
0.0
 40
0.4857820000000001
 50
144.078486
 51
179.82481899999999
  0
ARC
  5
BA
  8
0
 10
67.911197999999999
 20
198.11699400000001
 30
0.0
 40
0.7298780000000001
 50
129.414027
 51
145.519092
  0
ARC
  5
BB
  8
0
 10
68.170228000000009
 20
197.81503900000001
 30
0.0
 40
1.1276559999999991
 50
110.883082
 51
129.841004
  0
ARC
  5
BC
  8
0
 10
68.433622999999983
 20
197.20867200000001
 30
0.0
 40
1.788332
 50
88.928821999999997
 51
111.84253699999999
  0
ARC
  5
BD
  8
0
 10
68.466197999999991
 20
197.03066299999989
 30
0.0
 40
1.966027999999999
 50
68.375992999999994
 51
89.975029000000021
  0
ARC
  5
BE
  8
0
 10
68.717159999999993
 20
197.736909
 30
0.0
 40
1.2173020000000001
 50
49.753822999999997
 51
67.106859999999983
  0
ARC
  5
BF
  8
0
 10
69.036783999999997
 20
198.134163
 30
0.0
 40
0.7077010000000001
 50
25.080071
 51
48.726080000000003
  0
ARC
  5
C0
  8
0
 10
69.235416999999998
 20
198.24341999999999
 30
0.0
 40
0.48171
 50
0.3887880000000001
 51
23.324338999999998
  0
ARC
  5
C1
  8
0
 10
136.35295300000001
 20
143.90598
 30
0.0
 40
22.262018999999999
 50
337.16337600000003
 51
340.85884199999998
  0
ARC
  5
C2
  8
0
 10
149.620498
 20
139.25339700000001
 30
0.0
 40
8.2025459999999981
 50
341.172999
 51
343.60667100000001
  0
ARC
  5
C3
  8
0
 10
154.14665299999999
 20
137.93335999999999
 30
0.0
 40
3.4878580000000001
 50
343.42527999999999
 51
348.70166
  0
ARC
  5
C4
  8
0
 10
146.53964099999999
 20
163.25787
 30
0.0
 40
43.532440000000001
 50
249.870621
 51
254.3812180000001
  0
ARC
  5
C5
  8
0
 10
142.03307899999999
 20
150.578292
 30
0.0
 40
30.076754000000001
 50
242.98674800000001
 51
249.61863500000001
  0
ARC
  5
C6
  8
0
 10
139.16320899999999
 20
144.64664400000001
 30
0.0
 40
23.489156999999999
 50
228.470562
 51
242.65168300000011
  0
ARC
  5
C7
  8
0
 10
145.355187
 20
151.89904199999989
 30
0.0
 40
33.024175999999997
 50
226.38567900000001
 51
228.770657
  0
ARC
  5
C8
  8
0
 10
156.87273500000001
 20
164.05181400000001
 30
0.0
 40
49.767606999999991
 50
224.56546399999999
 51
226.43667300000001
  0
ARC
  5
C9
  8
0
 10
197.23167799999999
 20
204.07274799999999
 30
0.0
 40
106.605114
 50
224.02799500000009
 51
224.66869199999999
  0
ARC
  5
CA
  8
0
 10
132.16174000000001
 20
159.39636200000001
 30
0.0
 40
36.655673
 50
286.686916
 51
291.544693
  0
ARC
  5
CB
  8
0
 10
136.052707
 20
149.216801
 30
0.0
 40
25.758752000000001
 50
291.80960499999998
 51
299.27496300000001
  0
ARC
  5
CC
  8
0
 10
138.498616
 20
144.59516300000001
 30
0.0
 40
20.531711999999999
 50
299.62786699999998
 51
318.51541800000001
  0
ARC
  5
CD
  8
0
 10
133.79769200000001
 20
148.94368
 30
0.0
 40
26.934255
 50
318.20985400000012
 51
324.05308100000002
  0
ARC
  5
CE
  8
0
 10
125.960131
 20
154.82645099999999
 30
0.0
 40
36.732990999999998
 50
323.80111699999998
 51
326.53801600000003
  0
ARC
  5
CF
  8
0
 10
135.70716400000001
 20
148.95055600000001
 30
0.0
 40
24.929894999999998
 50
286.70343100000002
 51
308.26420100000001
  0
ARC
  5
D0
  8
0
 10
137.92418799999999
 20
145.89241299999989
 30
0.0
 40
21.156327999999998
 50
308.67895800000002
 51
320.17094700000001
  0
ARC
  5
D1
  8
0
 10
141.09128000000001
 20
143.103702
 30
0.0
 40
16.938343
 50
320.55350499999997
 51
330.85997300000002
  0
ARC
  5
D2
  8
0
 10
144.23447400000001
 20
141.248155
 30
0.0
 40
13.289731
 50
331.24855300000002
 51
341.71898900000002
  0
ARC
  5
D3
  8
0
 10
146.460905
 20
140.43194
 30
0.0
 40
10.919909000000001
 50
342.121105
 51
347.52116000000001
  0
ARC
  5
D4
  8
0
 10
141.033862
 20
146.480862
 30
0.0
 40
23.402401999999999
 50
229.22479100000001
 51
253.712558
  0
ARC
  5
D5
  8
0
 10
139.38910899999999
 20
144.3792399999999
 30
0.0
 40
20.737100999999999
 50
211.28695500000001
 51
228.87383600000001
  0
ARC
  5
D6
  8
0
 10
137.68144699999999
 20
143.18750700000001
 30
0.0
 40
18.659341000000001
 50
198.48185599999999
 51
210.88286400000001
  0
ARC
  5
D7
  8
0
 10
118.90871199999999
 20
128.84816799999999
 30
0.0
 40
2.0212460000000001
 50
34.093716000000001
 51
37.683819
  0
ARC
  5
D8
  8
0
 10
121.47032799999999
 20
130.869249
 30
0.0
 40
1.241954999999999
 50
190.22100699999999
 51
219.231808
  0
ARC
  5
D9
  8
0
 10
122.756832
 20
131.159153
 30
0.0
 40
2.5601199999999991
 50
187.09822800000001
 51
191.49721400000001
  0
ARC
  5
DA
  8
0
 10
140.752388
 20
146.491241
 30
0.0
 40
22.496514999999999
 50
237.8668450000001
 51
252.19232199999999
  0
ARC
  5
DB
  8
0
 10
139.514059
 20
144.30352199999999
 30
0.0
 40
19.985600999999999
 50
215.27820800000001
 51
237.53718599999999
  0
ARC
  5
DC
  8
0
 10
138.641122
 20
143.53238099999999
 30
0.0
 40
18.828019999999999
 50
196.85758999999999
 51
214.89670799999999
  0
ARC
  5
DD
  8
0
 10
155.70313400000001
 20
185.65135599999999
 30
0.0
 40
68.423886999999993
 50
249.85151500000001
 51
252.01128299999999
  0
ARC
  5
DE
  8
0
 10
147.561857
 20
163.182411
 30
0.0
 40
44.525779
 50
245.777479
 51
249.727374
  0
ARC
  5
DF
  8
0
 10
142.241311
 20
151.115644
 30
0.0
 40
31.338615999999998
 50
238.071561
 51
245.59710999999999
  0
ARC
  5
E0
  8
0
 10
139.01146299999999
 20
145.63718700000001
 30
0.0
 40
24.981349999999999
 50
218.54048599999999
 51
237.713458
  0
ARC
  5
E1
  8
0
 10
70.749227000000005
 20
179.18479099999999
 30
0.0
 40
54.653841
 50
272.22069599999998
 51
275.74528299999997
  0
ARC
  5
E2
  8
0
 10
72.057141000000001
 20
165.168982
 30
0.0
 40
40.577635000000001
 50
275.88891599999999
 51
280.42720600000001
  0
ARC
  5
E3
  8
0
 10
73.874909000000002
 20
154.829815
 30
0.0
 40
30.080337
 50
280.58624600000002
 51
287.481585
  0
ARC
  5
E4
  8
0
 10
76.081706000000011
 20
147.39465200000001
 30
0.0
 40
22.326028999999998
 50
287.81172700000002
 51
296.157399
  0
ARC
  5
E5
  8
0
 10
78.274137999999994
 20
142.694119
 30
0.0
 40
17.140702999999998
 50
296.50597099999999
 51
311.00241299999999
  0
ARC
  5
E6
  8
0
 10
79.620850000000004
 20
140.90619599999999
 30
0.0
 40
14.908647
 50
311.60464400000001
 51
334.85978599999999
  0
ARC
  5
E7
  8
0
 10
66.184882000000002
 20
179.18479099999999
 30
0.0
 40
54.653841
 50
264.25473699999998
 51
267.77932399999997
  0
ARC
  5
E8
  8
0
 10
64.876968999999988
 20
165.168982
 30
0.0
 40
40.577635000000001
 50
259.57281399999999
 51
264.11110400000001
  0
ARC
  5
E9
  8
0
 10
63.059201000000002
 20
154.829815
 30
0.0
 40
30.080337
 50
252.51843500000001
 51
259.41377399999999
  0
ARC
  5
EA
  8
0
 10
60.852404
 20
147.39465200000001
 30
0.0
 40
22.326028999999998
 50
243.84262100000001
 51
252.18829299999999
  0
ARC
  5
EB
  8
0
 10
58.659971999999989
 20
142.694119
 30
0.0
 40
17.140702999999998
 50
228.99760699999999
 51
243.49404899999999
  0
ARC
  5
EC
  8
0
 10
57.31326
 20
140.90619599999999
 30
0.0
 40
14.908647
 50
205.14023299999999
 51
228.395376
  0
LINE
  5
ED
  8
0
 10
108.309
 20
198.917
 30
0.0
 11
107.928
 21
201.17400000000001
 31
0.0
  0
LINE
  5
EE
  8
0
 10
107.928
 20
201.17400000000001
 30
0.0
 11
107.13
 21
199.029
 31
0.0
  0
LINE
  5
EF
  8
0
 10
107.13
 20
199.029
 30
0.0
 11
108.309
 21
198.917
 31
0.0
  0
LINE
  5
F0
  8
0
 10
107.93600000000001
 20
201.173
 30
0.0
 11
105.03400000000001
 21
170.55600000000001
 31
0.0
  0
LINE
  5
F1
  8
0
 10
117.833
 20
188.648
 30
0.0
 11
115.622
 21
188.05500000000001
 31
0.0
  0
LINE
  5
F2
  8
0
 10
115.622
 20
188.05500000000001
 30
0.0
 11
117.833
 21
187.46299999999999
 31
0.0
  0
LINE
  5
F3
  8
0
 10
117.833
 20
187.46299999999999
 30
0.0
 11
117.833
 21
188.648
 31
0.0
  0
LINE
  5
F4
  8
0
 10
160.41200000000001
 20
187.47800000000001
 30
0.0
 11
162.62200000000001
 21
188.06999999999999
 31
0.0
  0
LINE
  5
F5
  8
0
 10
162.62200000000001
 20
188.06999999999999
 30
0.0
 11
160.41200000000001
 21
188.66200000000001
 31
0.0
  0
LINE
  5
F6
  8
0
 10
160.41200000000001
 20
188.66200000000001
 30
0.0
 11
160.41200000000001
 21
187.47800000000001
 31
0.0
  0
LINE
  5
F7
  8
0
 10
105.03400000000001
 20
170.55600000000001
 30
0.0
 11
131.4189999999999
 21
170.55600000000001
 31
0.0
  0
LINE
  5
F8
  8
0
 10
115.622
 20
188.06299999999999
 30
0.0
 11
162.62200000000001
 21
188.06299999999999
 31
0.0
  0
LINE
  5
F9
  8
0
 10
162.62200000000001
 20
197.06
 30
0.0
 11
162.62200000000001
 21
187.20599999999999
 31
0.0
  0
LINE
  5
FA
  8
0
 10
115.622
 20
197.06
 30
0.0
 11
115.622
 21
187.20599999999999
 31
0.0
  0
LINE
  5
FB
  8
0
 10
139.12200000000001
 20
235.60599999999999
 30
0.0
 11
139.12200000000001
 21
242.90000000000001
 31
0.0
  0
LINE
  5
FC
  8
0
 10
168.53299999999999
 20
242.833
 30
0.0
 11
166.322
 21
242.24100000000001
 31
0.0
  0
LINE
  5
FD
  8
0
 10
166.322
 20
242.24100000000001
 30
0.0
 11
168.53299999999999
 21
241.649
 31
0.0
  0
LINE
  5
FE
  8
0
 10
168.53299999999999
 20
241.649
 30
0.0
 11
168.53299999999999
 21
242.833
 31
0.0
  0
LINE
  5
FF
  8
0
 10
141.33199999999999
 20
242.833
 30
0.0
 11
139.12200000000001
 21
242.24100000000001
 31
0.0
  0
LINE
  5
100
  8
0
 10
139.12200000000001
 20
242.24100000000001
 30
0.0
 11
141.33199999999999
 21
241.649
 31
0.0
  0
LINE
  5
101
  8
0
 10
141.33199999999999
 20
241.649
 30
0.0
 11
141.33199999999999
 21
242.833
 31
0.0
  0
LINE
  5
102
  8
0
 10
114.133
 20
242.833
 30
0.0
 11
111.922
 21
242.24100000000001
 31
0.0
  0
LINE
  5
103
  8
0
 10
111.922
 20
242.24100000000001
 30
0.0
 11
114.133
 21
241.649
 31
0.0
  0
LINE
  5
104
  8
0
 10
114.133
 20
241.649
 30
0.0
 11
114.133
 21
242.833
 31
0.0
  0
LINE
  5
105
  8
0
 10
106.133
 20
242.833
 30
0.0
 11
103.922
 21
242.24100000000001
 31
0.0
  0
LINE
  5
106
  8
0
 10
103.922
 20
242.24100000000001
 30
0.0
 11
106.133
 21
241.649
 31
0.0
  0
LINE
  5
107
  8
0
 10
106.133
 20
241.649
 30
0.0
 11
106.133
 21
242.833
 31
0.0
  0
LINE
  5
108
  8
0
 10
136.911
 20
241.66300000000001
 30
0.0
 11
139.12200000000001
 21
242.256
 31
0.0
  0
LINE
  5
109
  8
0
 10
139.12200000000001
 20
242.256
 30
0.0
 11
136.911
 21
242.84800000000001
 31
0.0
  0
LINE
  5
10A
  8
0
 10
136.911
 20
242.84800000000001
 30
0.0
 11
136.911
 21
241.66300000000001
 31
0.0
  0
LINE
  5
10B
  8
0
 10
109.711
 20
241.66300000000001
 30
0.0
 11
111.922
 21
242.256
 31
0.0
  0
LINE
  5
10C
  8
0
 10
111.922
 20
242.256
 30
0.0
 11
109.711
 21
242.84800000000001
 31
0.0
  0
LINE
  5
10D
  8
0
 10
109.711
 20
242.84800000000001
 30
0.0
 11
109.711
 21
241.66300000000001
 31
0.0
  0
LINE
  5
10E
  8
0
 10
164.11199999999999
 20
241.66300000000001
 30
0.0
 11
166.322
 21
242.256
 31
0.0
  0
LINE
  5
10F
  8
0
 10
166.322
 20
242.256
 30
0.0
 11
164.11199999999999
 21
242.84800000000001
 31
0.0
  0
LINE
  5
110
  8
0
 10
164.11199999999999
 20
242.84800000000001
 30
0.0
 11
164.11199999999999
 21
241.66300000000001
 31
0.0
  0
LINE
  5
111
  8
0
 10
172.11199999999999
 20
241.66300000000001
 30
0.0
 11
174.32300000000001
 21
242.256
 31
0.0
  0
LINE
  5
112
  8
0
 10
174.32300000000001
 20
242.256
 30
0.0
 11
172.11199999999999
 21
242.84800000000001
 31
0.0
  0
LINE
  5
113
  8
0
 10
172.11199999999999
 20
242.84800000000001
 30
0.0
 11
172.11199999999999
 21
241.66300000000001
 31
0.0
  0
LINE
  5
114
  8
0
 10
103.922
 20
242.24799999999999
 30
0.0
 11
174.32300000000001
 21
242.24799999999999
 31
0.0
  0
LINE
  5
115
  8
0
 10
174.32300000000001
 20
233.12
 30
0.0
 11
174.32300000000001
 21
242.95500000000001
 31
0.0
  0
LINE
  5
116
  8
0
 10
166.322
 20
233.12
 30
0.0
 11
166.322
 21
242.95500000000001
 31
0.0
  0
LINE
  5
117
  8
0
 10
111.922
 20
233.12
 30
0.0
 11
111.922
 21
242.95500000000001
 31
0.0
  0
LINE
  5
118
  8
0
 10
103.922
 20
233.12
 30
0.0
 11
103.922
 21
242.95500000000001
 31
0.0
  0
LINE
  5
119
  8
0
  6
AIGENLINE002
 10
103.922
 20
231.99700000000001
 30
0.0
 11
111.922
 21
197.49700000000001
 31
0.0
  0
LINE
  5
11A
  8
0
  6
AIGENLINE002
 10
103.922
 20
197.49700000000001
 30
0.0
 11
111.922
 21
231.99700000000001
 31
0.0
  0
LINE
  5
11B
  8
0
  6
AIGENLINE002
 10
103.922
 20
197.49700000000001
 30
0.0
 11
111.922
 21
197.49700000000001
 31
0.0
  0
LINE
  5
11C
  8
0
  6
AIGENLINE002
 10
103.922
 20
231.99700000000001
 30
0.0
 11
111.922
 21
231.99700000000001
 31
0.0
  0
LINE
  5
11D
  8
0
  6
AIGENLINE002
 10
111.922
 20
197.49700000000001
 30
0.0
 11
111.922
 21
231.99700000000001
 31
0.0
  0
LINE
  5
11E
  8
0
  6
AIGENLINE002
 10
103.922
 20
197.49700000000001
 30
0.0
 11
103.922
 21
231.99700000000001
 31
0.0
  0
LINE
  5
11F
  8
0
  6
AIGENLINE002
 10
166.322
 20
231.99700000000001
 30
0.0
 11
174.32300000000001
 21
197.49700000000001
 31
0.0
  0
LINE
  5
120
  8
0
  6
AIGENLINE002
 10
166.322
 20
197.49700000000001
 30
0.0
 11
174.32300000000001
 21
231.99700000000001
 31
0.0
  0
LINE
  5
121
  8
0
  6
AIGENLINE002
 10
166.322
 20
197.49700000000001
 30
0.0
 11
174.32300000000001
 21
197.49700000000001
 31
0.0
  0
LINE
  5
122
  8
0
  6
AIGENLINE002
 10
166.322
 20
231.99700000000001
 30
0.0
 11
174.32300000000001
 21
231.99700000000001
 31
0.0
  0
LINE
  5
123
  8
0
  6
AIGENLINE002
 10
174.32300000000001
 20
197.49700000000001
 30
0.0
 11
174.32300000000001
 21
231.99700000000001
 31
0.0
  0
LINE
  5
124
  8
0
  6
AIGENLINE002
 10
166.322
 20
197.49700000000001
 30
0.0
 11
166.322
 21
231.99700000000001
 31
0.0
  0
LINE
  5
125
  8
0
  6
AIGENLINE001
 10
139.12200000000001
 20
193.78999999999999
 30
0.0
 11
139.12200000000001
 21
234.81700000000001
 31
0.0
  0
LINE
  5
126
  8
0
 10
162.62200000000001
 20
199.49700000000001
 30
0.0
 11
162.62200000000001
 21
229.99700000000001
 31
0.0
  0
LINE
  5
127
  8
0
 10
118.622
 20
197.49700000000001
 30
0.0
 11
160.62200000000001
 21
197.49700000000001
 31
0.0
  0
ARC
  5
128
  8
0
 10
160.62204600000001
 20
199.49674999999999
 30
0.0
 40
2.0002349999999991
 50
270.00002000000001
 51
359.99999000000003
  0
LINE
  5
129
  8
0
 10
118.622
 20
231.99700000000001
 30
0.0
 11
160.62200000000001
 21
231.99700000000001
 31
0.0
  0
ARC
  5
12A
  8
0
 10
160.622219
 20
229.99689000000001
 30
0.0
 40
2.000062999999999
 50
0.004945
 51
90.004914999999997
  0
LINE
  5
12B
  8
0
 10
115.622
 20
200.49700000000001
 30
0.0
 11
115.622
 21
228.99700000000001
 31
0.0
  0
LINE
  5
12C
  8
0
 10
118.872
 20
151.87
 30
0.0
 11
118.872
 21
138.952
 31
0.0
  0
LINE
  5
12D
  8
0
 10
120.622
 20
145.08199999999999
 30
0.0
 11
120.622
 21
138.952
 31
0.0
  0
LINE
  5
12E
  8
0
 10
157.12299999999999
 20
145.08199999999999
 30
0.0
 11
157.12299999999999
 21
138.952
 31
0.0
  0
LINE
  5
12F
  8
0
 10
158.87299999999999
 20
151.87
 30
0.0
 11
158.87299999999999
 21
138.952
 31
0.0
  0
LINE
  5
130
  8
0
 10
116.66200000000001
 20
143.91999999999999
 30
0.0
 11
118.872
 21
144.512
 31
0.0
  0
LINE
  5
131
  8
0
 10
118.872
 20
144.512
 30
0.0
 11
116.66200000000001
 21
145.10400000000001
 31
0.0
  0
LINE
  5
132
  8
0
 10
116.66200000000001
 20
145.10400000000001
 30
0.0
 11
116.66200000000001
 21
143.91999999999999
 31
0.0
  0
LINE
  5
133
  8
0
 10
154.91200000000001
 20
143.91999999999999
 30
0.0
 11
157.12299999999999
 21
144.512
 31
0.0
  0
LINE
  5
134
  8
0
 10
157.12299999999999
 20
144.512
 30
0.0
 11
154.91200000000001
 21
145.10400000000001
 31
0.0
  0
LINE
  5
135
  8
0
 10
154.91200000000001
 20
145.10400000000001
 30
0.0
 11
154.91200000000001
 21
143.91999999999999
 31
0.0
  0
LINE
  5
136
  8
0
 10
122.833
 20
145.09
 30
0.0
 11
120.622
 21
144.49799999999999
 31
0.0
  0
LINE
  5
137
  8
0
 10
120.622
 20
144.49799999999999
 30
0.0
 11
122.833
 21
143.905
 31
0.0
  0
LINE
  5
138
  8
0
 10
122.833
 20
143.905
 30
0.0
 11
122.833
 21
145.09
 31
0.0
  0
LINE
  5
139
  8
0
 10
161.083
 20
145.09
 30
0.0
 11
158.87299999999999
 21
144.49799999999999
 31
0.0
  0
LINE
  5
13A
  8
0
 10
158.87299999999999
 20
144.49799999999999
 30
0.0
 11
161.083
 21
143.905
 31
0.0
  0
LINE
  5
13B
  8
0
 10
161.083
 20
143.905
 30
0.0
 11
161.083
 21
145.09
 31
0.0
  0
LINE
  5
13C
  8
0
 10
166.977
 20
144.505
 30
0.0
 11
109.831
 21
144.505
 31
0.0
  0
LINE
  5
13D
  8
0
 10
156.66200000000001
 20
150.62299999999999
 30
0.0
 11
158.87299999999999
 21
151.215
 31
0.0
  0
LINE
  5
13E
  8
0
 10
158.87299999999999
 20
151.215
 30
0.0
 11
156.66200000000001
 21
151.80699999999999
 31
0.0
  0
LINE
  5
13F
  8
0
 10
156.66200000000001
 20
151.80699999999999
 30
0.0
 11
156.66200000000001
 21
150.62299999999999
 31
0.0
  0
LINE
  5
140
  8
0
 10
121.083
 20
151.79300000000001
 30
0.0
 11
118.872
 21
151.19999999999999
 31
0.0
  0
LINE
  5
141
  8
0
 10
118.872
 20
151.19999999999999
 30
0.0
 11
121.083
 21
150.608
 31
0.0
  0
LINE
  5
142
  8
0
 10
121.083
 20
150.608
 30
0.0
 11
121.083
 21
151.79300000000001
 31
0.0
  0
LINE
  5
143
  8
0
 10
158.87299999999999
 20
151.208
 30
0.0
 11
118.872
 21
151.208
 31
0.0
  0
LINE
  5
144
  8
0
 10
142.87200000000001
 20
125.07299999999999
 30
0.0
 11
133.87200000000001
 21
125.07299999999999
 31
0.0
  0
LINE
  5
145
  8
0
 10
135.995
 20
127.283
 30
0.0
 11
136.58699999999999
 21
125.07299999999999
 31
0.0
  0
LINE
  5
146
  8
0
 10
136.58699999999999
 20
125.07299999999999
 30
0.0
 11
137.179
 21
127.283
 31
0.0
  0
LINE
  5
147
  8
0
 10
137.179
 20
127.283
 30
0.0
 11
135.995
 21
127.283
 31
0.0
  0
LINE
  5
148
  8
0
 10
137.16499999999999
 20
135.86199999999999
 30
0.0
 11
136.57300000000001
 21
138.072
 31
0.0
  0
LINE
  5
149
  8
0
 10
136.57300000000001
 20
138.072
 30
0.0
 11
135.98099999999999
 21
135.86199999999999
 31
0.0
  0
LINE
  5
14A
  8
0
 10
135.98099999999999
 20
135.86199999999999
 30
0.0
 11
137.16499999999999
 21
135.86199999999999
 31
0.0
  0
LINE
  5
14B
  8
0
 10
136.58000000000001
 20
125.07299999999999
 30
0.0
 11
136.58000000000001
 21
138.072
 31
0.0
  0
LINE
  5
14C
  8
0
 10
156.66200000000001
 20
110.73399999999999
 30
0.0
 11
158.87299999999999
 21
111.32599999999999
 31
0.0
  0
LINE
  5
14D
  8
0
 10
158.87299999999999
 20
111.32599999999999
 30
0.0
 11
156.66200000000001
 21
111.91800000000001
 31
0.0
  0
LINE
  5
14E
  8
0
 10
156.66200000000001
 20
111.91800000000001
 30
0.0
 11
156.66200000000001
 21
110.73399999999999
 31
0.0
  0
LINE
  5
14F
  8
0
 10
140.583
 20
111.904
 30
0.0
 11
138.37200000000001
 21
111.31100000000001
 31
0.0
  0
LINE
  5
150
  8
0
 10
138.37200000000001
 20
111.31100000000001
 30
0.0
 11
140.583
 21
110.71899999999999
 31
0.0
  0
LINE
  5
151
  8
0
 10
140.583
 20
110.71899999999999
 30
0.0
 11
140.583
 21
111.904
 31
0.0
  0
LINE
  5
152
  8
0
 10
158.87299999999999
 20
111.319
 30
0.0
 11
138.37200000000001
 21
111.319
 31
0.0
  0
LINE
  5
153
  8
0
 10
158.87299999999999
 20
110.964
 30
0.0
 11
158.87299999999999
 21
133.61600000000001
 31
0.0
  0
LINE
  5
154
  8
0
 10
138.37200000000001
 20
110.923
 30
0.0
 11
138.37200000000001
 21
117.73099999999999
 31
0.0
  0
LINE
  5
155
  8
0
 10
166.453
 20
135.86199999999999
 30
0.0
 11
165.86000000000001
 21
138.072
 31
0.0
  0
LINE
  5
156
  8
0
 10
165.86000000000001
 20
138.072
 30
0.0
 11
165.268
 21
135.86199999999999
 31
0.0
  0
LINE
  5
157
  8
0
 10
165.268
 20
135.86199999999999
 30
0.0
 11
166.453
 21
135.86199999999999
 31
0.0
  0
LINE
  5
158
  8
0
 10
165.2829999999999
 20
122.282
 30
0.0
 11
165.875
 21
120.072
 31
0.0
  0
LINE
  5
159
  8
0
 10
165.875
 20
120.072
 30
0.0
 11
166.46700000000001
 21
122.282
 31
0.0
  0
LINE
  5
15A
  8
0
 10
166.46700000000001
 20
122.282
 30
0.0
 11
165.2829999999999
 21
122.282
 31
0.0
  0
LINE
  5
15B
  8
0
 10
165.86799999999999
 20
138.072
 30
0.0
 11
165.86799999999999
 21
120.072
 31
0.0
  0
LINE
  5
15C
  8
0
 10
159.423
 20
138.072
 30
0.0
 11
166.298
 21
138.072
 31
0.0
  0
LINE
  5
15D
  8
0
 10
142.87299999999999
 20
120.072
 30
0.0
 11
166.14099999999999
 21
120.072
 31
0.0
  0
LINE
  5
15E
  8
0
  6
AIGENLINE001
 10
138.37200000000001
 20
118.154
 30
0.0
 11
138.37200000000001
 21
140.06200000000001
 31
0.0
  0
LINE
  5
15F
  8
0
 10
142.172
 20
120.572
 30
0.0
 11
142.172
 21
123.69
 31
0.0
  0
ARC
  5
160
  8
0
 10
142.79157699999999
 20
123.673812
 30
0.0
 40
0.6193890000000001
 50
99.709955000000022
 51
178.466309
  0
LINE
  5
161
  8
0
 10
158.029
 20
135.26599999999999
 30
0.0
 11
156.87
 21
135.26599999999999
 31
0.0
  0
LINE
  5
162
  8
0
 10
158.572
 20
134.572
 30
0.0
 11
156.60499999999999
 21
134.572
 31
0.0
  0
LINE
  5
163
  8
0
 10
158.215
 20
137.25
 30
0.0
 11
158.029
 21
135.26599999999999
 31
0.0
  0
LINE
  5
164
  8
0
 10
158.87299999999999
 20
138.072
 30
0.0
 11
158.572
 21
134.572
 31
0.0
  0
LINE
  5
165
  8
0
 10
118.872
 20
138.072
 30
0.0
 11
119.47199999999999
 21
130.072
 31
0.0
  0
LINE
  5
166
  8
0
 10
120.21599999999999
 20
130.84299999999999
 30
0.0
 11
119.735
 21
137.27199999999999
 31
0.0
  0
LINE
  5
167
  8
0
 10
158.215
 20
137.25
 30
0.0
 11
157.56700000000001
 21
137.25
 31
0.0
  0
LINE
  5
168
  8
0
 10
158.87299999999999
 20
138.072
 30
0.0
 11
139.12200000000001
 21
138.072
 31
0.0
  0
LINE
  5
169
  8
0
 10
139.12200000000001
 20
138.072
 30
0.0
 11
118.872
 21
138.072
 31
0.0
  0
LINE
  5
16A
  8
0
 10
135.572
 20
122.572
 30
0.0
 11
134.471
 21
124.018
 31
0.0
  0
LINE
  5
16B
  8
0
 10
134.81899999999999
 20
121.333
 30
0.0
 11
135.572
 21
121.072
 31
0.0
  0
LINE
  5
16C
  8
0
 10
136.072
 20
123.57299999999999
 30
0.0
 11
133.87200000000001
 21
125.07299999999999
 31
0.0
  0
LINE
  5
16D
  8
0
 10
142.87200000000001
 20
125.07299999999999
 30
0.0
 11
140.672
 21
123.57299999999999
 31
0.0
  0
LINE
  5
16E
  8
0
 10
141.172
 20
122.572
 30
0.0
 11
141.172
 21
121.072
 31
0.0
  0
LINE
  5
16F
  8
0
 10
140.672
 20
122.572
 30
0.0
 11
140.672
 21
123.57299999999999
 31
0.0
  0
LINE
  5
170
  8
0
 10
140.672
 20
120.072
 30
0.0
 11
140.672
 21
121.072
 31
0.0
  0
LINE
  5
171
  8
0
 10
136.072
 20
122.572
 30
0.0
 11
136.072
 21
123.57299999999999
 31
0.0
  0
LINE
  5
172
  8
0
 10
136.072
 20
120.072
 30
0.0
 11
136.072
 21
121.072
 31
0.0
  0
LINE
  5
173
  8
0
 10
136.072
 20
123.57299999999999
 30
0.0
 11
140.672
 21
123.57299999999999
 31
0.0
  0
LINE
  5
174
  8
0
 10
135.572
 20
122.572
 30
0.0
 11
141.172
 21
122.572
 31
0.0
  0
LINE
  5
175
  8
0
 10
135.572
 20
121.072
 30
0.0
 11
141.172
 21
121.072
 31
0.0
  0
LINE
  5
176
  8
0
 10
134.572
 20
120.072
 30
0.0
 11
134.572
 21
120.572
 31
0.0
  0
LINE
  5
177
  8
0
 10
134.572
 20
120.072
 30
0.0
 11
141.673
 21
120.072
 31
0.0
  0
LINE
  5
178
  8
0
 10
64.089500000000001
 20
120.072
 30
0.0
 11
29.913799999999998
 21
120.072
 31
0.0
  0
LINE
  5
179
  8
0
 10
41.745499999999993
 20
134.572
 30
0.0
 11
34.7759
 21
134.572
 31
0.0
  0
LINE
  5
17A
  8
0
 10
41.608899999999998
 20
138.072
 30
0.0
 11
29.924499999999998
 21
138.072
 31
0.0
  0
LINE
  5
17B
  8
0
 10
31.009
 20
135.86199999999999
 30
0.0
 11
30.416799999999999
 21
138.072
 31
0.0
  0
LINE
  5
17C
  8
0
 10
30.416799999999999
 20
138.072
 30
0.0
 11
29.824400000000001
 21
135.86199999999999
 31
0.0
  0
LINE
  5
17D
  8
0
 10
29.824400000000001
 20
135.86199999999999
 30
0.0
 11
31.009
 21
135.86199999999999
 31
0.0
  0
LINE
  5
17E
  8
0
 10
29.838999999999999
 20
122.282
 30
0.0
 11
30.4312
 21
120.072
 31
0.0
  0
LINE
  5
17F
  8
0
 10
30.4312
 20
120.072
 30
0.0
 11
31.023599999999998
 21
122.282
 31
0.0
  0
LINE
  5
180
  8
0
 10
31.023599999999998
 20
122.282
 30
0.0
 11
29.838999999999999
 21
122.282
 31
0.0
  0
LINE
  5
181
  8
0
 10
30.423999999999999
 20
138.072
 30
0.0
 11
30.423999999999999
 21
120.072
 31
0.0
  0
LINE
  5
182
  8
0
 10
34.8551
 20
140.2829999999999
 30
0.0
 11
35.447299999999998
 21
138.072
 31
0.0
  0
LINE
  5
183
  8
0
 10
35.447299999999998
 20
138.072
 30
0.0
 11
36.039700000000003
 21
140.2829999999999
 31
0.0
  0
LINE
  5
184
  8
0
 10
36.039700000000003
 20
140.2829999999999
 30
0.0
 11
34.8551
 21
140.2829999999999
 31
0.0
  0
LINE
  5
185
  8
0
 10
36.025100000000002
 20
132.36199999999999
 30
0.0
 11
35.432899999999997
 21
134.572
 31
0.0
  0
LINE
  5
186
  8
0
 10
35.432899999999997
 20
134.572
 30
0.0
 11
34.840499999999999
 21
132.36199999999999
 31
0.0
  0
LINE
  5
187
  8
0
 10
34.840499999999999
 20
132.36199999999999
 30
0.0
 11
36.025100000000002
 21
132.36199999999999
 31
0.0
  0
LINE
  5
188
  8
0
 10
35.440100000000001
 20
131.02500000000001
 30
0.0
 11
35.440100000000001
 21
144.965
 31
0.0
  0
LINE
  5
189
  8
0
 10
28.532499999999999
 20
232.536
 30
0.0
 11
27.940200000000001
 21
234.74700000000001
 31
0.0
  0
LINE
  5
18A
  8
0
 10
27.940200000000001
 20
234.74700000000001
 30
0.0
 11
27.347899999999999
 21
232.536
 31
0.0
  0
LINE
  5
18B
  8
0
 10
27.347899999999999
 20
232.536
 30
0.0
 11
28.532499999999999
 21
232.536
 31
0.0
  0
LINE
  5
18C
  8
0
 10
27.362500000000001
 20
196.95699999999999
 30
0.0
 11
27.954699999999999
 21
194.74700000000001
 31
0.0
  0
LINE
  5
18D
  8
0
 10
27.954699999999999
 20
194.74700000000001
 30
0.0
 11
28.5471
 21
196.95699999999999
 31
0.0
  0
LINE
  5
18E
  8
0
 10
28.5471
 20
196.95699999999999
 30
0.0
 11
27.362500000000001
 21
196.95699999999999
 31
0.0
  0
LINE
  5
18F
  8
0
 10
27.947500000000002
 20
234.74700000000001
 30
0.0
 11
27.947500000000002
 21
194.74700000000001
 31
0.0
  0
LINE
  5
190
  8
0
 10
43.4557
 20
234.74700000000001
 30
0.0
 11
27.663900000000002
 21
234.74700000000001
 31
0.0
  0
LINE
  5
191
  8
0
 10
45.066099999999999
 20
232.99700000000001
 30
0.0
 11
34.401600000000002
 21
232.99700000000001
 31
0.0
  0
LINE
  5
192
  8
0
 10
44.493899999999996
 20
196.49700000000001
 30
0.0
 11
34.599000000000011
 21
196.49700000000001
 31
0.0
  0
LINE
  5
193
  8
0
 10
41.262900000000002
 20
194.74700000000001
 30
0.0
 11
27.663900000000002
 21
194.74700000000001
 31
0.0
  0
LINE
  5
194
  8
0
 10
43.967100000000002
 20
197.19800000000001
 30
0.0
 11
43.967100000000002
 21
180.28999999999999
 31
0.0
  0
LINE
  5
195
  8
0
 10
92.756699999999995
 20
173.66800000000001
 30
0.0
 11
94.967100000000002
 21
174.261
 31
0.0
  0
LINE
  5
196
  8
0
 10
94.967100000000002
 20
174.261
 30
0.0
 11
92.756699999999995
 21
174.85300000000001
 31
0.0
  0
LINE
  5
197
  8
0
 10
92.756699999999995
 20
174.85300000000001
 30
0.0
 11
92.756699999999995
 21
173.66800000000001
 31
0.0
  0
LINE
  5
198
  8
0
 10
44.177399999999999
 20
174.83799999999999
 30
0.0
 11
41.966999999999992
 21
174.24600000000001
 31
0.0
  0
LINE
  5
199
  8
0
 10
41.966999999999992
 20
174.24600000000001
 30
0.0
 11
44.177399999999999
 21
173.654
 31
0.0
  0
LINE
  5
19A
  8
0
 10
44.177399999999999
 20
173.654
 30
0.0
 11
44.177399999999999
 21
174.83799999999999
 31
0.0
  0
LINE
  5
19B
  8
0
 10
94.967100000000002
 20
174.25299999999999
 30
0.0
 11
41.966999999999992
 21
174.25299999999999
 31
0.0
  0
LINE
  5
19C
  8
0
 10
97.177499999999995
 20
181.5559999999999
 30
0.0
 11
94.967100000000002
 21
180.964
 31
0.0
  0
LINE
  5
19D
  8
0
 10
94.967100000000002
 20
180.964
 30
0.0
 11
97.177499999999995
 21
180.37200000000001
 31
0.0
  0
LINE
  5
19E
  8
0
 10
97.177499999999995
 20
180.37200000000001
 30
0.0
 11
97.177499999999995
 21
181.5559999999999
 31
0.0
  0
LINE
  5
19F
  8
0
 10
46.177500000000002
 20
181.5559999999999
 30
0.0
 11
43.967100000000002
 21
180.964
 31
0.0
  0
LINE
  5
1A0
  8
0
 10
43.967100000000002
 20
180.964
 30
0.0
 11
46.177500000000002
 21
180.37200000000001
 31
0.0
  0
LINE
  5
1A1
  8
0
 10
46.177500000000002
 20
180.37200000000001
 30
0.0
 11
46.177500000000002
 21
181.5559999999999
 31
0.0
  0
LINE
  5
1A2
  8
0
 10
39.75630000000001
 20
180.387
 30
0.0
 11
41.966999999999992
 21
180.97900000000001
 31
0.0
  0
LINE
  5
1A3
  8
0
 10
41.966999999999992
 20
180.97900000000001
 30
0.0
 11
39.75630000000001
 21
181.571
 31
0.0
  0
LINE
  5
1A4
  8
0
 10
39.75630000000001
 20
181.571
 30
0.0
 11
39.75630000000001
 21
180.387
 31
0.0
  0
LINE
  5
1A5
  8
0
 10
90.756299999999996
 20
180.387
 30
0.0
 11
92.967000000000013
 21
180.97900000000001
 31
0.0
  0
LINE
  5
1A6
  8
0
 10
92.967000000000013
 20
180.97900000000001
 30
0.0
 11
90.756299999999996
 21
181.571
 31
0.0
  0
LINE
  5
1A7
  8
0
 10
90.756299999999996
 20
181.571
 30
0.0
 11
90.756299999999996
 21
180.387
 31
0.0
  0
LINE
  5
1A8
  8
0
 10
35.139299999999999
 20
180.97099999999989
 30
0.0
 11
101.84399999999999
 21
180.97099999999989
 31
0.0
  0
LINE
  5
1A9
  8
0
 10
92.967000000000013
 20
197.352
 30
0.0
 11
92.967000000000013
 21
180.41499999999999
 31
0.0
  0
LINE
  5
1AA
  8
0
 10
94.967100000000002
 20
195.625
 30
0.0
 11
94.967100000000002
 21
173.65000000000001
 31
0.0
  0
LINE
  5
1AB
  8
0
 10
41.966999999999992
 20
193.785
 30
0.0
 11
41.966999999999992
 21
173.65000000000001
 31
0.0
  0
LINE
  5
1AC
  8
0
 10
68.467100000000002
 20
120.072
 30
0.0
 11
71.966899999999995
 21
120.072
 31
0.0
  0
LINE
  5
1AD
  8
0
 10
72.266999999999996
 20
123.973
 30
0.0
 11
72.266999999999996
 21
120.372
 31
0.0
  0
ARC
  5
1AE
  8
0
 10
71.955643999999992
 20
120.383346
 30
0.0
 40
0.3115679999999999
 50
272.07954599999999
 51
357.98620799999998
  0
LINE
  5
1AF
  8
0
 10
68.467100000000002
 20
120.572
 30
0.0
 11
71.167199999999994
 21
120.572
 31
0.0
  0
LINE
  5
1B0
  8
0
 10
71.467100000000002
 20
120.872
 30
0.0
 11
71.467100000000002
 21
134.07299999999989
 31
0.0
  0
ARC
  5
1B1
  8
0
 10
71.155904000000007
 20
120.88338
 30
0.0
 40
0.311369
 50
272.07275299999998
 51
357.89433700000001
  0
ARC
  5
1B2
  8
0
 10
72.890451999999996
 20
123.94853500000001
 30
0.0
 40
0.623895
 50
92.139650999999986
 51
177.7945
  0
LINE
  5
1B3
  8
0
 10
94.417400000000015
 20
134.572
 30
0.0
 11
71.967100000000002
 21
134.572
 31
0.0
  0
LINE
  5
1B4
  8
0
 10
94.417400000000015
 20
134.572
 30
0.0
 11
94.717099999999988
 21
138.072
 31
0.0
  0
LINE
  5
1B5
  8
0
 10
94.717099999999988
 20
138.072
 30
0.0
 11
68.467100000000002
 21
138.072
 31
0.0
  0
LINE
  5
1B6
  8
0
 10
68.467100000000002
 20
120.072
 30
0.0
 11
64.966999999999999
 21
120.072
 31
0.0
  0
LINE
  5
1B7
  8
0
 10
64.667100000000005
 20
123.973
 30
0.0
 11
64.667100000000005
 21
120.372
 31
0.0
  0
ARC
  5
1B8
  8
0
 10
64.979167000000004
 20
120.384039
 30
0.0
 40
0.312294
 50
182.136472
 51
267.76491399999998
  0
LINE
  5
1B9
  8
0
 10
68.467100000000002
 20
120.572
 30
0.0
 11
65.767099999999999
 21
120.572
 31
0.0
  0
LINE
  5
1BA
  8
0
 10
65.466999999999999
 20
120.872
 30
0.0
 11
65.466999999999999
 21
134.07299999999989
 31
0.0
  0
ARC
  5
1BB
  8
0
 10
65.778452000000001
 20
120.88363200000001
 30
0.0
 40
0.3116239999999999
 50
182.15042199999999
 51
267.91542700000002
  0
ARC
  5
1BC
  8
0
 10
64.044689000000005
 20
123.949574
 30
0.0
 40
0.622825
 50
2.1136330000000001
 51
87.935728999999995
  0
LINE
  5
1BD
  8
0
  6
AIGENLINE001
 10
68.467100000000002
 20
116.854
 30
0.0
 11
68.467100000000002
 21
141.22399999999999
 31
0.0
  0
LINE
  5
1BE
  8
0
 10
42.517099999999999
 20
134.572
 30
0.0
 11
64.966999999999999
 21
134.572
 31
0.0
  0
LINE
  5
1BF
  8
0
 10
42.517099999999999
 20
134.572
 30
0.0
 11
42.216999999999999
 21
138.072
 31
0.0
  0
LINE
  5
1C0
  8
0
 10
42.216999999999999
 20
138.072
 30
0.0
 11
68.467100000000002
 21
138.072
 31
0.0
  0
LINE
  5
1C1
  8
0
 10
51.875
 20
206.095
 30
0.0
 11
60.315600000000003
 21
206.095
 31
0.0
  0
LINE
  5
1C2
  8
0
 10
65.691699999999983
 20
210.64400000000001
 30
0.0
 11
66.835999999999999
 21
212.626
 31
0.0
  0
LINE
  5
1C3
  8
0
 10
66.835999999999999
 20
212.626
 30
0.0
 11
64.853999999999999
 21
211.482
 31
0.0
  0
LINE
  5
1C4
  8
0
 10
64.853999999999999
 20
211.482
 30
0.0
 11
65.691699999999983
 21
210.64400000000001
 31
0.0
  0
LINE
  5
1C5
  8
0
 10
71.152699999999996
 20
217.77000000000001
 30
0.0
 11
70.008399999999995
 21
215.78800000000001
 31
0.0
  0
LINE
  5
1C6
  8
0
 10
70.008399999999995
 20
215.78800000000001
 30
0.0
 11
71.990399999999994
 21
216.93199999999999
 31
0.0
  0
LINE
  5
1C7
  8
0
 10
71.990399999999994
 20
216.93199999999999
 30
0.0
 11
71.152699999999996
 21
217.77000000000001
 31
0.0
  0
LINE
  5
1C8
  8
0
 10
75.641900000000007
 20
221.42099999999999
 30
0.0
 11
60.315600000000003
 21
206.095
 31
0.0
  0
ARC
  5
1C9
  8
0
 10
68.467140000000001
 20
214.246588
 30
0.0
 40
2.3000470000000002
 50
0.002155
 51
90.002126000000004
  0
ARC
  5
1CA
  8
0
 10
68.467055000000002
 20
214.24667500000001
 30
0.0
 40
2.2999610000000001
 50
90.0
 51
179.99996999999999
  0
ARC
  5
1CB
  8
0
 10
68.467054000000005
 20
214.24667500000001
 30
0.0
 40
2.29996
 50
179.99996999999999
 51
270.00002000000001
  0
ARC
  5
1CC
  8
0
 10
68.467140000000001
 20
214.24676199999999
 30
0.0
 40
2.3000470000000002
 50
269.99787400000002
 51
359.99784499999998
  0
ARC
  5
1CD
  8
0
 10
68.467054000000005
 20
214.24667400000001
 30
0.0
 40
4.500013
 50
0.00001
 51
89.999980000000008
  0
ARC
  5
1CE
  8
0
 10
68.467055999999985
 20
214.24667400000001
 30
0.0
 40
4.500013
 50
90.0
 51
179.99996999999999
  0
ARC
  5
1CF
  8
0
 10
68.467054000000005
 20
214.24667400000001
 30
0.0
 40
4.5000109999999989
 50
179.99996999999999
 51
270.00002000000001
  0
ARC
  5
1D0
  8
0
 10
68.467054000000005
 20
214.24667600000001
 30
0.0
 40
4.500013
 50
270.00002000000001
 51
359.99999000000003
  0
LINE
  5
1D1
  8
0
  6
AIGENLINE001
 10
68.467100000000002
 20
237.851
 30
0.0
 11
68.467100000000002
 21
192.26300000000001
 31
0.0
  0
LINE
  5
1D2
  8
0
  6
AIGENLINE001
 10
62.6967
 20
214.24700000000001
 30
0.0
 11
75.026700000000005
 21
214.24700000000001
 31
0.0
  0
LINE
  5
1D3
  8
0
  6
AIGENLINE001
 10
65.976799999999997
 20
198.24700000000001
 30
0.0
 11
71.485100000000003
 21
198.24700000000001
 31
0.0
  0
LINE
  5
1D4
  8
0
 10
46.967100000000002
 20
196.49700000000001
 30
0.0
 11
89.967000000000013
 21
196.49700000000001
 31
0.0
  0
LINE
  5
1D5
  8
0
 10
43.967100000000002
 20
199.49700000000001
 30
0.0
 11
43.967100000000002
 21
229.99700000000001
 31
0.0
  0
ARC
  5
1D6
  8
0
 10
46.967110999999989
 20
199.49674899999999
 30
0.0
 40
3.0000079999999998
 50
179.99996999999999
 51
270.00002000000001
  0
LINE
  5
1D7
  8
0
 10
46.967100000000002
 20
232.99700000000001
 30
0.0
 11
89.967000000000013
 21
232.99700000000001
 31
0.0
  0
ARC
  5
1D8
  8
0
 10
46.967112
 20
229.99671699999999
 30
0.0
 40
3.000008999999999
 50
90.0
 51
179.99996999999999
  0
LINE
  5
1D9
  8
0
 10
92.967000000000013
 20
199.49700000000001
 30
0.0
 11
92.967000000000013
 21
229.99700000000001
 31
0.0
  0
ARC
  5
1DA
  8
0
 10
89.966998000000004
 20
229.99671699999999
 30
0.0
 40
3.000008999999999
 50
0.00001
 51
89.999980000000008
  0
ARC
  5
1DB
  8
0
 10
89.966998000000004
 20
199.49674999999999
 30
0.0
 40
3.000008999999999
 50
270.00002000000001
 51
359.99999000000003
  0
LINE
  5
1DC
  8
0
 10
94.967100000000002
 20
230.24700000000001
 30
0.0
 11
94.967100000000002
 21
199.24700000000001
 31
0.0
  0
LINE
  5
1DD
  8
0
 10
42.466900000000003
 20
194.74700000000001
 30
0.0
 11
90.467100000000002
 21
194.74700000000001
 31
0.0
  0
ARC
  5
1DE
  8
0
 10
90.467056000000014
 20
199.246635
 30
0.0
 40
4.500013
 50
270.00002000000001
 51
359.99999000000003
  0
LINE
  5
1DF
  8
0
 10
46.467100000000002
 20
234.74700000000001
 30
0.0
 11
90.467100000000002
 21
234.74700000000001
 31
0.0
  0
ARC
  5
1E0
  8
0
 10
90.467056000000014
 20
230.24683200000001
 30
0.0
 40
4.500013
 50
0.00001
 51
89.999980000000008
  0
LINE
  5
1E1
  8
0
 10
41.966999999999992
 20
230.24700000000001
 30
0.0
 11
41.966999999999992
 21
195.24700000000001
 31
0.0
  0
ARC
  5
1E2
  8
0
 10
46.467052999999993
 20
230.24683200000001
 30
0.0
 40
4.500013
 50
90.0
 51
179.99996999999999
  0
ARC
  5
1E3
  8
0
 10
42.486590999999997
 20
195.26615899999999
 30
0.0
 40
0.5199090000000001
 50
182.128095
 51
267.83246100000002
  0
LINE
  5
1E4
  8
0
 10
34.605200000000011
 20
236.95699999999999
 30
0.0
 11
35.197400000000002
 21
234.74700000000001
 31
0.0
  0
LINE
  5
1E5
  8
0
 10
35.197400000000002
 20
234.74700000000001
 30
0.0
 11
35.7898
 21
236.95699999999999
 31
0.0
  0
LINE
  5
1E6
  8
0
 10
35.7898
 20
236.95699999999999
 30
0.0
 11
34.605200000000011
 21
236.95699999999999
 31
0.0
  0
LINE
  5
1E7
  8
0
 10
34.605200000000011
 20
198.70699999999999
 30
0.0
 11
35.197400000000002
 21
196.49700000000001
 31
0.0
  0
LINE
  5
1E8
  8
0
 10
35.197400000000002
 20
196.49700000000001
 30
0.0
 11
35.7898
 21
198.70699999999999
 31
0.0
  0
LINE
  5
1E9
  8
0
 10
35.7898
 20
198.70699999999999
 30
0.0
 11
34.605200000000011
 21
198.70699999999999
 31
0.0
  0
LINE
  5
1EA
  8
0
 10
35.775100000000002
 20
192.53599999999989
 30
0.0
 11
35.182899999999997
 21
194.74700000000001
 31
0.0
  0
LINE
  5
1EB
  8
0
 10
35.182899999999997
 20
194.74700000000001
 30
0.0
 11
34.590499999999999
 21
192.53599999999989
 31
0.0
  0
LINE
  5
1EC
  8
0
 10
34.590499999999999
 20
192.53599999999989
 30
0.0
 11
35.775100000000002
 21
192.53599999999989
 31
0.0
  0
LINE
  5
1ED
  8
0
 10
35.775100000000002
 20
230.786
 30
0.0
 11
35.182899999999997
 21
232.99700000000001
 31
0.0
  0
LINE
  5
1EE
  8
0
 10
35.182899999999997
 20
232.99700000000001
 30
0.0
 11
34.590499999999999
 21
230.786
 31
0.0
  0
LINE
  5
1EF
  8
0
 10
34.590499999999999
 20
230.786
 30
0.0
 11
35.775100000000002
 21
230.786
 31
0.0
  0
LINE
  5
1F0
  8
0
 10
35.190199999999997
 20
186.38900000000001
 30
0.0
 11
35.190199999999997
 21
242.91999999999999
 31
0.0
  0
LINE
  5
1F1
  8
_________2
 10
205.30099999999999
 20
127.411
 30
0.0
 11
183.55000000000001
 21
127.411
 31
0.0
  0
LINE
  5
1F2
  8
_________2
 10
100.3
 20
-4.0910799999999998
 30
0.0
 11
100.3
 21
-21.071400000000001
 31
0.0
  0
LINE
  5
1F3
  8
_________2
 10
100.3
 20
275.93099999999998
 30
0.0
 11
100.3
 21
258.911
 31
0.0
  0
LINE
  5
1F4
  8
_________2
 10
17.049499999999998
 20
127.411
 30
0.0
 11
-4.70052
 21
127.411
 31
0.0
  0
LINE
  5
1F5
  8
_________2
 10
76.741
 20
29.8047
 30
0.0
 11
74.554699999999997
 21
29.8047
 31
0.0
  0
LINE
  5
1F6
  8
_________2
 10
77.233699999999999
 20
29.8047
 30
0.0
 11
76.981499999999997
 21
29.8047
 31
0.0
  0
LINE
  5
1F7
  8
_________2
 10
77.726299999999995
 20
29.8047
 30
0.0
 11
80.651200000000003
 21
29.8047
 31
0.0
  0
LINE
  5
1F8
  8
_________2
 10
77.233699999999999
 20
29.8047
 30
0.0
 11
77.485500000000002
 21
29.8047
 31
0.0
  0
LINE
  5
1F9
  8
_________2
 10
70.837100000000007
 20
29.8047
 30
0.0
 11
68.650499999999994
 21
29.8047
 31
0.0
  0
LINE
  5
1FA
  8
_________2
 10
71.329400000000007
 20
29.8047
 30
0.0
 11
71.077600000000004
 21
29.8047
 31
0.0
  0
LINE
  5
1FB
  8
_________2
 10
71.329400000000007
 20
30.2974
 30
0.0
 11
71.329400000000007
 21
32.484400000000001
 31
0.0
  0
LINE
  5
1FC
  8
_________2
 10
71.329400000000007
 20
29.8047
 30
0.0
 11
71.329400000000007
 21
30.056899999999999
 31
0.0
  0
LINE
  5
1FD
  8
_________2
 10
71.822100000000006
 20
29.8047
 30
0.0
 11
74.009
 21
29.8047
 31
0.0
  0
LINE
  5
1FE
  8
_________2
 10
71.329400000000007
 20
29.8047
 30
0.0
 11
71.581599999999995
 21
29.8047
 31
0.0
  0
LINE
  5
1FF
  8
_________2
 10
71.329400000000007
 20
29.312799999999999
 30
0.0
 11
71.329400000000007
 21
27.125800000000002
 31
0.0
  0
LINE
  5
200
  8
_________2
 10
71.329400000000007
 20
29.8047
 30
0.0
 11
71.329400000000007
 21
29.5532
 31
0.0
  0
LINE
  5
201
  8
_________2
 10
75.040499999999994
 20
28.5852
 30
0.0
 11
80.218500000000006
 21
27.720400000000001
 31
0.0
  0
LINE
  5
202
  8
_________2
 10
75.040499999999994
 20
31.0243
 30
0.0
 11
80.218500000000006
 21
31.889700000000001
 31
0.0
  0
LINE
  5
203
  8
_________2
 10
80.218500000000006
 20
27.720400000000001
 30
0.0
 11
80.218500000000006
 21
31.889700000000001
 31
0.0
  0
LINE
  5
204
  8
_________2
 10
75.040499999999994
 20
28.5852
 30
0.0
 11
75.040499999999994
 21
31.0243
 31
0.0
  0
ARC
  5
205
  8
_________2
 10
71.28285600000001
 20
29.757811
 30
0.0
 40
1.2673589999999999
 50
2.122214
 51
87.893958999999995
  0
ARC
  5
206
  8
_________2
 10
71.375959999999992
 20
29.758213000000001
 30
0.0
 40
1.2669559999999991
 50
92.104701000000006
 51
177.89526900000001
  0
ARC
  5
207
  8
_________2
 10
71.376357999999996
 20
29.851671
 30
0.0
 40
1.2673680000000001
 50
182.12203600000001
 51
267.877993
  0
ARC
  5
208
  8
_________2
 10
71.282531999999989
 20
29.851998999999999
 30
0.0
 40
1.267695999999999
 50
272.12015300000002
 51
357.863674
  0
ARC
  5
209
  8
_________2
 10
71.329430000000002
 20
29.804742999999998
 30
0.0
 40
2.0849849999999992
 50
0.00001
 51
89.999980000000008
  0
ARC
  5
20A
  8
_________2
 10
71.329603000000006
 20
29.804915000000001
 30
0.0
 40
2.084813
 50
90.004733999999999
 51
180.00474399999999
  0
ARC
  5
20B
  8
_________2
 10
71.409106000000008
 20
29.884775999999999
 30
0.0
 40
2.1657950000000001
 50
182.11776599999999
 51
267.89173399999999
  0
ARC
  5
20C
  8
_________2
 10
71.249459000000002
 20
29.885429999999999
 30
0.0
 40
2.1664590000000001
 50
272.11546800000002
 51
357.86560400000002
  0
TEXT
  5
20D
  8
_________2
 10
104.605
 20
1.6794899999999999
 30
0.0
 40
3.0923400000000001
  1
図番
 41
0.5
  0
LINE
  5
20E
  8
_________2
 10
103.55
 20
5.9087199999999989
 30
0.0
 11
183.55099999999999
 21
5.9087199999999989
 31
0.0
  0
TEXT
  5
20F
  8
_________2
 10
104.605
 20
11.6793
 30
0.0
 40
3.0923400000000001
  1
品番
 41
0.5
  0
TEXT
  5
210
  8
_________2
 10
104.605
 20
31.818100000000001
 30
0.0
 40
3.0923400000000001
  1
名称
 41
0.5
  0
TEXT
  5
211
  8
_________2
 10
91.845058333333341
 20
26.821999999999999
 30
0.0
 40
3.6545800000000002
  1
mm
 41
0.5
 72
     1
 11
93.367800000000003
 21
26.821999999999999
 31
0.0
  0
TEXT
  5
212
  8
_________2
 10
85.643199999999993
 20
31.818100000000001
 30
0.0
 40
3.0923400000000001
  1
単位
 41
0.5
  0
TEXT
  5
213
  8
_________2
 10
85.643199999999993
 20
19.410799999999998
 30
0.0
 40
3.0923400000000001
  1
尺度
 41
0.5
  0
TEXT
  5
214
  8
_________2
 10
90.09193616666667
 20
13.2179
 30
0.0
 40
3.6545800000000002
  1
1 ： 10
 41
0.5
 72
     1
 11
93.959699999999998
 21
13.2179
 31
0.0
  0
TEXT
  5
215
  8
_________2
 10
132.39885000000001
 20
9.1078600000000005
 30
0.0
 40
3.9357000000000002
  1
DV030549R-00
 41
0.5
 72
     1
 11
143.55000000000001
 21
9.1078600000000005
 31
0.0
  0
TEXT
  5
216
  8
_________2
 10
135.02265
 20
-0.8926299999999999
 30
0.0
 40
3.9357000000000002
  1
DV030549R
 41
0.5
 72
     1
 11
143.55000000000001
 21
-0.8926299999999999
 31
0.0
  0
TEXT
  5
217
  8
_________2
 10
24.5868
 20
0.707283
 30
0.0
 40
3.9357000000000002
  1
530サイズ・実容量5L・オーバーフロー付・重量：8kg
 41
0.5
  0
TEXT
  5
218
  8
_________2
 10
109.179
 20
24.2257
 30
0.0
 40
3.9357000000000002
  1
スタルク3　アンダーカウンター式洗面器
 41
0.5
  0
TEXT
  5
219
  8
_________2
 10
39.364390666666672
 20
13.603
 30
0.0
 40
3.6545800000000002
  1
井伊
 41
0.5
 72
     1
 11
41.313499999999998
 21
13.603
 31
0.0
  0
TEXT
  5
21A
  8
_________2
 10
20.851000333333339
 20
13.603
 30
0.0
 40
3.6545800000000002
  1
土山
 41
0.5
 72
     1
 11
22.7392
 21
13.603
 31
0.0
  0
TEXT
  5
21B
  8
_________2
 10
67.785399999999996
 20
13.2179
 30
0.0
 40
3.6545800000000002
  1
18.12.19
 41
0.5
  0
TEXT
  5
21C
  8
_________2
 10
66.593100000000007
 20
19.410799999999998
 30
0.0
 40
3.0923400000000001
  1
日付
 41
0.5
  0
TEXT
  5
21D
  8
_________2
 10
29.639399999999998
 20
19.410799999999998
 30
0.0
 40
3.0923400000000001
  1
検図
 41
0.5
  0
TEXT
  5
21E
  8
_________2
 10
18.021100000000001
 20
5.21143
 30
0.0
 40
3.0923400000000001
  1
備考
 41
0.5
  0
TEXT
  5
21F
  8
_________2
 10
18.021100000000001
 20
19.410799999999998
 30
0.0
 40
3.0923400000000001
  1
製図
 41
0.5
  0
TEXT
  5
220
  8
_________2
 10
23.788465333333338
 20
27.936800000000002
 30
0.0
 40
4.4979399999999989
  1
セラトレーディング株式会社
 41
0.5
 72
     1
 11
41.180500000000002
 21
27.936800000000002
 31
0.0
  0
LINE
  5
221
  8
_________2
 10
183.55099999999999
 20
-4.0910799999999998
 30
0.0
 11
17.049499999999998
 21
-4.0910799999999998
 31
0.0
  0
LINE
  5
222
  8
_________2
 10
17.049499999999998
 20
-4.0910799999999998
 30
0.0
 11
17.049499999999998
 21
258.911
 31
0.0
  0
LINE
  5
223
  8
_________2
 10
17.049499999999998
 20
258.911
 30
0.0
 11
183.55099999999999
 21
258.911
 31
0.0
  0
LINE
  5
224
  8
_________2
 10
183.55099999999999
 20
258.911
 30
0.0
 11
183.55099999999999
 21
-4.0910799999999998
 31
0.0
  0
LINE
  5
225
  8
_________2
 10
65.549599999999998
 20
9.4089600000000004
 30
0.0
 11
65.549599999999998
 21
35.908799999999999
 31
0.0
  0
LINE
  5
226
  8
_________2
 10
84.549700000000016
 20
9.4089600000000004
 30
0.0
 11
84.549700000000016
 21
35.908799999999999
 31
0.0
  0
LINE
  5
227
  8
_________2
 10
103.55
 20
-4.0910799999999998
 30
0.0
 11
103.55
 21
35.908799999999999
 31
0.0
  0
LINE
  5
228
  8
_________2
 10
28.549299999999999
 20
9.4089600000000004
 30
0.0
 11
28.549299999999999
 21
23.409199999999998
 31
0.0
  0
LINE
  5
229
  8
_________2
 10
17.049499999999998
 20
9.4089600000000004
 30
0.0
 11
103.55
 21
9.4089600000000004
 31
0.0
  0
LINE
  5
22A
  8
_________2
 10
17.049499999999998
 20
23.409199999999998
 30
0.0
 11
103.55
 21
23.409199999999998
 31
0.0
  0
LINE
  5
22B
  8
_________2
 10
103.55
 20
15.9085
 30
0.0
 11
183.55099999999999
 21
15.9085
 31
0.0
  0
LINE
  5
22C
  8
_________2
 10
17.049499999999998
 20
35.908799999999999
 30
0.0
 11
183.55099999999999
 21
35.908799999999999
 31
0.0
  0
ENDSEC
  0
EOF
