  0
SECTION
  2
HEADER
  9
$ACADVER
  1
AC1009
  9
$INSBASE
 10
0.0
 20
0.0
 30
0.0
  9
$EXTMIN
 10
0.238402
 20
0.4485540000000001
 30
0.0
  9
$EXTMAX
 10
210.24000000000001
 20
297.45100000000002
 30
0.0
  9
$LIMMIN
 10
0.0
 20
0.0
  9
$LIMMAX
 10
12.0
 20
9.0
  9
$ORTHOMODE
 70
     0
  9
$REGENMODE
 70
     1
  9
$FILLMODE
 70
     1
  9
$QTEXTMODE
 70
     0
  9
$MIRRTEXT
 70
     1
  9
$DRAGMODE
 70
     2
  9
$LTSCALE
 40
1.0
  9
$OSMODE
 70
    37
  9
$ATTMODE
 70
     1
  9
$TEXTSIZE
 40
0.0
  9
$TRACEWID
 40
0.05
  9
$TEXTSTYLE
  7
STANDARD
  9
$CLAYER
  8
0
  9
$CELTYPE
  6
CONTINUOUS
  9
$CECOLOR
 62
   256
  9
$DIMSCALE
 40
1.0
  9
$DIMASZ
 40
0.18
  9
$DIMEXO
 40
0.0625
  9
$DIMDLI
 40
0.38
  9
$DIMRND
 40
0.0
  9
$DIMDLE
 40
0.0
  9
$DIMEXE
 40
0.18
  9
$DIMTP
 40
0.0
  9
$DIMTM
 40
0.0
  9
$DIMTXT
 40
0.18
  9
$DIMCEN
 40
0.09
  9
$DIMTSZ
 40
0.0
  9
$DIMTOL
 70
     0
  9
$DIMLIM
 70
     0
  9
$DIMTIH
 70
     1
  9
$DIMTOH
 70
     1
  9
$DIMSE1
 70
     0
  9
$DIMSE2
 70
     0
  9
$DIMTAD
 70
     0
  9
$DIMZIN
 70
     0
  9
$DIMBLK
  1

  9
$DIMASO
 70
     1
  9
$DIMSHO
 70
     1
  9
$DIMPOST
  1

  9
$DIMAPOST
  1

  9
$DIMALT
 70
     0
  9
$DIMALTD
 70
     2
  9
$DIMALTF
 40
25.399999999999999
  9
$DIMLFAC
 40
1.0
  9
$DIMTOFL
 70
     0
  9
$DIMTVP
 40
0.0
  9
$DIMTIX
 70
     0
  9
$DIMSOXD
 70
     0
  9
$DIMSAH
 70
     0
  9
$DIMBLK1
  1

  9
$DIMBLK2
  1

  9
$DIMSTYLE
  2
STANDARD
  9
$DIMCLRD
 70
     0
  9
$DIMCLRE
 70
     0
  9
$DIMCLRT
 70
     0
  9
$DIMTFAC
 40
1.0
  9
$DIMGAP
 40
0.09
  9
$LUNITS
 70
     2
  9
$LUPREC
 70
     4
  9
$SKETCHINC
 40
0.1
  9
$FILLETRAD
 40
0.0
  9
$AUNITS
 70
     0
  9
$AUPREC
 70
     0
  9
$MENU
  1
.
  9
$ELEVATION
 40
0.0
  9
$PELEVATION
 40
0.0
  9
$THICKNESS
 40
0.0
  9
$LIMCHECK
 70
     0
  9
$BLIPMODE
 70
     0
  9
$CHAMFERA
 40
0.0
  9
$CHAMFERB
 40
0.0
  9
$SKPOLY
 70
     0
  9
$TDCREATE
 40
2444972.375
  9
$TDUPDATE
 40
2458223.2512517478
  9
$TDINDWG
 40
0.0000401389
  9
$TDUSRTIMER
 40
0.0000401389
  9
$USRTIMER
 70
     1
  9
$ANGBASE
 50
0.0
  9
$ANGDIR
 70
     0
  9
$PDMODE
 70
     0
  9
$PDSIZE
 40
0.0
  9
$PLINEWID
 40
0.0
  9
$COORDS
 70
     1
  9
$SPLFRAME
 70
     0
  9
$SPLINETYPE
 70
     6
  9
$SPLINESEGS
 70
     8
  9
$ATTDIA
 70
     1
  9
$ATTREQ
 70
     1
  9
$HANDLING
 70
     1
  9
$HANDSEED
  5
56B
  9
$SURFTAB1
 70
     6
  9
$SURFTAB2
 70
     6
  9
$SURFTYPE
 70
     6
  9
$SURFU
 70
     6
  9
$SURFV
 70
     6
  9
$UCSNAME
  2

  9
$UCSORG
 10
0.0
 20
0.0
 30
0.0
  9
$UCSXDIR
 10
1.0
 20
0.0
 30
0.0
  9
$UCSYDIR
 10
0.0
 20
1.0
 30
0.0
  9
$PUCSNAME
  2

  9
$PUCSORG
 10
0.0
 20
0.0
 30
0.0
  9
$PUCSXDIR
 10
1.0
 20
0.0
 30
0.0
  9
$PUCSYDIR
 10
0.0
 20
1.0
 30
0.0
  9
$USERI1
 70
     0
  9
$USERI2
 70
     0
  9
$USERI3
 70
     0
  9
$USERI4
 70
     0
  9
$USERI5
 70
     0
  9
$USERR1
 40
0.0
  9
$USERR2
 40
0.0
  9
$USERR3
 40
0.0
  9
$USERR4
 40
0.0
  9
$USERR5
 40
0.0
  9
$WORLDVIEW
 70
     1
  9
$SHADEDGE
 70
     3
  9
$SHADEDIF
 70
    70
  9
$TILEMODE
 70
     1
  9
$MAXACTVP
 70
    48
  9
$PLIMCHECK
 70
     0
  9
$PEXTMIN
 10
1.0000000000000000E+020
 20
1.0000000000000000E+020
 30
1.0000000000000000E+020
  9
$PEXTMAX
 10
-1.0000000000000000E+020
 20
-1.0000000000000000E+020
 30
-1.0000000000000000E+020
  9
$PLIMMIN
 10
0.0
 20
0.0
  9
$PLIMMAX
 10
12.0
 20
9.0
  9
$UNITMODE
 70
     0
  9
$VISRETAIN
 70
     1
  9
$PLINEGEN
 70
     0
  9
$PSLTSCALE
 70
     1
  0
ENDSEC
  0
SECTION
  2
TABLES
  0
TABLE
  2
VPORT
 70
     1
  0
VPORT
  2
*ACTIVE
 70
     0
 10
0.0
 20
0.0
 11
1.0
 21
1.0
 12
195.83847240083131
 22
148.72550000000001
 13
0.0
 23
0.0
 14
1.0
 24
1.0
 15
0.0
 25
0.0
 16
0.0
 26
0.0
 36
1.0
 17
0.0
 27
0.0
 37
0.0
 40
281.37364046443349
 41
2.298642533936651
 42
50.0
 43
0.0
 44
0.0
 50
0.0
 51
0.0
 71
     0
 72
   100
 73
     1
 74
     1
 75
     0
 76
     0
 77
     0
 78
     0
  0
ENDTAB
  0
TABLE
  2
LTYPE
 70
     4
  0
LTYPE
  2
CONTINUOUS
 70
     0
  3
Solid line
 72
    65
 73
     0
 40
0.0
  0
LTYPE
  2
AIGENLINE001
 70
     0
  3
generate AI->DXF Converter
 72
    65
 73
     4
 40
5.8561449999999988
 49
3.5278
 49
-0.776115
 49
0.776115
 49
-0.776115
  0
LTYPE
  2
AIGENLINE002
 70
     0
  3
generate AI->DXF Converter
 72
    65
 73
     2
 40
1.5522299999999991
 49
0.776115
 49
-0.776115
  0
LTYPE
  2
AIGENLINE003
 70
     0
  3
generate AI->DXF Converter
 72
    65
 73
     6
 40
7.4083750000000004
 49
3.5278
 49
-0.776115
 49
0.776115
 49
-0.776115
 49
0.776115
 49
-0.776115
  0
ENDTAB
  0
TABLE
  2
LAYER
 70
     2
  0
LAYER
  2
0
 70
     0
 62
     7
  6
CONTINUOUS
  0
LAYER
  2
_________2
 70
     0
 62
     7
  6
CONTINUOUS
  0
ENDTAB
  0
TABLE
  2
STYLE
 70
     1
  0
STYLE
  2
STANDARD
 70
     0
 40
0.0
 41
0.0
 50
0.0
 71
     0
 42
0.0
  3
TXT
  4
EXTFONT.SHX
  0
ENDTAB
  0
TABLE
  2
VIEW
 70
     0
  0
ENDTAB
  0
TABLE
  2
UCS
 70
     0
  0
ENDTAB
  0
TABLE
  2
APPID
 70
     3
  0
APPID
  2
ACAD
 70
     0
  0
APPID
  2
ACAD_NAV_VCDISPLAY
 70
     0
  0
APPID
  2
ACAD_MLEADERVER
 70
     0
  0
ENDTAB
  0
TABLE
  2
DIMSTYLE
 70
     1
  0
DIMSTYLE
  2
STANDARD
 70
     0
  3

  4

  5

  6

  7

 40
1.0
 41
0.18
 42
0.0625
 43
0.38
 44
0.18
 45
0.0
 46
0.0
 47
0.0
 48
0.0
140
0.18
141
0.09
142
0.0
143
25.399999999999999
144
1.0
145
0.0
146
1.0
147
0.09
 71
     0
 72
     0
 73
     1
 74
     1
 75
     0
 76
     0
 77
     0
 78
     0
170
     0
171
     2
172
     0
173
     0
174
     0
175
     0
176
     0
177
     0
178
     0
  0
ENDTAB
  0
ENDSEC
  0
SECTION
  2
BLOCKS
  0
BLOCK
  8
0
  2
$MODEL_SPACE
 70
     0
 10
0.0
 20
0.0
 30
0.0
  3
$MODEL_SPACE
  1

  0
ENDBLK
  5
1A
  8
0
  0
BLOCK
 67
     1
  8
0
  2
$PAPER_SPACE
 70
     0
 10
0.0
 20
0.0
 30
0.0
  3
$PAPER_SPACE
  1

  0
ENDBLK
  5
17
 67
     1
  8
0
  0
ENDSEC
  0
SECTION
  2
ENTITIES
  0
TEXT
  5
24
  8
0
 62
     7
 10
62.255009000000001
 20
84.264099999999999
 30
0.0
 40
3.0923400000000001
  1
G1 1/4
 41
0.5
 72
     1
 11
65.811199999999999
 21
84.264099999999999
 31
0.0
  0
TEXT
  5
25
  8
0
 62
     7
 10
82.223399999999998
 20
86.477999999999994
 30
0.0
 40
3.0923400000000001
  1
11
 50
90.0
 41
0.5
  0
TEXT
  5
26
  8
0
 62
     7
 10
82.223399999999998
 20
97.121324999999999
 30
0.0
 40
3.0923400000000001
  1
23
 50
90.0
 41
0.5
 72
     1
 11
82.223399999999998
 21
98.409800000000004
 31
0.0
  0
TEXT
  5
27
  8
0
 62
     7
 10
82.223399999999998
 20
111.2
 30
0.0
 40
3.0923400000000001
  1
10
 50
90.0
 41
0.5
  0
TEXT
  5
28
  8
0
 62
     7
 10
82.223399999999998
 20
124.74021999999999
 30
0.0
 40
3.0923400000000001
  1
8
 50
90.0
 41
0.5
 72
     2
 11
82.223399999999998
 21
125.771
 31
0.0
  0
TEXT
  5
29
  8
0
 62
     7
 10
181.995
 20
239.12861000000001
 30
0.0
 40
3.0923400000000001
  1
C
 50
90.0
 41
0.5
 72
     1
 11
181.995
 21
239.64400000000001
 31
0.0
  0
TEXT
  5
2A
  8
0
 62
     7
 10
181.995
 20
247.46161000000001
 30
0.0
 40
3.0923400000000001
  1
D
 50
90.0
 41
0.5
 72
     1
 11
181.995
 21
247.977
 31
0.0
  0
TEXT
  5
2B
  8
0
 62
     7
 10
175.595
 20
242.6503725
 30
0.0
 40
3.0923400000000001
  1
80
 50
90.0
 41
0.5
 72
     1
 11
175.595
 21
243.81
 31
0.0
  0
TEXT
  5
2C
  8
0
 62
     7
 10
115.708
 20
147.851
 30
0.0
 40
3.0923400000000001
  1
max.40
 50
90.0
 41
0.5
  0
TEXT
  5
2D
  8
0
 62
     7
 10
108.953
 20
175.28713499999989
 30
0.0
 40
3.0923400000000001
  1
135
 50
90.0
 41
0.5
 72
     1
 11
108.953
 21
177.09099999999989
 31
0.0
  0
TEXT
  5
2E
  8
0
 62
     7
 10
115.708
 20
174.99998249999999
 30
0.0
 40
3.0923400000000001
  1
140
 50
90.0
 41
0.5
 72
     1
 11
115.708
 21
176.67500000000001
 31
0.0
  0
TEXT
  5
2F
  8
0
 62
     7
 10
147.37899999999999
 20
178.46483000000001
 30
0.0
 40
3.0923400000000001
  1
100
 50
90.0
 41
0.5
 72
     1
 11
147.37899999999999
 21
180.011
 31
0.0
  0
TEXT
  5
30
  8
0
 62
     7
 10
91.525400000000005
 20
191.54674499999999
 30
0.0
 40
3.0923400000000001
  1
20
 50
90.0
 41
0.5
 72
     2
 11
91.525400000000005
 21
193.86600000000001
 31
0.0
  0
TEXT
  5
31
  8
0
 62
     7
 10
108.565
 20
241.87728749999999
 30
0.0
 40
3.0923400000000001
  1
260
 50
90.0
 41
0.5
 72
     1
 11
108.565
 21
243.81
 31
0.0
  0
TEXT
  5
32
  8
0
 62
     7
 10
115.621
 20
241.87728749999999
 30
0.0
 40
3.0923400000000001
  1
270
 50
90.0
 41
0.5
 72
     1
 11
115.621
 21
243.81
 31
0.0
  0
TEXT
  5
33
  8
0
 62
     7
 10
24.9557
 20
66.837699999999984
 30
0.0
 40
4.2168199999999993
  1
＜-21サンドサテンマット、-23グレーサテンマットについて＞
 41
0.5
  0
TEXT
  5
34
  8
0
 62
     7
 10
24.9557
 20
61.566699999999997
 30
0.0
 40
4.2168199999999993
  1
※リムの釉薬が均一でない場合があります。
 41
0.5
  0
TEXT
  5
35
  8
0
 62
     7
 10
125.98
 20
208.459
 30
0.0
 40
3.0923400000000001
  1
※A～D寸法は手洗器現品を必ず
 41
0.5
  0
TEXT
  5
36
  8
0
 62
     7
 10
125.98
 20
204.59299999999999
 30
0.0
 40
3.0923400000000001
  1
　測定して穴をあけてください。
 41
0.5
  0
TEXT
  5
37
  8
0
 62
     7
 10
125.98
 20
200.72800000000001
 30
0.0
 40
3.0923400000000001
  1
※カウンターの制作可否はカウンター
 41
0.5
  0
TEXT
  5
38
  8
0
 62
     7
 10
125.98
 20
196.86199999999999
 30
0.0
 40
3.0923400000000001
  1
　業者様にご確認ください。
 41
0.5
  0
TEXT
  5
39
  8
0
 62
     7
 10
59.199282571428569
 20
77.491699999999994
 30
0.0
 40
3.0923400000000001
  1
排水目皿　1：4
 41
0.5
 72
     1
 11
65.811000000000007
 21
77.491699999999994
 31
0.0
  0
TEXT
  5
3A
  8
0
 62
     7
 10
125.98
 20
214.59399999999999
 30
0.0
 40
3.0923400000000001
  1
カウンター切込寸法
 41
0.5
  0
TEXT
  5
3B
  8
0
 62
     7
 10
78.8180725
 20
213.84700000000001
 30
0.0
 40
3.0923400000000001
  1
40
 41
0.5
 72
     1
 11
79.977699999999999
 21
213.84700000000001
 31
0.0
  0
TEXT
  5
3C
  8
0
 62
     7
 10
127.2602875
 20
253.78
 30
0.0
 40
3.0923400000000001
  1
R40
 41
0.5
 72
     1
 11
129.19300000000001
 21
253.78
 31
0.0
  0
TEXT
  5
3D
  8
0
 62
     7
 10
170.1812875
 20
228.39500000000001
 30
0.0
 40
3.0923400000000001
  1
R40
 41
0.5
 72
     1
 11
172.114
 21
228.39500000000001
 31
0.0
  0
TEXT
  5
3E
  8
0
 62
     7
 10
151.540696
 20
228.49199999999999
 30
0.0
 40
3.0923400000000001
  1
水栓位置
 41
0.5
 72
     2
 11
158.55000000000001
 21
228.49199999999999
 31
0.0
  0
TEXT
  5
3F
  8
0
 62
     7
 10
40.953699999999991
 20
270.16699999999997
 30
0.0
 40
3.0923400000000001
  1
メーカーロゴ
 41
0.5
  0
TEXT
  5
40
  8
0
 62
     7
 10
138.60817800000001
 20
254.352
 30
0.0
 40
3.0923400000000001
  1
排水口
 41
0.5
 72
     2
 11
143.65899999999999
 21
254.352
 31
0.0
  0
TEXT
  5
41
  8
0
 62
     7
 10
104.68422
 20
206.64400000000001
 30
0.0
 40
3.0923400000000001
  1
5
 41
0.5
 72
     2
 11
105.715
 21
206.64400000000001
 31
0.0
  0
TEXT
  5
42
  8
0
 62
     7
 10
90.913880000000006
 20
250.90199999999999
 30
0.0
 40
3.0923400000000001
  1
%%c35
 41
0.5
 72
     2
 11
95.037000000000006
 21
250.90199999999999
 31
0.0
  0
TEXT
  5
43
  8
0
 62
     7
 10
161.724965
 20
256.71899999999999
 30
0.0
 40
3.0923400000000001
  1
%%c10
 41
0.5
 72
     2
 11
165.07499999999999
 21
256.71899999999999
 31
0.0
  0
TEXT
  5
44
  8
0
 62
     7
 10
52.584499999999991
 20
251.58000000000001
 30
0.0
 40
3.0923400000000001
  1
%%c46
 41
0.5
  0
TEXT
  5
45
  8
0
 62
     7
 10
123.702
 20
231.489
 30
0.0
 40
3.0923400000000001
  1
%%c10
 41
0.5
  0
TEXT
  5
46
  8
0
 62
     7
 10
25.721900000000002
 20
206.64400000000001
 30
0.0
 40
3.0923400000000001
  1
5
 41
0.5
  0
TEXT
  5
47
  8
0
 62
     7
 10
63.878687499999998
 20
199.09
 30
0.0
 40
3.0923400000000001
  1
420
 41
0.5
 72
     1
 11
65.811400000000006
 21
199.09
 31
0.0
  0
TEXT
  5
48
  8
0
 62
     7
 10
52.211487499999997
 20
206.64400000000001
 30
0.0
 40
3.0923400000000001
  1
270
 41
0.5
 72
     1
 11
54.144199999999991
 21
206.64400000000001
 31
0.0
  0
TEXT
  5
49
  8
0
 62
     7
 10
49.141300000000001
 20
126.45399999999999
 30
0.0
 40
3.0923400000000001
  1
%%c72
 41
0.5
  0
TEXT
  5
4A
  8
0
 62
     7
 10
63.878687499999998
 20
151.78
 30
0.0
 40
3.0923400000000001
  1
304
 41
0.5
 72
     1
 11
65.811400000000006
 21
151.78
 31
0.0
  0
TEXT
  5
4B
  8
0
 62
     7
 10
149.339135
 20
151.517
 30
0.0
 40
3.0923400000000001
  1
154
 41
0.5
 72
     1
 11
151.143
 21
151.517
 31
0.0
  0
TEXT
  5
4C
  8
0
 62
     7
 10
159.5441349999999
 20
144.929
 30
0.0
 40
3.0923400000000001
  1
135
 41
0.5
 72
     1
 11
161.34800000000001
 21
144.929
 31
0.0
  0
TEXT
  5
4D
  8
0
 62
     7
 10
86.636382500000011
 20
206.64400000000001
 30
0.0
 40
3.0923400000000001
  1
140
 41
0.5
 72
     1
 11
88.311400000000006
 21
206.64400000000001
 31
0.0
  0
TEXT
  5
4E
  8
0
 62
     7
 10
89.969582500000001
 20
213.84700000000001
 30
0.0
 40
3.0923400000000001
  1
105
 41
0.5
 72
     1
 11
91.644599999999997
 21
213.84700000000001
 31
0.0
  0
TEXT
  5
4F
  8
0
 62
     7
 10
142.9092875
 20
221.77799999999999
 30
0.0
 40
3.0923400000000001
  1
270
 41
0.5
 72
     1
 11
144.84200000000001
 21
221.77799999999999
 31
0.0
  0
TEXT
  5
50
  8
0
 62
     7
 10
149.78560999999999
 20
262.05900000000003
 30
0.0
 40
3.0923400000000001
  1
B
 41
0.5
 72
     1
 11
150.30099999999999
 21
262.05900000000003
 31
0.0
  0
TEXT
  5
51
  8
0
 62
     7
 10
138.86860999999999
 20
262.05900000000003
 30
0.0
 40
3.0923400000000001
  1
A
 41
0.5
 72
     1
 11
139.38399999999999
 21
262.05900000000003
 31
0.0
  0
TEXT
  5
52
  8
0
 62
     7
 10
81.636182500000004
 20
274.96100000000001
 30
0.0
 40
3.0923400000000001
  1
210
 41
0.5
 72
     1
 11
83.311199999999999
 21
274.96100000000001
 31
0.0
  0
LINE
  5
53
  8
0
 62
     7
 10
66.311300000000003
 20
90.284800000000004
 30
0.0
 11
66.561199999999999
 21
90.534899999999993
 31
0.0
  0
LINE
  5
54
  8
0
 62
     7
 10
66.311300000000003
 20
90.284800000000004
 30
0.0
 11
66.311300000000003
 21
91.534700000000001
 31
0.0
  0
LINE
  5
55
  8
0
 62
     7
 10
70.798699999999997
 20
92.784899999999993
 30
0.0
 11
71.0488
 21
93.034700000000001
 31
0.0
  0
LINE
  5
56
  8
0
 62
     7
 10
70.798699999999997
 20
92.784899999999993
 30
0.0
 11
70.798699999999997
 21
95.534800000000004
 31
0.0
  0
LINE
  5
57
  8
0
 62
     7
 10
67.311199999999999
 20
91.534700000000001
 30
0.0
 11
67.311199999999999
 21
92.784899999999993
 31
0.0
  0
LINE
  5
58
  8
0
 62
     7
 10
71.0488
 20
93.034700000000001
 30
0.0
 11
71.0488
 21
95.534800000000004
 31
0.0
  0
LINE
  5
59
  8
0
 62
     7
 10
71.0488
 20
95.534800000000004
 30
0.0
 11
71.436199999999999
 21
96.034700000000015
 31
0.0
  0
LINE
  5
5A
  8
0
 62
     7
 10
71.436199999999999
 20
96.034700000000015
 30
0.0
 11
71.436199999999999
 21
99.784700000000015
 31
0.0
  0
LINE
  5
5B
  8
0
 62
     7
 10
73.561300000000003
 20
99.784700000000015
 30
0.0
 11
73.561300000000003
 21
100.285
 31
0.0
  0
LINE
  5
5C
  8
0
 62
     7
 10
72.936199999999999
 20
101.285
 30
0.0
 11
73.561300000000003
 21
100.285
 31
0.0
  0
LINE
  5
5D
  8
0
 62
     7
 10
65.311300000000003
 20
90.284800000000004
 30
0.0
 11
65.061199999999999
 21
90.534899999999993
 31
0.0
  0
LINE
  5
5E
  8
0
 62
     7
 10
65.311199999999999
 20
90.284800000000004
 30
0.0
 11
65.311199999999999
 21
91.534700000000001
 31
0.0
  0
LINE
  5
5F
  8
0
 62
     7
 10
66.561199999999999
 20
90.534899999999993
 30
0.0
 11
66.561199999999999
 21
91.534700000000001
 31
0.0
  0
LINE
  5
60
  8
0
 62
     7
 10
65.061199999999999
 20
90.534899999999993
 30
0.0
 11
65.061199999999999
 21
91.534700000000001
 31
0.0
  0
LINE
  5
61
  8
0
 62
     7
 10
65.061199999999999
 20
90.534899999999993
 30
0.0
 11
66.561199999999999
 21
90.534899999999993
 31
0.0
  0
LINE
  5
62
  8
0
 62
     7
 10
65.311300000000003
 20
90.284800000000004
 30
0.0
 11
66.311099999999996
 21
90.284800000000004
 31
0.0
  0
LINE
  5
63
  8
0
 62
     7
 10
60.823700000000002
 20
92.784899999999993
 30
0.0
 11
60.573599999999999
 21
93.034700000000001
 31
0.0
  0
LINE
  5
64
  8
0
 62
     7
 10
60.823700000000002
 20
92.784899999999993
 30
0.0
 11
60.823700000000002
 21
95.534800000000004
 31
0.0
  0
LINE
  5
65
  8
0
 62
     7
 10
64.311199999999985
 20
91.534700000000001
 30
0.0
 11
64.311199999999985
 21
92.784899999999993
 31
0.0
  0
LINE
  5
66
  8
0
 62
     7
 10
60.573599999999999
 20
93.034700000000001
 30
0.0
 11
60.573599999999999
 21
95.534800000000004
 31
0.0
  0
LINE
  5
67
  8
0
 62
     7
 10
60.573599999999999
 20
95.534800000000004
 30
0.0
 11
60.186199999999999
 21
96.034700000000015
 31
0.0
  0
LINE
  5
68
  8
0
 62
     7
 10
60.186199999999999
 20
96.034700000000015
 30
0.0
 11
60.186199999999999
 21
99.784700000000015
 31
0.0
  0
LINE
  5
69
  8
0
 62
     7
 10
58.061300000000003
 20
99.784700000000015
 30
0.0
 11
58.061300000000003
 21
100.285
 31
0.0
  0
LINE
  5
6A
  8
0
 62
     7
 10
58.686199999999992
 20
101.285
 30
0.0
 11
58.061300000000003
 21
100.285
 31
0.0
  0
LINE
  5
6B
  8
0
 62
     7
 10
58.686199999999992
 20
101.285
 30
0.0
 11
72.936199999999999
 21
101.285
 31
0.0
  0
LINE
  5
6C
  8
0
 62
     7
 10
58.061300000000003
 20
100.285
 30
0.0
 11
73.561300000000003
 21
100.285
 31
0.0
  0
LINE
  5
6D
  8
0
 62
     7
 10
60.573599999999999
 20
93.034700000000001
 30
0.0
 11
71.0488
 21
93.034700000000001
 31
0.0
  0
LINE
  5
6E
  8
0
 62
     7
 10
64.311199999999985
 20
91.534700000000001
 30
0.0
 11
67.311199999999999
 21
91.534700000000001
 31
0.0
  0
LINE
  5
6F
  8
0
 62
     7
 10
60.823700000000002
 20
92.784899999999993
 30
0.0
 11
70.798699999999997
 21
92.784899999999993
 31
0.0
  0
LINE
  5
70
  8
0
 62
     7
 10
60.573599999999999
 20
95.534800000000004
 30
0.0
 11
71.0488
 21
95.534800000000004
 31
0.0
  0
LINE
  5
71
  8
0
 62
     7
 10
60.186199999999999
 20
96.034700000000015
 30
0.0
 11
71.436199999999999
 21
96.034700000000015
 31
0.0
  0
LINE
  5
72
  8
0
 62
     7
 10
58.061300000000003
 20
99.784700000000015
 30
0.0
 11
73.561300000000003
 21
99.784700000000015
 31
0.0
  0
LINE
  5
73
  8
0
 62
     7
 10
74.821399999999997
 20
246.18899999999999
 30
0.0
 11
76.644599999999997
 21
244.804
 31
0.0
  0
LINE
  5
74
  8
0
 62
     7
 10
76.644599999999997
 20
244.804
 30
0.0
 11
75.757999999999996
 21
246.91499999999999
 31
0.0
  0
LINE
  5
75
  8
0
 62
     7
 10
75.757999999999996
 20
246.91499999999999
 30
0.0
 11
74.821399999999997
 21
246.18899999999999
 31
0.0
  0
LINE
  5
76
  8
0
 62
     7
 10
57.5276
 20
269.46699999999998
 30
0.0
 11
76.644599999999997
 21
244.804
 31
0.0
  0
ARC
  5
77
  8
0
 62
     7
 10
82.912470999999996
 20
95.545808999999991
 30
0.0
 40
0.302296
 50
272.08238
 51
357.91762999999997
  0
ARC
  5
78
  8
0
 62
     7
 10
82.934444999999997
 20
95.545812999999995
 30
0.0
 40
0.302301
 50
182.08324300000001
 51
267.916787
  0
ARC
  5
79
  8
0
 62
     7
 10
82.934439999999995
 20
95.523840000000007
 30
0.0
 40
0.302296
 50
92.082342999999995
 51
177.91762700000001
  0
ARC
  5
7A
  8
0
 62
     7
 10
82.912467000000007
 20
95.523834999999991
 30
0.0
 40
0.302301
 50
2.0832399999999991
 51
87.916750000000008
  0
ARC
  5
7B
  8
0
 62
     7
 10
82.912470999999996
 20
119.045642
 30
0.0
 40
0.302296
 50
272.08238
 51
357.91762999999997
  0
ARC
  5
7C
  8
0
 62
     7
 10
82.934444999999997
 20
119.045647
 30
0.0
 40
0.302301
 50
182.08324300000001
 51
267.916787
  0
ARC
  5
7D
  8
0
 62
     7
 10
82.934439999999995
 20
119.023674
 30
0.0
 40
0.302296
 50
92.082342999999995
 51
177.91762700000001
  0
ARC
  5
7E
  8
0
 62
     7
 10
82.912467000000007
 20
119.023669
 30
0.0
 40
0.302301
 50
2.0832399999999991
 51
87.916750000000008
  0
LINE
  5
7F
  8
0
 62
     7
 10
57.561
 20
119.035
 30
0.0
 11
74.061099999999996
 21
119.035
 31
0.0
  0
ARC
  5
80
  8
0
 62
     7
 10
74.032107999999994
 20
119.81362900000001
 30
0.0
 40
0.779509
 50
272.12881399999998
 51
357.84487100000001
  0
ARC
  5
81
  8
0
 62
     7
 10
74.035955000000001
 20
119.76295500000001
 30
0.0
 40
0.7754050000000001
 50
1.5785949999999991
 51
79.921239
  0
ARC
  5
82
  8
0
 62
     7
 10
72.208786000000003
 20
107.76098500000001
 30
0.0
 40
12.915437000000001
 50
81.258398999999997
 51
82.725399999999993
  0
ARC
  5
83
  8
0
 62
     7
 10
70.908726000000001
 20
97.735967000000002
 30
0.0
 40
23.024388999999999
 50
82.675181999999992
 51
83.896313000000006
  0
ARC
  5
84
  8
0
 62
     7
 10
69.145286999999996
 20
81.260595999999993
 30
0.0
 40
39.593865999999998
 50
83.893924999999996
 51
84.979309000000001
  0
ARC
  5
85
  8
0
 62
     7
 10
66.331091999999984
 20
49.105218000000001
 30
0.0
 40
71.872156000000004
 50
84.987831999999997
 51
86.603377000000009
  0
ARC
  5
86
  8
0
 62
     7
 10
63.646473
 20
7.9690709999999996
 30
0.0
 40
113.09535700000001
 50
86.480424999999997
 51
88.315190000000001
  0
ARC
  5
87
  8
0
 62
     7
 10
65.627067999999994
 20
74.374293000000009
 30
0.0
 40
46.660617999999999
 50
88.348776999999984
 51
89.774083999999988
  0
ARC
  5
88
  8
0
 62
     7
 10
57.589975000000003
 20
119.81362900000001
 30
0.0
 40
0.779509
 50
182.15514899999999
 51
267.87120599999997
  0
ARC
  5
89
  8
0
 62
     7
 10
57.586128000000002
 20
119.76295500000001
 30
0.0
 40
0.7754050000000001
 50
100.078723
 51
178.421403
  0
ARC
  5
8A
  8
0
 62
     7
 10
59.413297999999998
 20
107.76098500000001
 30
0.0
 40
12.915437000000001
 50
97.27458
 51
98.741580999999996
  0
ARC
  5
8B
  8
0
 62
     7
 10
60.713356999999988
 20
97.735967000000002
 30
0.0
 40
23.024388999999999
 50
96.103667000000016
 51
97.324798000000001
  0
ARC
  5
8C
  8
0
 62
     7
 10
62.476795999999993
 20
81.260595999999993
 30
0.0
 40
39.593865999999998
 50
95.020670999999993
 51
96.106055000000012
  0
ARC
  5
8D
  8
0
 62
     7
 10
65.290991000000005
 20
49.105218000000001
 30
0.0
 40
71.872156000000004
 50
93.396602999999999
 51
95.012148999999994
  0
ARC
  5
8E
  8
0
 62
     7
 10
67.975610000000003
 20
7.9690709999999996
 30
0.0
 40
113.09535700000001
 50
91.684791000000004
 51
93.519554999999997
  0
ARC
  5
8F
  8
0
 62
     7
 10
65.995015000000009
 20
74.374293000000009
 30
0.0
 40
46.660617999999999
 50
90.225895999999992
 51
91.65120300000001
  0
LINE
  5
90
  8
0
 62
     7
 10
73.561199999999999
 20
116.535
 30
0.0
 11
71.953000000000003
 21
115.988
 31
0.0
  0
ARC
  5
91
  8
0
 62
     7
 10
72.47664300000001
 20
114.538586
 30
0.0
 40
1.540913999999999
 50
109.86641400000001
 51
178.92947699999999
  0
LINE
  5
92
  8
0
 62
     7
 10
70.936000000000007
 20
113.535
 30
0.0
 11
70.936000000000007
 21
114.56699999999999
 31
0.0
  0
LINE
  5
93
  8
0
 62
     7
 10
58.060899999999997
 20
116.535
 30
0.0
 11
59.66940000000001
 21
115.988
 31
0.0
  0
ARC
  5
94
  8
0
 62
     7
 10
59.145938000000001
 20
114.53907
 30
0.0
 40
1.5404070000000001
 50
1.0528679999999999
 51
70.132825999999994
  0
LINE
  5
95
  8
0
 62
     7
 10
73.320400000000006
 20
144.47499999999999
 30
0.0
 11
72.175399999999996
 21
142.49199999999999
 31
0.0
  0
LINE
  5
96
  8
0
 62
     7
 10
72.175399999999996
 20
142.49199999999999
 30
0.0
 11
74.1584
 21
143.637
 31
0.0
  0
LINE
  5
97
  8
0
 62
     7
 10
74.1584
 20
143.637
 30
0.0
 11
73.320400000000006
 21
144.47499999999999
 31
0.0
  0
LINE
  5
98
  8
0
 62
     7
 10
58.30210000000001
 20
127.78100000000001
 30
0.0
 11
59.447200000000002
 21
129.76400000000001
 31
0.0
  0
LINE
  5
99
  8
0
 62
     7
 10
59.447200000000002
 20
129.76400000000001
 30
0.0
 11
57.463999999999999
 21
128.62
 31
0.0
  0
LINE
  5
9A
  8
0
 62
     7
 10
57.463999999999999
 20
128.62
 30
0.0
 11
58.30210000000001
 21
127.78100000000001
 31
0.0
  0
LINE
  5
9B
  8
0
 62
     7
 10
55.436799999999998
 20
125.754
 30
0.0
 11
75.610299999999995
 21
145.928
 31
0.0
  0
ARC
  5
9C
  8
0
 62
     7
 10
65.811211999999998
 20
136.128467
 30
0.0
 40
9.0001979999999993
 50
0.001107
 51
90.001076999999995
  0
ARC
  5
9D
  8
0
 62
     7
 10
65.811043000000012
 20
136.12863899999999
 30
0.0
 40
9.0000260000000001
 50
90.0
 51
179.99996999999999
  0
ARC
  5
9E
  8
0
 62
     7
 10
65.811211999999998
 20
136.128467
 30
0.0
 40
9.0001949999999997
 50
179.998874
 51
269.99892299999999
  0
ARC
  5
9F
  8
0
 62
     7
 10
65.811040000000006
 20
136.12864300000001
 30
0.0
 40
9.0003700000000002
 50
270.00002000000001
 51
359.99999000000003
  0
LINE
  5
A0
  8
0
 62
     7
 10
82.3309
 20
123.246
 30
0.0
 11
82.923500000000004
 21
121.035
 31
0.0
  0
LINE
  5
A1
  8
0
 62
     7
 10
82.923500000000004
 20
121.035
 30
0.0
 11
83.516199999999998
 21
123.246
 31
0.0
  0
LINE
  5
A2
  8
0
 62
     7
 10
83.516199999999998
 20
123.246
 30
0.0
 11
82.3309
 21
123.246
 31
0.0
  0
LINE
  5
A3
  8
0
 62
     7
 10
82.3309
 20
103.496
 30
0.0
 11
82.923500000000004
 21
101.285
 31
0.0
  0
LINE
  5
A4
  8
0
 62
     7
 10
82.923500000000004
 20
101.285
 30
0.0
 11
83.516199999999998
 21
103.496
 31
0.0
  0
LINE
  5
A5
  8
0
 62
     7
 10
83.516199999999998
 20
103.496
 30
0.0
 11
82.3309
 21
103.496
 31
0.0
  0
LINE
  5
A6
  8
0
 62
     7
 10
83.516000000000005
 20
114.32299999999999
 30
0.0
 11
82.923500000000004
 21
116.535
 31
0.0
  0
LINE
  5
A7
  8
0
 62
     7
 10
82.923500000000004
 20
116.535
 30
0.0
 11
82.330699999999993
 21
114.32299999999999
 31
0.0
  0
LINE
  5
A8
  8
0
 62
     7
 10
82.330699999999993
 20
114.32299999999999
 30
0.0
 11
83.516000000000005
 21
114.32299999999999
 31
0.0
  0
LINE
  5
A9
  8
0
 62
     7
 10
83.516000000000005
 20
90.5732
 30
0.0
 11
82.923500000000004
 21
92.784899999999993
 31
0.0
  0
LINE
  5
AA
  8
0
 62
     7
 10
82.923500000000004
 20
92.784899999999993
 30
0.0
 11
82.330699999999993
 21
90.5732
 31
0.0
  0
LINE
  5
AB
  8
0
 62
     7
 10
82.330699999999993
 20
90.5732
 30
0.0
 11
83.516000000000005
 21
90.5732
 31
0.0
  0
LINE
  5
AC
  8
0
 62
     7
 10
82.923500000000004
 20
86.477999999999994
 30
0.0
 11
82.923500000000004
 21
104.973
 31
0.0
  0
LINE
  5
AD
  8
0
 62
     7
 10
82.923500000000004
 20
111.2
 30
0.0
 11
82.923500000000004
 21
125.771
 31
0.0
  0
LINE
  5
AE
  8
0
 62
     7
 10
68.837100000000007
 20
82.971500000000006
 30
0.0
 11
71.0488
 21
83.564099999999996
 31
0.0
  0
LINE
  5
AF
  8
0
 62
     7
 10
71.0488
 20
83.564099999999996
 30
0.0
 11
68.837100000000007
 21
84.156599999999997
 31
0.0
  0
LINE
  5
B0
  8
0
 62
     7
 10
68.837100000000007
 20
84.156599999999997
 30
0.0
 11
68.837100000000007
 21
82.971500000000006
 31
0.0
  0
LINE
  5
B1
  8
0
 62
     7
 10
62.785400000000003
 20
84.156599999999997
 30
0.0
 11
60.573599999999999
 21
83.564099999999996
 31
0.0
  0
LINE
  5
B2
  8
0
 62
     7
 10
60.573599999999999
 20
83.564099999999996
 30
0.0
 11
62.785400000000003
 21
82.971500000000006
 31
0.0
  0
LINE
  5
B3
  8
0
 62
     7
 10
62.785400000000003
 20
82.971500000000006
 30
0.0
 11
62.785400000000003
 21
84.156599999999997
 31
0.0
  0
LINE
  5
B4
  8
0
 62
     7
 10
71.0488
 20
83.564099999999996
 30
0.0
 11
60.573599999999999
 21
83.564099999999996
 31
0.0
  0
LINE
  5
B5
  8
0
 62
     7
 10
71.0488
 20
83.214100000000002
 30
0.0
 11
71.0488
 21
92.019800000000004
 31
0.0
  0
LINE
  5
B6
  8
0
 62
     7
 10
60.573599999999999
 20
83.214100000000002
 30
0.0
 11
60.573599999999999
 21
92.019800000000004
 31
0.0
  0
LINE
  5
B7
  8
0
 62
     7
 10
83.623500000000007
 20
92.784899999999993
 30
0.0
 11
71.938400000000001
 21
92.784899999999993
 31
0.0
  0
LINE
  5
B8
  8
0
 62
     7
 10
83.623500000000007
 20
95.534800000000004
 30
0.0
 11
72.938100000000006
 21
95.534800000000004
 31
0.0
  0
LINE
  5
B9
  8
0
 62
     7
 10
83.623500000000007
 20
101.285
 30
0.0
 11
73.592399999999984
 21
101.285
 31
0.0
  0
LINE
  5
BA
  8
0
 62
     7
 10
74.240700000000004
 20
116.535
 30
0.0
 11
83.623500000000007
 21
116.535
 31
0.0
  0
LINE
  5
BB
  8
0
 62
     7
 10
75.083600000000004
 20
119.035
 30
0.0
 11
83.623500000000007
 21
119.035
 31
0.0
  0
LINE
  5
BC
  8
0
 62
     7
 10
49.141300000000001
 20
125.754
 30
0.0
 11
55.436799999999998
 21
125.754
 31
0.0
  0
LINE
  5
BD
  8
0
 62
     7
 10
73.319699999999997
 20
121.035
 30
0.0
 11
83.623500000000007
 21
121.035
 31
0.0
  0
LINE
  5
BE
  8
0
  6
AIGENLINE001
 62
     7
 10
65.811000000000007
 20
124.724
 30
0.0
 11
65.811000000000007
 21
147.2879999999999
 31
0.0
  0
LINE
  5
BF
  8
0
  6
AIGENLINE001
 62
     7
 10
77.279499999999985
 20
136.12899999999999
 30
0.0
 11
54.61719999999999
 21
136.12899999999999
 31
0.0
  0
LINE
  5
C0
  8
0
  6
AIGENLINE001
 62
     7
 10
65.811000000000007
 20
122.782
 30
0.0
 11
65.811000000000007
 21
87.852199999999996
 31
0.0
  0
LINE
  5
C1
  8
0
 62
     7
 10
70.936300000000003
 20
111.535
 30
0.0
 11
70.936300000000003
 21
113.035
 31
0.0
  0
LINE
  5
C2
  8
0
 62
     7
 10
73.311400000000006
 20
113.535
 30
0.0
 11
73.311400000000006
 21
113.035
 31
0.0
  0
LINE
  5
C3
  8
0
 62
     7
 10
65.311199999999999
 20
101.285
 30
0.0
 11
65.311199999999999
 21
109.785
 31
0.0
  0
LINE
  5
C4
  8
0
 62
     7
 10
66.311300000000003
 20
101.285
 30
0.0
 11
66.311300000000003
 21
109.785
 31
0.0
  0
LINE
  5
C5
  8
0
 62
     7
 10
66.561400000000006
 20
101.285
 30
0.0
 11
66.561400000000006
 21
109.785
 31
0.0
  0
LINE
  5
C6
  8
0
 62
     7
 10
65.061400000000006
 20
101.285
 30
0.0
 11
65.061400000000006
 21
109.785
 31
0.0
  0
LINE
  5
C7
  8
0
 62
     7
 10
67.686199999999999
 20
110.785
 30
0.0
 11
67.686199999999999
 21
111.535
 31
0.0
  0
LINE
  5
C8
  8
0
 62
     7
 10
67.686199999999999
 20
110.785
 30
0.0
 11
66.936199999999999
 21
109.785
 31
0.0
  0
LINE
  5
C9
  8
0
 62
     7
 10
63.936199999999999
 20
111.535
 30
0.0
 11
63.936199999999999
 21
110.785
 31
0.0
  0
LINE
  5
CA
  8
0
 62
     7
 10
64.686199999999999
 20
109.785
 30
0.0
 11
63.936199999999999
 21
110.785
 31
0.0
  0
LINE
  5
CB
  8
0
 62
     7
 10
64.686199999999999
 20
109.785
 30
0.0
 11
66.936199999999999
 21
109.785
 31
0.0
  0
LINE
  5
CC
  8
0
 62
     7
 10
63.936199999999999
 20
110.785
 30
0.0
 11
67.686199999999999
 21
110.785
 31
0.0
  0
LINE
  5
CD
  8
0
 62
     7
 10
60.686100000000003
 20
113.535
 30
0.0
 11
60.686100000000003
 21
114.56699999999999
 31
0.0
  0
LINE
  5
CE
  8
0
 62
     7
 10
60.686100000000003
 20
111.535
 30
0.0
 11
60.686100000000003
 21
113.035
 31
0.0
  0
LINE
  5
CF
  8
0
 62
     7
 10
73.311400000000006
 20
113.035
 30
0.0
 11
73.311400000000006
 21
113.535
 31
0.0
  0
LINE
  5
D0
  8
0
 62
     7
 10
58.311000000000007
 20
113.535
 30
0.0
 11
58.311000000000007
 21
113.035
 31
0.0
  0
LINE
  5
D1
  8
0
 62
     7
 10
58.311000000000007
 20
113.535
 30
0.0
 11
73.311400000000006
 21
113.535
 31
0.0
  0
LINE
  5
D2
  8
0
 62
     7
 10
58.311000000000007
 20
113.035
 30
0.0
 11
73.311400000000006
 21
113.035
 31
0.0
  0
LINE
  5
D3
  8
0
 62
     7
 10
60.686100000000003
 20
111.535
 30
0.0
 11
70.936300000000003
 21
111.535
 31
0.0
  0
LINE
  5
D4
  8
0
 62
     7
 10
73.561199999999999
 20
116.535
 30
0.0
 11
73.561199999999999
 21
116.785
 31
0.0
  0
LINE
  5
D5
  8
0
 62
     7
 10
58.060899999999997
 20
116.535
 30
0.0
 11
58.060899999999997
 21
116.785
 31
0.0
  0
LINE
  5
D6
  8
0
 62
     7
 10
58.060899999999997
 20
116.535
 30
0.0
 11
73.561199999999999
 21
116.535
 31
0.0
  0
LINE
  5
D7
  8
0
 62
     7
 10
67.686199999999999
 20
116.785
 30
0.0
 11
67.686199999999999
 21
119.035
 31
0.0
  0
LINE
  5
D8
  8
0
 62
     7
 10
63.936199999999999
 20
116.785
 30
0.0
 11
63.936199999999999
 21
119.035
 31
0.0
  0
LINE
  5
D9
  8
0
 62
     7
 10
58.060899999999997
 20
116.785
 30
0.0
 11
73.561199999999999
 21
116.785
 31
0.0
  0
ARC
  5
DA
  8
0
  6
AIGENLINE002
 62
     7
 10
349.06171899999998
 20
226.769183
 30
0.0
 40
222.99015800000001
 50
190.01217999999989
 51
190.56817799999999
  0
ARC
  5
DB
  8
0
  6
AIGENLINE002
 62
     7
 10
206.81924000000001
 20
200.47478599999999
 30
0.0
 40
78.338318000000001
 50
190.74343099999999
 51
191.85090500000001
  0
ARC
  5
DC
  8
0
  6
AIGENLINE002
 62
     7
 10
182.72621799999999
 20
195.53182899999999
 30
0.0
 40
53.743831000000007
 50
191.96846599999989
 51
193.53277199999999
  0
ARC
  5
DD
  8
0
  6
AIGENLINE002
 62
     7
 10
170.21082799999999
 20
192.643416
 30
0.0
 40
40.900199000000001
 50
193.70143100000001
 51
195.50289799999999
  0
ARC
  5
DE
  8
0
  6
AIGENLINE002
 62
     7
 10
160.22193100000001
 20
189.96300099999999
 30
0.0
 40
30.558412000000001
 50
195.666032
 51
198.076628
  0
ARC
  5
DF
  8
0
  6
AIGENLINE002
 62
     7
 10
154.353858
 20
188.098197
 30
0.0
 40
24.401392999999999
 50
198.189413
 51
200.934245
  0
ARC
  5
E0
  8
0
  6
AIGENLINE002
 62
     7
 10
150.577551
 20
186.692643
 30
0.0
 40
20.372188999999999
 50
201.03685400000001
 51
203.99500900000001
  0
ARC
  5
E1
  8
0
  6
AIGENLINE002
 62
     7
 10
147.60952
 20
185.40629200000001
 30
0.0
 40
17.137578999999999
 50
204.10127199999999
 51
207.61919800000001
  0
ARC
  5
E2
  8
0
  6
AIGENLINE002
 62
     7
 10
145.447374
 20
184.314898
 30
0.0
 40
14.715892999999999
 50
207.756742
 51
211.85405800000001
  0
ARC
  5
E3
  8
0
  6
AIGENLINE002
 62
     7
 10
143.39119299999999
 20
183.05325400000001
 30
0.0
 40
12.303547999999999
 50
211.917069
 51
216.27130500000001
  0
LINE
  5
E4
  8
0
  6
AIGENLINE002
 62
     7
 10
147.309
 20
166.96799999999999
 30
0.0
 11
154.976
 21
166.96799999999999
 31
0.0
  0
ARC
  5
E5
  8
0
  6
AIGENLINE002
 62
     7
 10
158.657782
 20
171.97656699999999
 30
0.0
 40
0.300718
 50
273.45416299999999
 51
276.48533700000002
  0
ARC
  5
E6
  8
0
  6
AIGENLINE002
 62
     7
 10
143.55242699999999
 20
170.84482399999999
 30
0.0
 40
0.8269249999999999
 50
359.94664299999999
 51
19.665541000000001
  0
LINE
  5
E7
  8
0
  6
AIGENLINE002
 62
     7
 10
143.94
 20
171.57900000000001
 30
0.0
 11
143.93199999999999
 21
171.584
 31
0.0
  0
LINE
  5
E8
  8
0
  6
AIGENLINE002
 62
     7
 10
143.922
 20
171.589
 30
0.0
 11
143.91399999999999
 21
171.59200000000001
 31
0.0
  0
LINE
  5
E9
  8
0
  6
AIGENLINE002
 62
     7
 10
143.904
 20
171.59800000000001
 30
0.0
 11
143.89599999999999
 21
171.601
 31
0.0
  0
LINE
  5
EA
  8
0
  6
AIGENLINE002
 62
     7
 10
143.886
 20
171.60599999999999
 30
0.0
 11
143.87799999999999
 21
171.60900000000001
 31
0.0
  0
LINE
  5
EB
  8
0
  6
AIGENLINE002
 62
     7
 10
143.86699999999999
 20
171.614
 30
0.0
 11
143.86000000000001
 21
171.61699999999999
 31
0.0
  0
LINE
  5
EC
  8
0
  6
AIGENLINE002
 62
     7
 10
143.84899999999999
 20
171.62100000000001
 30
0.0
 11
143.84200000000001
 21
171.624
 31
0.0
  0
ARC
  5
ED
  8
0
  6
AIGENLINE002
 62
     7
 10
143.52887000000001
 20
170.79390699999999
 30
0.0
 40
0.8872419999999999
 50
70.098608999999996
 51
78.267994999999985
  0
LINE
  5
EE
  8
0
  6
AIGENLINE002
 62
     7
 10
143.70099999999999
 20
171.66399999999999
 30
0.0
 11
143.69
 21
171.666
 31
0.0
  0
LINE
  5
EF
  8
0
  6
AIGENLINE002
 62
     7
 10
143.68299999999999
 20
171.667
 30
0.0
 11
143.59200000000001
 21
171.678
 31
0.0
  0
LINE
  5
F0
  8
0
  6
AIGENLINE002
 62
     7
 10
143.59200000000001
 20
171.67699999999999
 30
0.0
 11
158.69399999999999
 21
171.67699999999999
 31
0.0
  0
LINE
  5
F1
  8
0
  6
AIGENLINE002
 62
     7
 10
143.68299999999999
 20
171.667
 30
0.0
 11
143.69
 21
171.666
 31
0.0
  0
LINE
  5
F2
  8
0
  6
AIGENLINE002
 62
     7
 10
143.70099999999999
 20
171.66399999999999
 30
0.0
 11
143.709
 21
171.66300000000001
 31
0.0
  0
ARC
  5
F3
  8
0
  6
AIGENLINE002
 62
     7
 10
144.01667900000001
 20
172.10683399999999
 30
0.0
 40
0.513463
 50
248.787038
 51
250.10089600000001
  0
ARC
  5
F4
  8
0
  6
AIGENLINE002
 62
     7
 10
143.748031
 20
171.33485899999999
 30
0.0
 40
0.303739
 50
68.333382
 51
70.554512000000003
  0
ARC
  5
F5
  8
0
  6
AIGENLINE002
 62
     7
 10
143.81648300000001
 20
171.472533
 30
0.0
 40
0.150066
 50
65.618328000000005
 51
70.162759999999992
  0
ARC
  5
F6
  8
0
  6
AIGENLINE002
 62
     7
 10
143.96727999999999
 20
171.772592
 30
0.0
 40
0.185407
 50
243.88449600000001
 51
247.50642999999999
  0
LINE
  5
F7
  8
0
  6
AIGENLINE002
 62
     7
 10
143.904
 20
171.59800000000001
 30
0.0
 11
143.91399999999999
 21
171.59200000000001
 31
0.0
  0
ARC
  5
F8
  8
0
  6
AIGENLINE002
 62
     7
 10
144.59118799999999
 20
172.87071700000001
 30
0.0
 40
1.446067
 50
242.4273
 51
242.872974
  0
ARC
  5
F9
  8
0
  6
AIGENLINE002
 62
     7
 10
143.539185
 20
170.839586
 30
0.0
 40
0.8411579999999999
 50
19.697951
 51
61.561624999999999
  0
LINE
  5
FA
  8
0
  6
AIGENLINE002
 62
     7
 10
157.90700000000001
 20
170.84399999999999
 30
0.0
 11
157.90700000000001
 21
170.768
 31
0.0
  0
LINE
  5
FB
  8
0
  6
AIGENLINE002
 62
     7
 10
147.309
 20
166.96799999999999
 30
0.0
 11
145.77500000000001
 21
168.964
 31
0.0
  0
ARC
  5
FC
  8
0
  6
AIGENLINE002
 62
     7
 10
146.05238800000001
 20
170.77747400000001
 30
0.0
 40
1.6769009999999991
 50
212.36681799999999
 51
246.469809
  0
ARC
  5
FD
  8
0
  6
AIGENLINE002
 62
     7
 10
146.05390399999999
 20
170.77067299999999
 30
0.0
 40
1.6745540000000001
 50
180.082536
 51
212.14251400000001
  0
ARC
  5
FE
  8
0
  6
AIGENLINE002
 62
     7
 10
144.90927400000001
 20
168.153301
 30
0.0
 40
1.1855770000000001
 50
43.122126999999992
 51
66.434754999999996
  0
ARC
  5
FF
  8
0
  6
AIGENLINE002
 62
     7
 10
157.364666
 20
168.16925900000001
 30
0.0
 40
1.1661549999999989
 50
113.33748199999999
 51
137.058098
  0
ARC
  5
100
  8
0
  6
AIGENLINE002
 62
     7
 10
156.236412
 20
170.76996199999999
 30
0.0
 40
1.6701950000000001
 50
327.792327
 51
359.94165700000002
  0
ARC
  5
101
  8
0
  6
AIGENLINE002
 62
     7
 10
156.237797
 20
170.77213499999999
 30
0.0
 40
1.6701820000000001
 50
293.45950499999998
 51
327.70390800000001
  0
LINE
  5
102
  8
0
  6
AIGENLINE002
 62
     7
 10
156.511
 20
168.964
 30
0.0
 11
154.976
 21
166.96799999999999
 31
0.0
  0
LINE
  5
103
  8
0
  6
AIGENLINE002
 62
     7
 10
144.37899999999999
 20
170.768
 30
0.0
 11
144.37899999999999
 21
170.84399999999999
 31
0.0
  0
LINE
  5
104
  8
0
  6
AIGENLINE002
 62
     7
 10
158.69399999999999
 20
171.678
 30
0.0
 11
158.13499999999999
 21
171.417
 31
0.0
  0
ARC
  5
105
  8
0
  6
AIGENLINE002
 62
     7
 10
158.748356
 20
170.84117499999999
 30
0.0
 40
0.841756
 50
136.80700300000001
 51
179.804022
  0
ARC
  5
106
  8
0
  6
AIGENLINE002
 62
     7
 10
77.592402000000007
 20
184.16953100000001
 30
0.0
 40
0.8412679999999999
 50
90.78060600000002
 51
154.56390200000001
  0
ARC
  5
107
  8
0
  6
AIGENLINE002
 62
     7
 10
77.602400000000003
 20
184.14997600000001
 30
0.0
 40
0.8588
 50
153.67218
 51
173.40154100000001
  0
ARC
  5
108
  8
0
  6
AIGENLINE002
 62
     7
 10
74.774709000000001
 20
172.637047
 30
0.0
 40
0.9380089999999999
 50
328.44097099999999
 51
353.74933700000003
  0
ARC
  5
109
  8
0
  6
AIGENLINE002
 62
     7
 10
74.901663999999997
 20
172.58981499999999
 30
0.0
 40
0.805537
 50
289.16331700000001
 51
326.577134
  0
ARC
  5
10A
  8
0
  6
AIGENLINE002
 62
     7
 10
74.843652000000006
 20
172.69469900000001
 30
0.0
 40
0.923876
 50
275.40096399999999
 51
290.42657300000002
  0
LINE
  5
10B
  8
0
 62
     7
 10
145.309
 20
165.011
 30
0.0
 11
156.976
 21
165.011
 31
0.0
  0
LINE
  5
10C
  8
0
  6
AIGENLINE002
 62
     7
 10
154.976
 20
165.011
 30
0.0
 11
154.976
 21
166.96799999999999
 31
0.0
  0
LINE
  5
10D
  8
0
  6
AIGENLINE002
 62
     7
 10
147.309
 20
165.011
 30
0.0
 11
147.309
 21
166.96799999999999
 31
0.0
  0
LINE
  5
10E
  8
0
 62
     7
 10
59.977800000000002
 20
165.011
 30
0.0
 11
71.6447
 21
165.011
 31
0.0
  0
LINE
  5
10F
  8
0
  6
AIGENLINE002
 62
     7
 10
61.977699999999999
 20
166.96799999999999
 30
0.0
 11
69.644400000000005
 21
166.96799999999999
 31
0.0
  0
LINE
  5
110
  8
0
  6
AIGENLINE002
 62
     7
 10
75.707099999999997
 20
172.535
 30
0.0
 11
76.749300000000005
 21
184.249
 31
0.0
  0
ARC
  5
111
  8
0
  6
AIGENLINE002
 62
     7
 10
64.132567000000009
 20
333.36973999999998
 30
0.0
 40
161.955186
 50
273.267067
 51
273.82292899999999
  0
LINE
  5
112
  8
0
  6
AIGENLINE002
 62
     7
 10
73.360299999999995
 20
171.678
 30
0.0
 11
73.344499999999996
 21
171.67599999999999
 31
0.0
  0
ARC
  5
113
  8
0
  6
AIGENLINE002
 62
     7
 10
58.203318000000003
 20
170.84280899999999
 30
0.0
 40
0.84427
 50
0.084473
 51
19.390314
  0
LINE
  5
114
  8
0
  6
AIGENLINE002
 62
     7
 10
58.608299999999993
 20
171.57900000000001
 30
0.0
 11
58.6004
 21
171.584
 31
0.0
  0
LINE
  5
115
  8
0
  6
AIGENLINE002
 62
     7
 10
58.590400000000002
 20
171.589
 30
0.0
 11
58.582799999999999
 21
171.59200000000001
 31
0.0
  0
LINE
  5
116
  8
0
  6
AIGENLINE002
 62
     7
 10
58.572499999999998
 20
171.59800000000001
 30
0.0
 11
58.564900000000002
 21
171.601
 31
0.0
  0
LINE
  5
117
  8
0
  6
AIGENLINE002
 62
     7
 10
58.554200000000002
 20
171.60599999999999
 30
0.0
 11
58.546999999999997
 21
171.60900000000001
 31
0.0
  0
LINE
  5
118
  8
0
  6
AIGENLINE002
 62
     7
 10
58.536000000000001
 20
171.614
 30
0.0
 11
58.52879999999999
 21
171.61699999999999
 31
0.0
  0
LINE
  5
119
  8
0
  6
AIGENLINE002
 62
     7
 10
58.517699999999998
 20
171.62100000000001
 30
0.0
 11
58.5105
 21
171.624
 31
0.0
  0
ARC
  5
11A
  8
0
  6
AIGENLINE002
 62
     7
 10
58.205317000000001
 20
170.82289399999999
 30
0.0
 40
0.857193
 50
69.955164999999994
 51
78.411439000000001
  0
LINE
  5
11B
  8
0
  6
AIGENLINE002
 62
     7
 10
58.369599999999998
 20
171.66399999999999
 30
0.0
 11
58.358199999999997
 21
171.666
 31
0.0
  0
LINE
  5
11C
  8
0
  6
AIGENLINE002
 62
     7
 10
58.350999999999999
 20
171.667
 30
0.0
 11
58.26039999999999
 21
171.678
 31
0.0
  0
LINE
  5
11D
  8
0
  6
AIGENLINE002
 62
     7
 10
54.57309999999999
 20
171.67699999999999
 30
0.0
 11
73.361999999999995
 21
171.67699999999999
 31
0.0
  0
LINE
  5
11E
  8
0
  6
AIGENLINE002
 62
     7
 10
58.350999999999999
 20
171.667
 30
0.0
 11
58.358199999999997
 21
171.666
 31
0.0
  0
LINE
  5
11F
  8
0
  6
AIGENLINE002
 62
     7
 10
58.369599999999998
 20
171.66399999999999
 30
0.0
 11
58.377499999999991
 21
171.66300000000001
 31
0.0
  0
LINE
  5
120
  8
0
  6
AIGENLINE002
 62
     7
 10
58.499099999999999
 20
171.62799999999999
 30
0.0
 11
58.5105
 21
171.624
 31
0.0
  0
ARC
  5
121
  8
0
  6
AIGENLINE002
 62
     7
 10
58.703516999999998
 20
172.09994399999999
 30
0.0
 40
0.513463
 50
248.787038
 51
250.10089600000001
  0
ARC
  5
122
  8
0
  6
AIGENLINE002
 62
     7
 10
58.485062999999997
 20
171.472533
 30
0.0
 40
0.150066
 50
65.618328000000005
 51
70.162759999999992
  0
ARC
  5
123
  8
0
  6
AIGENLINE002
 62
     7
 10
58.620018999999992
 20
171.737517
 30
0.0
 40
0.146944
 50
243.41025500000001
 51
247.980672
  0
LINE
  5
124
  8
0
  6
AIGENLINE002
 62
     7
 10
58.572499999999998
 20
171.59800000000001
 30
0.0
 11
58.582799999999999
 21
171.59200000000001
 31
0.0
  0
ARC
  5
125
  8
0
  6
AIGENLINE002
 62
     7
 10
58.677230999999999
 20
171.74448100000001
 30
0.0
 40
0.178172
 50
240.841261
 51
244.459013
  0
ARC
  5
126
  8
0
  6
AIGENLINE002
 62
     7
 10
58.207763999999997
 20
170.839586
 30
0.0
 40
0.8411579999999999
 50
19.697951
 51
61.561624999999999
  0
LINE
  5
127
  8
0
  6
AIGENLINE002
 62
     7
 10
72.575199999999995
 20
170.84399999999999
 30
0.0
 11
72.575199999999995
 21
170.768
 31
0.0
  0
LINE
  5
128
  8
0
  6
AIGENLINE002
 62
     7
 10
69.644400000000005
 20
165.011
 30
0.0
 11
69.644400000000005
 21
166.96799999999999
 31
0.0
  0
LINE
  5
129
  8
0
  6
AIGENLINE002
 62
     7
 10
61.977699999999999
 20
165.011
 30
0.0
 11
61.977699999999999
 21
166.96799999999999
 31
0.0
  0
LINE
  5
12A
  8
0
  6
AIGENLINE002
 62
     7
 10
61.977699999999999
 20
166.96799999999999
 30
0.0
 11
60.44319999999999
 21
168.964
 31
0.0
  0
ARC
  5
12B
  8
0
  6
AIGENLINE002
 62
     7
 10
60.719981999999987
 20
170.77632299999999
 30
0.0
 40
1.675452999999999
 50
212.35162700000001
 51
246.48500000000001
  0
ARC
  5
12C
  8
0
  6
AIGENLINE002
 62
     7
 10
60.720877000000002
 20
170.770858
 30
0.0
 40
1.6732910000000001
 50
180.08891600000001
 51
212.17714000000001
  0
ARC
  5
12D
  8
0
  6
AIGENLINE002
 62
     7
 10
59.581299999999999
 20
168.15818300000001
 30
0.0
 40
1.179724999999999
 50
43.063484000000003
 51
66.493397000000002
  0
ARC
  5
12E
  8
0
  6
AIGENLINE002
 62
     7
 10
72.035394999999994
 20
168.1667909999999
 30
0.0
 40
1.169408999999999
 50
113.401757
 51
137.04132200000001
  0
ARC
  5
12F
  8
0
  6
AIGENLINE002
 62
     7
 10
70.900885000000002
 20
170.77115000000001
 30
0.0
 40
1.6743019999999991
 50
327.83282800000001
 51
359.90115600000001
  0
ARC
  5
130
  8
0
  6
AIGENLINE002
 62
     7
 10
70.902253000000002
 20
170.77695
 30
0.0
 40
1.6762410000000001
 50
293.52329400000002
 51
327.64011900000003
  0
LINE
  5
131
  8
0
  6
AIGENLINE002
 62
     7
 10
71.179599999999994
 20
168.964
 30
0.0
 11
69.644400000000005
 21
166.96799999999999
 31
0.0
  0
LINE
  5
132
  8
0
  6
AIGENLINE002
 62
     7
 10
59.047600000000003
 20
170.768
 30
0.0
 11
59.047600000000003
 21
170.84399999999999
 31
0.0
  0
LINE
  5
133
  8
0
  6
AIGENLINE002
 62
     7
 10
73.361999999999995
 20
171.678
 30
0.0
 11
72.802899999999994
 21
171.417
 31
0.0
  0
ARC
  5
134
  8
0
  6
AIGENLINE002
 62
     7
 10
73.417299999999997
 20
170.84139999999999
 30
0.0
 40
0.8421190000000001
 50
136.851125
 51
179.819367
  0
LINE
  5
135
  8
0
 62
     7
 10
176.887
 20
248.26499999999999
 30
0.0
 11
176.29499999999999
 21
250.477
 31
0.0
  0
LINE
  5
136
  8
0
 62
     7
 10
176.29499999999999
 20
250.477
 30
0.0
 11
175.702
 21
248.26499999999999
 31
0.0
  0
LINE
  5
137
  8
0
 62
     7
 10
175.702
 20
248.26499999999999
 30
0.0
 11
176.887
 21
248.26499999999999
 31
0.0
  0
LINE
  5
138
  8
0
 62
     7
 10
175.702
 20
239.35499999999999
 30
0.0
 11
176.29499999999999
 21
237.14400000000001
 31
0.0
  0
LINE
  5
139
  8
0
 62
     7
 10
176.29499999999999
 20
237.14400000000001
 30
0.0
 11
176.887
 21
239.35499999999999
 31
0.0
  0
LINE
  5
13A
  8
0
 62
     7
 10
176.887
 20
239.35499999999999
 30
0.0
 11
175.702
 21
239.35499999999999
 31
0.0
  0
LINE
  5
13B
  8
0
 62
     7
 10
176.29499999999999
 20
250.477
 30
0.0
 11
176.29499999999999
 21
237.14400000000001
 31
0.0
  0
LINE
  5
13C
  8
0
 62
     7
 10
163.04300000000001
 20
237.14400000000001
 30
0.0
 11
176.995
 21
237.14400000000001
 31
0.0
  0
LINE
  5
13D
  8
0
 62
     7
 10
176.995
 20
250.477
 30
0.0
 11
163.25800000000001
 21
250.477
 31
0.0
  0
LINE
  5
13E
  8
0
 62
     7
 10
183.28800000000001
 20
241.59899999999999
 30
0.0
 11
182.69499999999999
 21
243.81
 31
0.0
  0
LINE
  5
13F
  8
0
 62
     7
 10
182.69499999999999
 20
243.81
 30
0.0
 11
182.10300000000001
 21
241.59899999999999
 31
0.0
  0
LINE
  5
140
  8
0
 62
     7
 10
182.10300000000001
 20
241.59899999999999
 30
0.0
 11
183.28800000000001
 21
241.59899999999999
 31
0.0
  0
LINE
  5
141
  8
0
 62
     7
 10
183.28800000000001
 20
249.93199999999999
 30
0.0
 11
182.69499999999999
 21
252.14400000000001
 31
0.0
  0
LINE
  5
142
  8
0
 62
     7
 10
182.69499999999999
 20
252.14400000000001
 30
0.0
 11
182.10300000000001
 21
249.93199999999999
 31
0.0
  0
LINE
  5
143
  8
0
 62
     7
 10
182.10300000000001
 20
249.93199999999999
 30
0.0
 11
183.28800000000001
 21
249.93199999999999
 31
0.0
  0
LINE
  5
144
  8
0
 62
     7
 10
182.10300000000001
 20
246.02199999999999
 30
0.0
 11
182.69499999999999
 21
243.81
 31
0.0
  0
LINE
  5
145
  8
0
 62
     7
 10
182.69499999999999
 20
243.81
 30
0.0
 11
183.28800000000001
 21
246.02199999999999
 31
0.0
  0
LINE
  5
146
  8
0
 62
     7
 10
183.28800000000001
 20
246.02199999999999
 30
0.0
 11
182.10300000000001
 21
246.02199999999999
 31
0.0
  0
LINE
  5
147
  8
0
 62
     7
 10
182.10300000000001
 20
237.68899999999999
 30
0.0
 11
182.69499999999999
 21
235.477
 31
0.0
  0
LINE
  5
148
  8
0
 62
     7
 10
182.69499999999999
 20
235.477
 30
0.0
 11
183.28800000000001
 21
237.68899999999999
 31
0.0
  0
LINE
  5
149
  8
0
 62
     7
 10
183.28800000000001
 20
237.68899999999999
 30
0.0
 11
182.10300000000001
 21
237.68899999999999
 31
0.0
  0
LINE
  5
14A
  8
0
 62
     7
 10
182.69499999999999
 20
252.14400000000001
 30
0.0
 11
182.69499999999999
 21
235.477
 31
0.0
  0
ARC
  5
14B
  8
0
 62
     7
 10
133.89399499999999
 20
235.50869700000001
 30
0.0
 40
0.8654460000000001
 50
272.10826900000001
 51
357.90358700000002
  0
ARC
  5
14C
  8
0
 62
     7
 10
133.925747
 20
235.477124
 30
0.0
 40
0.8332879999999999
 50
180.005932
 51
270.005942
  0
ARC
  5
14D
  8
0
 62
     7
 10
133.92583300000001
 20
235.47703799999999
 30
0.0
 40
0.8333739999999998
 50
90.0
 51
179.99996999999999
  0
ARC
  5
14E
  8
0
 62
     7
 10
133.89414500000001
 20
235.445707
 30
0.0
 40
0.865285
 50
2.0750319999999989
 51
87.901267000000004
  0
ARC
  5
14F
  8
0
 62
     7
 10
155.72725199999999
 20
252.17548099999999
 30
0.0
 40
0.86562
 50
272.11938800000001
 51
357.904312
  0
ARC
  5
150
  8
0
 62
     7
 10
155.759264
 20
252.14382599999999
 30
0.0
 40
0.8333739999999998
 50
179.99996999999999
 51
270.00002000000001
  0
ARC
  5
151
  8
0
 62
     7
 10
155.759264
 20
252.14382599999999
 30
0.0
 40
0.8333739999999998
 50
90.0
 51
179.99996999999999
  0
ARC
  5
152
  8
0
 62
     7
 10
155.727576
 20
252.11249599999999
 30
0.0
 40
0.865285
 50
2.0750319999999989
 51
87.901267000000004
  0
ARC
  5
153
  8
0
  6
AIGENLINE002
 62
     7
 10
144.842375
 20
243.81043299999999
 30
0.0
 40
3.8333829999999991
 50
270.00002000000001
 51
359.99999000000003
  0
ARC
  5
154
  8
0
  6
AIGENLINE002
 62
     7
 10
144.842375
 20
243.81043099999999
 30
0.0
 40
3.8333809999999988
 50
179.99996999999999
 51
270.00002000000001
  0
ARC
  5
155
  8
0
  6
AIGENLINE002
 62
     7
 10
144.842377
 20
243.81043099999999
 30
0.0
 40
3.8333829999999991
 50
90.0
 51
179.99996999999999
  0
ARC
  5
156
  8
0
  6
AIGENLINE002
 62
     7
 10
144.842375
 20
243.81043099999999
 30
0.0
 40
3.8333829999999991
 50
0.00001
 51
89.999980000000008
  0
ARC
  5
157
  8
0
  6
AIGENLINE002
 62
     7
 10
162.34253799999999
 20
243.81043299999999
 30
0.0
 40
2.9166369999999988
 50
270.00002000000001
 51
359.99999000000003
  0
ARC
  5
158
  8
0
  6
AIGENLINE002
 62
     7
 10
162.34253799999999
 20
243.81043199999999
 30
0.0
 40
2.916636
 50
179.99996999999999
 51
270.00002000000001
  0
ARC
  5
159
  8
0
  6
AIGENLINE002
 62
     7
 10
162.342625
 20
243.810518
 30
0.0
 40
2.9167230000000002
 50
90.001692000000006
 51
180.00170199999999
  0
ARC
  5
15A
  8
0
  6
AIGENLINE002
 62
     7
 10
162.34245200000001
 20
243.810518
 30
0.0
 40
2.9167230000000002
 50
359.9983180000001
 51
89.998288000000016
  0
LINE
  5
15B
  8
0
 62
     7
 10
136.501
 20
235.477
 30
0.0
 11
183.39500000000001
 21
235.477
 31
0.0
  0
LINE
  5
15C
  8
0
 62
     7
 10
132.03899999999999
 20
235.477
 30
0.0
 11
135.80099999999999
 21
235.477
 31
0.0
  0
LINE
  5
15D
  8
0
 62
     7
 10
157.91
 20
252.14400000000001
 30
0.0
 11
153.90600000000001
 21
252.14400000000001
 31
0.0
  0
LINE
  5
15E
  8
0
 62
     7
 10
183.39500000000001
 20
243.81
 30
0.0
 11
177.19499999999999
 21
243.81
 31
0.0
  0
LINE
  5
15F
  8
0
 62
     7
 10
171.75599999999989
 20
243.81
 30
0.0
 11
170.626
 21
243.81
 31
0.0
  0
LINE
  5
160
  8
0
 62
     7
 10
183.39500000000001
 20
252.14400000000001
 30
0.0
 11
158.61000000000001
 21
252.14400000000001
 31
0.0
  0
LINE
  5
161
  8
0
 62
     7
 10
129.00899999999999
 20
237.14400000000001
 30
0.0
 11
160.67599999999999
 21
237.14400000000001
 31
0.0
  0
LINE
  5
162
  8
0
 62
     7
 10
129.00899999999999
 20
250.477
 30
0.0
 11
160.67599999999999
 21
250.477
 31
0.0
  0
LINE
  5
163
  8
0
 62
     7
 10
126.27800000000001
 20
247.38
 30
0.0
 11
124.295
 21
248.52500000000001
 31
0.0
  0
LINE
  5
164
  8
0
 62
     7
 10
124.295
 20
248.52500000000001
 30
0.0
 11
125.43899999999999
 21
246.542
 31
0.0
  0
LINE
  5
165
  8
0
 62
     7
 10
125.43899999999999
 20
246.542
 30
0.0
 11
126.27800000000001
 21
247.38
 31
0.0
  0
LINE
  5
166
  8
0
 62
     7
 10
129.00899999999999
 20
243.81
 30
0.0
 11
124.295
 21
248.52500000000001
 31
0.0
  0
LINE
  5
167
  8
0
 62
     7
 10
159.09999999999999
 20
239.72999999999999
 30
0.0
 11
160.244
 21
241.71299999999999
 31
0.0
  0
LINE
  5
168
  8
0
 62
     7
 10
160.244
 20
241.71299999999999
 30
0.0
 11
158.261
 21
240.56800000000001
 31
0.0
  0
LINE
  5
169
  8
0
 62
     7
 10
158.261
 20
240.56800000000001
 30
0.0
 11
159.09999999999999
 21
239.72999999999999
 31
0.0
  0
LINE
  5
16A
  8
0
 62
     7
 10
127.282
 20
245.53800000000001
 30
0.0
 11
129.05000000000001
 21
253.12
 31
0.0
  0
LINE
  5
16B
  8
0
 62
     7
 10
170.917
 20
232.33000000000001
 30
0.0
 11
162.791
 21
245.92599999999999
 31
0.0
  0
LINE
  5
16C
  8
0
 62
     7
 10
150.959
 20
232.42699999999999
 30
0.0
 11
160.28
 21
241.74799999999999
 31
0.0
  0
LINE
  5
16D
  8
0
 62
     7
 10
52.584499999999991
 20
250.88
 30
0.0
 11
58.741300000000003
 21
250.88
 31
0.0
  0
LINE
  5
16E
  8
0
 62
     7
 10
89.703299999999999
 20
250.202
 30
0.0
 11
95.037000000000006
 21
250.202
 31
0.0
  0
LINE
  5
16F
  8
0
 62
     7
 10
40.953699999999991
 20
269.46699999999998
 30
0.0
 11
57.5276
 21
269.46699999999998
 31
0.0
  0
LINE
  5
170
  8
0
 62
     7
 10
135.05199999999999
 20
253.65199999999999
 30
0.0
 11
143.65899999999999
 21
253.65199999999999
 31
0.0
  0
LINE
  5
171
  8
0
 62
     7
 10
140.97200000000001
 20
248.53999999999999
 30
0.0
 11
142.11699999999999
 21
246.55699999999999
 31
0.0
  0
LINE
  5
172
  8
0
 62
     7
 10
142.11699999999999
 20
246.55699999999999
 30
0.0
 11
140.13399999999999
 21
247.702
 31
0.0
  0
LINE
  5
173
  8
0
 62
     7
 10
140.13399999999999
 20
247.702
 30
0.0
 11
140.97200000000001
 21
248.53999999999999
 31
0.0
  0
LINE
  5
174
  8
0
 62
     7
 10
135.05199999999999
 20
253.65199999999999
 30
0.0
 11
142.13200000000001
 21
246.572
 31
0.0
  0
LINE
  5
175
  8
0
 62
     7
 10
129.23500000000001
 20
230.78899999999999
 30
0.0
 11
137.52199999999999
 21
239.07300000000001
 31
0.0
  0
LINE
  5
176
  8
0
 62
     7
 10
135.66
 20
238.04900000000001
 30
0.0
 11
134.51499999999999
 21
236.066
 31
0.0
  0
LINE
  5
177
  8
0
 62
     7
 10
134.51499999999999
 20
236.066
 30
0.0
 11
136.49799999999999
 21
237.21100000000001
 31
0.0
  0
LINE
  5
178
  8
0
 62
     7
 10
136.49799999999999
 20
237.21100000000001
 30
0.0
 11
135.66
 21
238.04900000000001
 31
0.0
  0
LINE
  5
179
  8
0
 62
     7
 10
132.19200000000001
 20
232.905
 30
0.0
 11
133.33600000000001
 21
234.88800000000001
 31
0.0
  0
LINE
  5
17A
  8
0
 62
     7
 10
133.33600000000001
 20
234.88800000000001
 30
0.0
 11
131.35300000000001
 21
233.74299999999999
 31
0.0
  0
LINE
  5
17B
  8
0
 62
     7
 10
131.35300000000001
 20
233.74299999999999
 30
0.0
 11
132.19200000000001
 21
232.905
 31
0.0
  0
LINE
  5
17C
  8
0
 62
     7
 10
157.49299999999999
 20
254.71600000000001
 30
0.0
 11
156.34800000000001
 21
252.733
 31
0.0
  0
LINE
  5
17D
  8
0
 62
     7
 10
156.34800000000001
 20
252.733
 30
0.0
 11
158.33099999999999
 21
253.87799999999999
 31
0.0
  0
LINE
  5
17E
  8
0
 62
     7
 10
158.33099999999999
 20
253.87799999999999
 30
0.0
 11
157.49299999999999
 21
254.71600000000001
 31
0.0
  0
LINE
  5
17F
  8
0
 62
     7
 10
154.02500000000001
 20
249.572
 30
0.0
 11
155.16999999999999
 21
251.55500000000001
 31
0.0
  0
LINE
  5
180
  8
0
 62
     7
 10
155.16999999999999
 20
251.55500000000001
 30
0.0
 11
153.18700000000001
 21
250.41
 31
0.0
  0
LINE
  5
181
  8
0
 62
     7
 10
153.18700000000001
 20
250.41
 30
0.0
 11
154.02500000000001
 21
249.572
 31
0.0
  0
LINE
  5
182
  8
0
 62
     7
 10
152.637
 20
249.02199999999999
 30
0.0
 11
159.63399999999999
 21
256.01900000000001
 31
0.0
  0
LINE
  5
183
  8
0
 62
     7
 10
164.245
 20
246.542
 30
0.0
 11
165.38999999999999
 21
248.52500000000001
 31
0.0
  0
LINE
  5
184
  8
0
 62
     7
 10
165.38999999999999
 20
248.52500000000001
 30
0.0
 11
163.40700000000001
 21
247.38
 31
0.0
  0
LINE
  5
185
  8
0
 62
     7
 10
163.40700000000001
 20
247.38
 30
0.0
 11
164.245
 21
246.542
 31
0.0
  0
LINE
  5
186
  8
0
 62
     7
 10
160.67599999999999
 20
243.81
 30
0.0
 11
165.38999999999999
 21
248.52500000000001
 31
0.0
  0
ARC
  5
187
  8
0
 62
     7
 10
160.675703
 20
243.810517
 30
0.0
 40
6.666733999999999
 50
359.99927000000002
 51
89.99924
  0
ARC
  5
188
  8
0
 62
     7
 10
160.67578900000001
 20
243.81043299999999
 30
0.0
 40
6.6666479999999986
 50
270.00002000000001
 51
359.99999000000003
  0
ARC
  5
189
  8
0
 62
     7
 10
129.008961
 20
243.81043099999999
 30
0.0
 40
6.666644999999999
 50
179.99996999999999
 51
270.00002000000001
  0
ARC
  5
18A
  8
0
 62
     7
 10
129.009049
 20
243.810517
 30
0.0
 40
6.666733999999999
 50
90.000740000000008
 51
180.00075000000001
  0
ARC
  5
18B
  8
0
  6
AIGENLINE002
 62
     7
 10
158.70066800000001
 20
198.70910699999999
 30
0.0
 40
27.032025000000001
 50
269.9847529999999
 51
274.61457300000001
  0
ARC
  5
18C
  8
0
  6
AIGENLINE002
 62
     7
 10
159.41013799999999
 20
188.71322000000001
 30
0.0
 40
17.011738000000001
 50
274.94134700000001
 51
281.23063200000001
  0
ARC
  5
18D
  8
0
  6
AIGENLINE002
 62
     7
 10
160.360727
 20
183.62075300000001
 30
0.0
 40
11.831799
 50
281.51835499999999
 51
291.8214779999999
  0
ARC
  5
18E
  8
0
  6
AIGENLINE002
 62
     7
 10
161.15609599999999
 20
181.40597600000001
 30
0.0
 40
9.4804469999999998
 50
292.33452
 51
316.16302100000001
  0
ARC
  5
18F
  8
0
  6
AIGENLINE002
 62
     7
 10
159.47548599999999
 20
183.134715
 30
0.0
 40
11.890323
 50
315.76327099999997
 51
321.75536299999999
  0
ARC
  5
190
  8
0
  6
AIGENLINE002
 62
     7
 10
130.73790199999999
 20
185.87017800000001
 30
0.0
 40
0.8596860000000001
 50
192.67913899999999
 51
268.67909900000001
  0
ARC
  5
191
  8
0
  6
AIGENLINE002
 62
     7
 10
143.58459999999999
 20
198.70910699999999
 30
0.0
 40
27.032025000000001
 50
265.385447
 51
270.01526699999999
  0
ARC
  5
192
  8
0
  6
AIGENLINE002
 62
     7
 10
142.87528800000001
 20
188.71419299999999
 30
0.0
 40
17.012720999999999
 50
258.769541
 51
265.05842699999999
  0
ARC
  5
193
  8
0
  6
AIGENLINE002
 62
     7
 10
141.92431400000001
 20
183.61964599999999
 30
0.0
 40
11.830667
 50
248.17781500000001
 51
258.48172599999998
  0
ARC
  5
194
  8
0
  6
AIGENLINE002
 62
     7
 10
141.12860800000001
 20
181.40449899999999
 30
0.0
 40
9.4788460000000008
 50
223.83391599999999
 51
247.6655669999999
  0
ARC
  5
195
  8
0
  6
AIGENLINE002
 62
     7
 10
142.815011
 20
183.138015
 30
0.0
 40
11.896201
 50
218.24257800000001
 51
224.23136400000001
  0
ARC
  5
196
  8
0
 62
     7
 10
129.058966
 20
187.92845600000001
 30
0.0
 40
0.416367
 50
172.11442700000001
 51
188.86218199999999
  0
ARC
  5
197
  8
0
 62
     7
 10
129.05780100000001
 20
187.74609599999999
 30
0.0
 40
0.597776
 50
89.959138000000024
 51
104.734816
  0
ARC
  5
198
  8
0
 62
     7
 10
129.00443200000001
 20
187.98872900000001
 30
0.0
 40
0.349694
 50
106.389762
 51
164.98412999999999
  0
ARC
  5
199
  8
0
 62
     7
 10
129.24816299999989
 20
187.90535299999999
 30
0.0
 40
0.606953
 50
163.343099
 51
172.404449
  0
LINE
  5
19A
  8
0
 62
     7
 10
129.05799999999999
 20
188.34399999999999
 30
0.0
 11
173.215
 21
188.34399999999999
 31
0.0
  0
ARC
  5
19B
  8
0
 62
     7
 10
173.199532
 20
187.70346699999999
 30
0.0
 40
0.6421710000000001
 50
81.365226000000007
 51
84.987830000000017
  0
LINE
  5
19C
  8
0
 62
     7
 10
173.25299999999999
 20
188.34299999999999
 30
0.0
 11
173.245
 21
188.34399999999999
 31
0.0
  0
LINE
  5
19D
  8
0
 62
     7
 10
173.245
 20
188.34399999999999
 30
0.0
 11
173.227
 21
188.34399999999999
 31
0.0
  0
LINE
  5
19E
  8
0
 62
     7
 10
173.21700000000001
 20
188.34399999999999
 30
0.0
 11
173.215
 21
188.34399999999999
 31
0.0
  0
LINE
  5
19F
  8
0
 62
     7
 10
173.21299999999999
 20
188.34399999999999
 30
0.0
 11
173.215
 21
188.34399999999999
 31
0.0
  0
LINE
  5
1A1
  8
0
 62
     7
 10
173.25299999999999
 20
188.34299999999999
 30
0.0
 11
173.25599999999989
 21
188.34299999999999
 31
0.0
  0
LINE
  5
1A2
  8
0
 62
     7
 10
173.29599999999999
 20
188.33799999999999
 30
0.0
 11
173.33699999999999
 21
188.32900000000001
 31
0.0
  0
LINE
  5
1A3
  8
0
 62
     7
 10
173.33699999999999
 20
188.32900000000001
 30
0.0
 11
173.37700000000001
 21
188.31599999999989
 31
0.0
  0
LINE
  5
1A4
  8
0
 62
     7
 10
173.37700000000001
 20
188.31599999999989
 30
0.0
 11
173.41399999999999
 21
188.30000000000001
 31
0.0
  0
LINE
  5
1A5
  8
0
 62
     7
 10
173.41399999999999
 20
188.30000000000001
 30
0.0
 11
173.44900000000001
 21
188.28
 31
0.0
  0
LINE
  5
1A6
  8
0
 62
     7
 10
173.44900000000001
 20
188.28
 30
0.0
 11
173.482
 21
188.25700000000001
 31
0.0
  0
LINE
  5
1A7
  8
0
 62
     7
 10
173.482
 20
188.25700000000001
 30
0.0
 11
173.512
 21
188.23099999999999
 31
0.0
  0
LINE
  5
1A8
  8
0
 62
     7
 10
173.512
 20
188.23099999999999
 30
0.0
 11
173.53999999999999
 21
188.203
 31
0.0
  0
LINE
  5
1A9
  8
0
 62
     7
 10
173.53999999999999
 20
188.203
 30
0.0
 11
173.56399999999999
 21
188.172
 31
0.0
  0
LINE
  5
1AA
  8
0
 62
     7
 10
173.56399999999999
 20
188.172
 30
0.0
 11
173.58600000000001
 21
188.13900000000001
 31
0.0
  0
LINE
  5
1AB
  8
0
 62
     7
 10
173.58600000000001
 20
188.13900000000001
 30
0.0
 11
173.60499999999999
 21
188.10299999999989
 31
0.0
  0
LINE
  5
1AC
  8
0
 62
     7
 10
173.60499999999999
 20
188.10299999999989
 30
0.0
 11
173.62
 21
188.06599999999989
 31
0.0
  0
LINE
  5
1AD
  8
0
 62
     7
 10
173.62
 20
188.06599999999989
 30
0.0
 11
173.631
 21
188.02799999999999
 31
0.0
  0
LINE
  5
1AE
  8
0
 62
     7
 10
173.631
 20
188.02799999999999
 30
0.0
 11
173.63900000000001
 21
187.988
 31
0.0
  0
LINE
  5
1AF
  8
0
 62
     7
 10
173.63900000000001
 20
187.988
 30
0.0
 11
173.643
 21
187.94800000000001
 31
0.0
  0
LINE
  5
1B0
  8
0
 62
     7
 10
173.643
 20
187.94800000000001
 30
0.0
 11
173.643
 21
187.90599999999989
 31
0.0
  0
LINE
  5
1B1
  8
0
 62
     7
 10
173.643
 20
187.90599999999989
 30
0.0
 11
173.63800000000001
 21
187.864
 31
0.0
  0
ARC
  5
1B2
  8
0
 62
     7
 10
462.17785099999992
 20
142.735288
 30
0.0
 40
292.04768300000001
 50
171.11066199999999
 51
171.35904400000001
  0
ARC
  5
1B3
  8
0
 62
     7
 10
864.81610399999988
 20
80.801338999999984
 30
0.0
 40
699.42115899999988
 50
171.298598
 51
171.471746
  0
ARC
  5
1B4
  8
0
 62
     7
 10
-607.12489500000004
 20
302.74068
 30
0.0
 40
789.15824900000007
 50
351.331118
 51
351.38455199999999
  0
ARC
  5
1B5
  8
0
 62
     7
 10
-211.907983
 20
243.140501
 30
0.0
 40
389.473705
 50
351.04929399999997
 51
351.23559100000011
  0
ARC
  5
1B6
  8
0
 62
     7
 10
34.743192000000001
 20
204.49354600000001
 30
0.0
 40
139.813378
 50
350.39582799999999
 51
350.96782200000001
  0
ARC
  5
1B7
  8
0
 62
     7
 10
72.386351000000005
 20
198.22125299999999
 30
0.0
 40
101.651402
 50
349.60556700000001
 51
350.341703
  0
ARC
  5
1B8
  8
0
 62
     7
 10
109.821603
 20
191.42668499999999
 30
0.0
 40
63.604638999999999
 50
347.45717500000001
 51
349.54148300000003
  0
ARC
  5
1B9
  8
0
 62
     7
 10
130.432592
 20
186.949443
 30
0.0
 40
42.513364999999993
 50
345.54742299999998
 51
347.31473900000009
  0
ARC
  5
1BA
  8
0
 62
     7
 10
136.22181
 20
185.50547900000001
 30
0.0
 40
36.546996
 50
343.95811099999997
 51
345.47437400000001
  0
ARC
  5
1BB
  8
0
 62
     7
 10
145.67008799999999
 20
182.83710099999999
 30
0.0
 40
26.729296000000001
 50
339.1312759999999
 51
343.85850599999998
  0
ARC
  5
1BC
  8
0
 62
     7
 10
154.16395
 20
179.70277899999999
 30
0.0
 40
17.676372000000001
 50
332.61192999999997
 51
338.81671899999998
  0
ARC
  5
1BD
  8
0
 62
     7
 10
158.88173
 20
177.329849
 30
0.0
 40
12.395981000000001
 50
324.02997499999998
 51
332.31935399999998
  0
ARC
  5
1BE
  8
0
 62
     7
 10
162.38972899999999
 20
174.864079
 30
0.0
 40
8.1088320000000014
 50
305.75009699999998
 51
323.57170000000002
  0
ARC
  5
1BF
  8
0
 62
     7
 10
162.79448099999999
 20
174.445087
 30
0.0
 40
7.5327779999999986
 50
284.61529999999999
 51
305.11352299999999
  0
ARC
  5
1C0
  8
0
  6
AIGENLINE002
 62
     7
 10
171.54814400000001
 20
185.86921899999999
 30
0.0
 40
0.858717
 50
271.293521
 51
347.37191899999999
  0
ARC
  5
1C1
  8
0
  6
AIGENLINE002
 62
     7
 10
173.22977499999999
 20
187.82327100000001
 30
0.0
 40
0.52081
 50
91.627376999999996
 51
115.640004
  0
ARC
  5
1C2
  8
0
  6
AIGENLINE002
 62
     7
 10
173.17315600000001
 20
187.98856900000001
 30
0.0
 40
0.347894
 50
119.01549300000001
 51
164.95075600000001
  0
ARC
  5
1C3
  8
0
  6
AIGENLINE002
 62
     7
 10
173.40860599999999
 20
187.897941
 30
0.0
 40
0.5993800000000001
 50
162.42766700000001
 51
170.124585
  0
LINE
  5
1C4
  8
0
  6
AIGENLINE002
 62
     7
 10
171.56800000000001
 20
185.011
 30
0.0
 11
130.71799999999999
 21
185.011
 31
0.0
  0
ARC
  5
1C5
  8
0
  6
AIGENLINE002
 62
     7
 10
-54.155855000000003
 20
228.07227499999999
 30
0.0
 40
230.483732
 50
349.44986399999999
 51
349.98776900000001
  0
ARC
  5
1C6
  8
0
  6
AIGENLINE002
 62
     7
 10
89.691206999999991
 20
201.64760699999999
 30
0.0
 40
84.230917000000005
 50
348.175048
 51
349.20508999999998
  0
ARC
  5
1C7
  8
0
  6
AIGENLINE002
 62
     7
 10
119.559051
 20
195.53182899999999
 30
0.0
 40
53.743831000000007
 50
346.46724799999998
 51
348.03155400000003
  0
ARC
  5
1C8
  8
0
  6
AIGENLINE002
 62
     7
 10
134.552843
 20
191.99774099999999
 30
0.0
 40
38.339409000000003
 50
344.43695400000001
 51
346.35875700000003
  0
ARC
  5
1C9
  8
0
  6
AIGENLINE002
 62
     7
 10
143.11184399999999
 20
189.63717199999999
 30
0.0
 40
29.460888000000001
 50
341.89327500000002
 51
344.39349399999998
  0
ARC
  5
1CA
  8
0
  6
AIGENLINE002
 62
     7
 10
147.93175500000001
 20
188.098197
 30
0.0
 40
24.401392999999999
 50
339.06577499999997
 51
341.810607
  0
ARC
  5
1CB
  8
0
  6
AIGENLINE002
 62
     7
 10
151.92757800000001
 20
186.6081669999999
 30
0.0
 40
20.136980000000001
 50
335.9702069999999
 51
338.96329800000001
  0
ARC
  5
1CC
  8
0
  6
AIGENLINE002
 62
     7
 10
155.25822600000001
 20
185.123955
 30
0.0
 40
16.490599
 50
332.31178899999998
 51
335.967781
  0
ARC
  5
1CD
  8
0
  6
AIGENLINE002
 62
     7
 10
157.14523199999999
 20
184.134244
 30
0.0
 40
14.359795999999999
 50
328.11176
 51
332.31004300000001
  0
ARC
  5
1CE
  8
0
  6
AIGENLINE002
 62
     7
 10
158.89442
 20
183.05325400000001
 30
0.0
 40
12.303547999999999
 50
323.72871500000002
 51
328.08295099999998
  0
ARC
  5
1CF
  8
0
  6
AIGENLINE002
 62
     7
 10
128.90588399999999
 20
187.902368
 30
0.0
 40
0.570172
 50
9.934806
 51
25.049030999999999
  0
ARC
  5
1D0
  8
0
  6
AIGENLINE002
 62
     7
 10
129.10533000000001
 20
187.98454899999999
 30
0.0
 40
0.354831
 50
26.662745000000001
 51
82.955894999999998
  0
ARC
  5
1D1
  8
0
  6
AIGENLINE002
 62
     7
 10
129.05556100000001
 20
187.744654
 30
0.0
 40
0.5993520000000001
 50
81.046070999999998
 51
88.789970999999994
  0
LINE
  5
1D2
  8
0
 62
     7
 10
162.92599999999999
 20
167.0379999999999
 30
0.0
 11
139.35900000000001
 21
167.0379999999999
 31
0.0
  0
LINE
  5
1D3
  8
0
 62
     7
 10
90.0946
 20
167.0379999999999
 30
0.0
 11
41.527799999999992
 21
167.0379999999999
 31
0.0
  0
LINE
  5
1D4
  8
0
 62
     7
 10
163.976
 20
165.84399999999999
 30
0.0
 11
138.309
 21
165.84399999999999
 31
0.0
  0
ARC
  5
1D5
  8
0
 62
     7
 10
-201.143879
 20
136.28410199999999
 30
0.0
 40
333.80037399999998
 50
8.6718740000000007
 51
8.8891969999999993
  0
ARC
  5
1D6
  8
0
 62
     7
 10
-891.65838200000007
 20
31.106694000000001
 30
0.0
 40
1032.279
 50
8.5469170000000005
 51
8.6642309999999991
  0
ARC
  5
1D7
  8
0
 62
     7
 10
519.266435
 20
243.627925
 30
0.0
 40
394.56168700000001
 50
188.61525900000001
 51
188.722139
  0
ARC
  5
1D8
  8
0
 62
     7
 10
360.21408000000002
 20
219.14479499999999
 30
0.0
 40
233.63603900000001
 50
188.70229800000001
 51
189.012857
  0
ARC
  5
1D9
  8
0
 62
     7
 10
267.54242099999999
 20
204.49354600000001
 30
0.0
 40
139.813378
 50
189.03219799999991
 51
189.60419200000001
  0
ARC
  5
1DA
  8
0
 62
     7
 10
215.849626
 20
195.737256
 30
0.0
 40
87.384209999999996
 50
189.59822099999991
 51
190.45454799999999
  0
ARC
  5
1DB
  8
0
 62
     7
 10
192.46401
 20
191.42668499999999
 30
0.0
 40
63.604638999999999
 50
190.45853700000001
 51
192.542845
  0
ARC
  5
1DC
  8
0
 62
     7
 10
172.554303
 20
187.107383
 30
0.0
 40
43.23221199999999
 50
192.685395
 51
194.423216
  0
ARC
  5
1DD
  8
0
 62
     7
 10
166.063458
 20
185.50547900000001
 30
0.0
 40
36.546996
 50
194.52564599999999
 51
196.041909
  0
ARC
  5
1DE
  8
0
 62
     7
 10
156.61518000000001
 20
182.83710099999999
 30
0.0
 40
26.729296000000001
 50
196.141514
 51
200.86874299999999
  0
ARC
  5
1DF
  8
0
 62
     7
 10
148.121318
 20
179.70277899999999
 30
0.0
 40
17.676372000000001
 50
201.183301
 51
207.38809000000001
  0
ARC
  5
1E0
  8
0
 62
     7
 10
143.40353899999999
 20
177.329849
 30
0.0
 40
12.395981000000001
 50
207.680666
 51
215.970044
  0
ARC
  5
1E1
  8
0
 62
     7
 10
139.89426399999999
 20
174.863134
 30
0.0
 40
8.1072439999999997
 50
216.428304
 51
234.25408100000001
  0
ARC
  5
1E2
  8
0
 62
     7
 10
139.491929
 20
174.44705400000001
 30
0.0
 40
7.5349690000000002
 50
234.888801
 51
255.38009299999999
  0
LINE
  5
1E3
  8
0
 62
     7
 10
138.19499999999999
 20
166.495
 30
0.0
 11
138.309
 21
165.84399999999999
 31
0.0
  0
ARC
  5
1E4
  8
0
 62
     7
 10
137.33237
 20
166.19930099999999
 30
0.0
 40
0.9906069999999999
 50
57.170724000000007
 51
74.901411999999993
  0
ARC
  5
1E5
  8
0
 62
     7
 10
137.453746
 20
166.422158
 30
0.0
 40
0.7377810000000001
 50
16.708447
 51
55.708330000000011
  0
ARC
  5
1E6
  8
0
 62
     7
 10
137.17414500000001
 20
166.31759700000001
 30
0.0
 40
1.0358270000000001
 50
9.8580290000000002
 51
17.801582
  0
LINE
  5
1E7
  8
0
 62
     7
 10
164.09100000000001
 20
166.495
 30
0.0
 11
163.976
 21
165.84399999999999
 31
0.0
  0
ARC
  5
1E8
  8
0
 62
     7
 10
164.953475
 20
166.198452
 30
0.0
 40
0.991488
 50
105.09874599999991
 51
122.817593
  0
ARC
  5
1E9
  8
0
 62
     7
 10
164.831625
 20
166.422223
 30
0.0
 40
0.737634
 50
124.283787
 51
163.29333399999999
  0
ARC
  5
1EA
  8
0
 62
     7
 10
165.10767000000001
 20
166.31929099999999
 30
0.0
 40
1.031795
 50
162.22531699999999
 51
170.198531
  0
ARC
  5
1EB
  8
0
  6
AIGENLINE002
 62
     7
 10
54.587452999999996
 20
225.93595300000001
 30
0.0
 40
54.258871999999997
 50
260.57310999999999
 51
269.98482000000001
  0
ARC
  5
1EC
  8
0
  6
AIGENLINE002
 62
     7
 10
51.951788999999998
 20
209.00959599999999
 30
0.0
 40
37.129804999999998
 50
255.178316
 51
260.307256
  0
ARC
  5
1ED
  8
0
  6
AIGENLINE002
 62
     7
 10
49.240400000000001
 20
198.294265
 30
0.0
 40
26.077680000000001
 50
249.92798999999999
 51
254.9147990000001
  0
ARC
  5
1EE
  8
0
  6
AIGENLINE002
 62
     7
 10
46.860629999999993
 20
191.57799900000001
 30
0.0
 40
18.952736000000002
 50
244.35849099999999
 51
249.71697
  0
LINE
  5
1EF
  8
0
 62
     7
 10
109.857
 20
224.38
 30
0.0
 11
109.265
 21
222.16900000000001
 31
0.0
  0
LINE
  5
1F0
  8
0
 62
     7
 10
109.265
 20
222.16900000000001
 30
0.0
 11
108.672
 21
224.38
 31
0.0
  0
LINE
  5
1F1
  8
0
 62
     7
 10
108.672
 20
224.38
 30
0.0
 11
109.857
 21
224.38
 31
0.0
  0
LINE
  5
1F2
  8
0
 62
     7
 10
108.672
 20
263.291
 30
0.0
 11
109.265
 21
265.50200000000001
 31
0.0
  0
LINE
  5
1F3
  8
0
 62
     7
 10
109.265
 20
265.50200000000001
 30
0.0
 11
109.857
 21
263.291
 31
0.0
  0
LINE
  5
1F4
  8
0
 62
     7
 10
109.857
 20
263.291
 30
0.0
 11
108.672
 21
263.291
 31
0.0
  0
LINE
  5
1F5
  8
0
 62
     7
 10
109.265
 20
222.16900000000001
 30
0.0
 11
109.265
 21
265.50200000000001
 31
0.0
  0
LINE
  5
1F6
  8
0
 62
     7
 10
109.965
 20
222.16900000000001
 30
0.0
 11
79.000299999999996
 21
222.16900000000001
 31
0.0
  0
LINE
  5
1F7
  8
0
 62
     7
 10
109.965
 20
265.50200000000001
 30
0.0
 11
79.000299999999996
 21
265.50200000000001
 31
0.0
  0
LINE
  5
1F8
  8
0
 62
     7
 10
123.702
 20
230.78899999999999
 30
0.0
 11
129.23500000000001
 21
230.78899999999999
 31
0.0
  0
LINE
  5
1F9
  8
0
 62
     7
 10
159.63399999999999
 20
256.01900000000001
 30
0.0
 11
165.07499999999999
 21
256.01900000000001
 31
0.0
  0
LINE
  5
1FA
  8
0
 62
     7
 10
136.137
 20
261.95100000000002
 30
0.0
 11
133.92599999999999
 21
261.35899999999998
 31
0.0
  0
LINE
  5
1FB
  8
0
 62
     7
 10
133.92599999999999
 20
261.35899999999998
 30
0.0
 11
136.137
 21
260.76600000000002
 31
0.0
  0
LINE
  5
1FC
  8
0
 62
     7
 10
136.137
 20
260.76600000000002
 30
0.0
 11
136.137
 21
261.95100000000002
 31
0.0
  0
LINE
  5
1FD
  8
0
 62
     7
 10
153.548
 20
260.76600000000002
 30
0.0
 11
155.75899999999999
 21
261.35899999999998
 31
0.0
  0
LINE
  5
1FE
  8
0
 62
     7
 10
155.75899999999999
 20
261.35899999999998
 30
0.0
 11
153.548
 21
261.95100000000002
 31
0.0
  0
LINE
  5
1FF
  8
0
 62
     7
 10
153.548
 20
261.95100000000002
 30
0.0
 11
153.548
 21
260.76600000000002
 31
0.0
  0
LINE
  5
200
  8
0
 62
     7
 10
133.92599999999999
 20
261.35899999999998
 30
0.0
 11
155.75899999999999
 21
261.35899999999998
 31
0.0
  0
LINE
  5
201
  8
0
 62
     7
 10
133.92599999999999
 20
262.05900000000003
 30
0.0
 11
133.92599999999999
 21
237.84399999999999
 31
0.0
  0
LINE
  5
202
  8
0
 62
     7
 10
144.84200000000001
 20
262.05900000000003
 30
0.0
 11
144.84200000000001
 21
253.33500000000001
 31
0.0
  0
LINE
  5
203
  8
0
 62
     7
 10
155.75899999999999
 20
262.05900000000003
 30
0.0
 11
155.75899999999999
 21
254.511
 31
0.0
  0
LINE
  5
204
  8
0
 62
     7
 10
68.022499999999994
 20
274.85300000000001
 30
0.0
 11
65.811000000000007
 21
274.26099999999991
 31
0.0
  0
LINE
  5
205
  8
0
 62
     7
 10
65.811000000000007
 20
274.26099999999991
 30
0.0
 11
68.022499999999994
 21
273.66800000000001
 31
0.0
  0
LINE
  5
206
  8
0
 62
     7
 10
68.022499999999994
 20
273.66800000000001
 30
0.0
 11
68.022499999999994
 21
274.85300000000001
 31
0.0
  0
LINE
  5
207
  8
0
 62
     7
 10
98.599900000000005
 20
273.66800000000001
 30
0.0
 11
100.81100000000001
 21
274.26099999999991
 31
0.0
  0
LINE
  5
208
  8
0
 62
     7
 10
100.81100000000001
 20
274.26099999999991
 30
0.0
 11
98.599900000000005
 21
274.85300000000001
 31
0.0
  0
LINE
  5
209
  8
0
 62
     7
 10
98.599900000000005
 20
274.85300000000001
 30
0.0
 11
98.599900000000005
 21
273.66800000000001
 31
0.0
  0
LINE
  5
20A
  8
0
 62
     7
 10
65.811000000000007
 20
274.26099999999991
 30
0.0
 11
100.81100000000001
 21
274.26099999999991
 31
0.0
  0
LINE
  5
20B
  8
0
 62
     7
 10
65.811000000000007
 20
274.96100000000001
 30
0.0
 11
65.811000000000007
 21
269.55399999999997
 31
0.0
  0
LINE
  5
20C
  8
0
 62
     7
 10
100.81100000000001
 20
274.96100000000001
 30
0.0
 11
100.81100000000001
 21
248.34399999999999
 31
0.0
  0
LINE
  5
20D
  8
0
 62
     7
 10
116.913
 20
223.547
 30
0.0
 11
116.321
 21
221.33500000000001
 31
0.0
  0
LINE
  5
20E
  8
0
 62
     7
 10
116.321
 20
221.33500000000001
 30
0.0
 11
115.72799999999999
 21
223.547
 31
0.0
  0
LINE
  5
20F
  8
0
 62
     7
 10
115.72799999999999
 20
223.547
 30
0.0
 11
116.913
 21
223.547
 31
0.0
  0
LINE
  5
210
  8
0
 62
     7
 10
115.72799999999999
 20
264.12400000000002
 30
0.0
 11
116.321
 21
266.33499999999998
 31
0.0
  0
LINE
  5
211
  8
0
 62
     7
 10
116.321
 20
266.33499999999998
 30
0.0
 11
116.913
 21
264.12400000000002
 31
0.0
  0
LINE
  5
212
  8
0
 62
     7
 10
116.913
 20
264.12400000000002
 30
0.0
 11
115.72799999999999
 21
264.12400000000002
 31
0.0
  0
LINE
  5
213
  8
0
 62
     7
 10
116.321
 20
221.33500000000001
 30
0.0
 11
116.321
 21
266.33600000000001
 31
0.0
  0
LINE
  5
214
  8
0
 62
     7
 10
117.021
 20
221.33500000000001
 30
0.0
 11
81.781199999999984
 21
221.33500000000001
 31
0.0
  0
LINE
  5
215
  8
0
 62
     7
 10
117.021
 20
266.33600000000001
 30
0.0
 11
81.781199999999984
 21
266.33600000000001
 31
0.0
  0
ARC
  5
216
  8
0
 62
     7
 10
65.811040000000006
 20
243.81043299999999
 30
0.0
 40
6.9167630000000004
 50
270.00002000000001
 51
359.99999000000003
  0
ARC
  5
217
  8
0
 62
     7
 10
65.811040000000006
 20
243.81043099999999
 30
0.0
 40
6.9167610000000002
 50
179.99996999999999
 51
270.00002000000001
  0
ARC
  5
218
  8
0
 62
     7
 10
65.811043000000012
 20
243.81043099999999
 30
0.0
 40
6.9167630000000004
 50
90.0
 51
179.99996999999999
  0
ARC
  5
219
  8
0
 62
     7
 10
65.811040000000006
 20
243.81043099999999
 30
0.0
 40
6.9167630000000004
 50
0.00001
 51
89.999980000000008
  0
ARC
  5
21A
  8
0
 62
     7
 10
65.811040000000006
 20
243.81043299999999
 30
0.0
 40
6.2501329999999991
 50
270.00002000000001
 51
359.99999000000003
  0
ARC
  5
21B
  8
0
 62
     7
 10
65.811212999999995
 20
243.810259
 30
0.0
 40
6.2499580000000003
 50
179.998391
 51
269.99844100000001
  0
ARC
  5
21C
  8
0
 62
     7
 10
65.811128999999994
 20
243.810517
 30
0.0
 40
6.2498740000000002
 50
90.000789999999995
 51
180.0008
  0
ARC
  5
21D
  8
0
 62
     7
 10
65.811126999999999
 20
243.81034500000001
 30
0.0
 40
6.2500470000000004
 50
0.000799
 51
90.000770000000003
  0
ARC
  5
21E
  8
0
 62
     7
 10
83.311203000000006
 20
243.81043299999999
 30
0.0
 40
3.8333829999999991
 50
270.00002000000001
 51
359.99999000000003
  0
ARC
  5
21F
  8
0
 62
     7
 10
83.311203000000006
 20
243.81043099999999
 30
0.0
 40
3.8333809999999988
 50
179.99996999999999
 51
270.00002000000001
  0
ARC
  5
220
  8
0
 62
     7
 10
83.311204000000004
 20
243.81043099999999
 30
0.0
 40
3.8333829999999991
 50
90.0
 51
179.99996999999999
  0
ARC
  5
221
  8
0
 62
     7
 10
83.311203000000006
 20
243.81043099999999
 30
0.0
 40
3.8333829999999991
 50
0.00001
 51
89.999980000000008
  0
ARC
  5
222
  8
0
 62
     7
 10
65.811041000000003
 20
243.81043299999999
 30
0.0
 40
3.8333829999999991
 50
270.00002000000001
 51
359.99999000000003
  0
ARC
  5
223
  8
0
 62
     7
 10
65.811041000000003
 20
243.81043099999999
 30
0.0
 40
3.8333809999999988
 50
179.99996999999999
 51
270.00002000000001
  0
ARC
  5
224
  8
0
 62
     7
 10
65.811042
 20
243.81043099999999
 30
0.0
 40
3.8333829999999991
 50
90.0
 51
179.99996999999999
  0
ARC
  5
225
  8
0
 62
     7
 10
65.811041000000003
 20
243.81043099999999
 30
0.0
 40
3.8333829999999991
 50
0.00001
 51
89.999980000000008
  0
LINE
  5
226
  8
0
 62
     7
 10
76.644599999999997
 20
265.185
 30
0.0
 11
76.644599999999997
 21
222.453
 31
0.0
  0
LINE
  5
227
  8
0
  6
AIGENLINE001
 62
     7
 10
155.75899999999999
 20
253.81100000000001
 30
0.0
 11
155.75899999999999
 21
250.46700000000001
 31
0.0
  0
LINE
  5
228
  8
0
  6
AIGENLINE001
 62
     7
 10
133.92599999999999
 20
237.14400000000001
 30
0.0
 11
133.92599999999999
 21
233.80000000000001
 31
0.0
  0
LINE
  5
229
  8
0
  6
AIGENLINE001
 62
     7
 10
144.84200000000001
 20
252.63499999999999
 30
0.0
 11
144.84200000000001
 21
234.113
 31
0.0
  0
LINE
  5
22A
  8
0
  6
AIGENLINE001
 62
     7
 10
119.40000000000001
 20
243.81
 30
0.0
 11
169.92599999999999
 21
243.81
 31
0.0
  0
LINE
  5
22B
  8
0
  6
AIGENLINE001
 62
     7
 10
83.311199999999999
 20
249.62700000000001
 30
0.0
 11
83.311199999999999
 21
237.98500000000001
 31
0.0
  0
LINE
  5
22C
  8
0
 62
     7
 10
99.977999999999994
 20
239.27699999999999
 30
0.0
 11
99.977999999999994
 21
205.244
 31
0.0
  0
LINE
  5
22D
  8
0
 62
     7
 10
76.644599999999997
 20
221.75299999999999
 30
0.0
 11
76.644599999999997
 21
205.244
 31
0.0
  0
LINE
  5
22E
  8
0
 62
     7
 10
92.817999999999998
 20
182.79900000000001
 30
0.0
 11
92.225399999999993
 21
185.011
 31
0.0
  0
LINE
  5
22F
  8
0
 62
     7
 10
92.225399999999993
 20
185.011
 30
0.0
 11
91.632900000000006
 21
182.79900000000001
 31
0.0
  0
LINE
  5
230
  8
0
 62
     7
 10
91.632900000000006
 20
182.79900000000001
 30
0.0
 11
92.817999999999998
 21
182.79900000000001
 31
0.0
  0
LINE
  5
231
  8
0
 62
     7
 10
91.632900000000006
 20
190.55600000000001
 30
0.0
 11
92.225399999999993
 21
188.34399999999999
 31
0.0
  0
LINE
  5
232
  8
0
 62
     7
 10
92.225399999999993
 20
188.34399999999999
 30
0.0
 11
92.817999999999998
 21
190.55600000000001
 31
0.0
  0
LINE
  5
233
  8
0
 62
     7
 10
92.817999999999998
 20
190.55600000000001
 30
0.0
 11
91.632900000000006
 21
190.55600000000001
 31
0.0
  0
LINE
  5
234
  8
0
 62
     7
 10
92.225399999999993
 20
193.86600000000001
 30
0.0
 11
92.225399999999993
 21
181.2459999999999
 31
0.0
  0
LINE
  5
235
  8
0
 62
     7
 10
117.001
 20
156.965
 30
0.0
 11
116.408
 21
159.17699999999999
 31
0.0
  0
LINE
  5
236
  8
0
 62
     7
 10
116.408
 20
159.17699999999999
 30
0.0
 11
115.816
 21
156.965
 31
0.0
  0
LINE
  5
237
  8
0
 62
     7
 10
115.816
 20
156.965
 30
0.0
 11
117.001
 21
156.965
 31
0.0
  0
LINE
  5
238
  8
0
 62
     7
 10
117.001
 20
186.12700000000001
 30
0.0
 11
116.408
 21
188.33799999999999
 31
0.0
  0
LINE
  5
239
  8
0
 62
     7
 10
116.408
 20
188.33799999999999
 30
0.0
 11
115.816
 21
186.12700000000001
 31
0.0
  0
LINE
  5
23A
  8
0
 62
     7
 10
115.816
 20
186.12700000000001
 30
0.0
 11
117.001
 21
186.12700000000001
 31
0.0
  0
LINE
  5
23B
  8
0
 62
     7
 10
115.816
 20
167.22200000000001
 30
0.0
 11
116.408
 21
165.011
 31
0.0
  0
LINE
  5
23C
  8
0
 62
     7
 10
116.408
 20
165.011
 30
0.0
 11
117.001
 21
167.22200000000001
 31
0.0
  0
LINE
  5
23D
  8
0
 62
     7
 10
117.001
 20
167.22200000000001
 30
0.0
 11
115.816
 21
167.22200000000001
 31
0.0
  0
LINE
  5
23E
  8
0
 62
     7
 10
116.408
 20
188.33799999999999
 30
0.0
 11
116.408
 21
147.851
 31
0.0
  0
LINE
  5
23F
  8
0
 62
     7
 10
148.672
 20
186.13200000000001
 30
0.0
 11
148.07900000000001
 21
188.34399999999999
 31
0.0
  0
LINE
  5
240
  8
0
 62
     7
 10
148.07900000000001
 20
188.34399999999999
 30
0.0
 11
147.48699999999999
 21
186.13200000000001
 31
0.0
  0
LINE
  5
241
  8
0
 62
     7
 10
147.48699999999999
 20
186.13200000000001
 30
0.0
 11
148.672
 21
186.13200000000001
 31
0.0
  0
LINE
  5
242
  8
0
 62
     7
 10
147.48699999999999
 20
173.88900000000001
 30
0.0
 11
148.07900000000001
 21
171.67699999999999
 31
0.0
  0
LINE
  5
243
  8
0
 62
     7
 10
148.07900000000001
 20
171.67699999999999
 30
0.0
 11
148.672
 21
173.88900000000001
 31
0.0
  0
LINE
  5
244
  8
0
 62
     7
 10
148.672
 20
173.88900000000001
 30
0.0
 11
147.48699999999999
 21
173.88900000000001
 31
0.0
  0
LINE
  5
245
  8
0
 62
     7
 10
148.07900000000001
 20
188.34399999999999
 30
0.0
 11
148.07900000000001
 21
171.67699999999999
 31
0.0
  0
LINE
  5
246
  8
0
 62
     7
 10
110.245
 20
186.12700000000001
 30
0.0
 11
109.65300000000001
 21
188.33799999999999
 31
0.0
  0
LINE
  5
247
  8
0
 62
     7
 10
109.65300000000001
 20
188.33799999999999
 30
0.0
 11
109.06
 21
186.12700000000001
 31
0.0
  0
LINE
  5
248
  8
0
 62
     7
 10
109.06
 20
186.12700000000001
 30
0.0
 11
110.245
 21
186.12700000000001
 31
0.0
  0
LINE
  5
249
  8
0
 62
     7
 10
109.06
 20
168.05500000000001
 30
0.0
 11
109.65300000000001
 21
165.84399999999999
 31
0.0
  0
LINE
  5
24A
  8
0
 62
     7
 10
109.65300000000001
 20
165.84399999999999
 30
0.0
 11
110.245
 21
168.05500000000001
 31
0.0
  0
LINE
  5
24B
  8
0
 62
     7
 10
110.245
 20
168.05500000000001
 30
0.0
 11
109.06
 21
168.05500000000001
 31
0.0
  0
LINE
  5
24C
  8
0
 62
     7
 10
109.65300000000001
 20
188.33799999999999
 30
0.0
 11
109.65300000000001
 21
165.84399999999999
 31
0.0
  0
LINE
  5
24D
  8
0
  6
AIGENLINE001
 62
     7
 10
162.34299999999999
 20
247.511
 30
0.0
 11
162.34299999999999
 21
240.22300000000001
 31
0.0
  0
LINE
  5
24E
  8
0
 62
     7
 10
83.311199999999999
 20
237.285
 30
0.0
 11
83.311199999999999
 21
212.447
 31
0.0
  0
LINE
  5
24F
  8
0
 62
     7
 10
72.344700000000003
 20
165.011
 30
0.0
 11
117.108
 21
165.011
 31
0.0
  0
LINE
  5
250
  8
0
 62
     7
 10
106.164
 20
165.84399999999999
 30
0.0
 11
110.35299999999999
 21
165.84399999999999
 31
0.0
  0
LINE
  5
251
  8
0
 62
     7
 10
106.164
 20
159.17699999999999
 30
0.0
 11
117.108
 21
159.17699999999999
 31
0.0
  0
LINE
  5
252
  8
0
 62
     7
 10
101.611
 20
188.33799999999999
 30
0.0
 11
117.108
 21
188.33799999999999
 31
0.0
  0
LINE
  5
253
  8
0
 62
     7
 10
140.52099999999999
 20
151.40899999999999
 30
0.0
 11
138.309
 21
150.81700000000001
 31
0.0
  0
LINE
  5
254
  8
0
 62
     7
 10
138.309
 20
150.81700000000001
 30
0.0
 11
140.52099999999999
 21
150.22399999999999
 31
0.0
  0
LINE
  5
255
  8
0
 62
     7
 10
140.52099999999999
 20
150.22399999999999
 30
0.0
 11
140.52099999999999
 21
151.40899999999999
 31
0.0
  0
LINE
  5
256
  8
0
 62
     7
 10
161.76499999999999
 20
150.22399999999999
 30
0.0
 11
163.976
 21
150.81700000000001
 31
0.0
  0
LINE
  5
257
  8
0
 62
     7
 10
163.976
 20
150.81700000000001
 30
0.0
 11
161.76499999999999
 21
151.40899999999999
 31
0.0
  0
LINE
  5
258
  8
0
 62
     7
 10
161.76499999999999
 20
151.40899999999999
 30
0.0
 11
161.76499999999999
 21
150.22399999999999
 31
0.0
  0
LINE
  5
259
  8
0
 62
     7
 10
138.309
 20
150.81700000000001
 30
0.0
 11
163.976
 21
150.81700000000001
 31
0.0
  0
LINE
  5
25A
  8
0
 62
     7
 10
163.976
 20
165.14400000000001
 30
0.0
 11
163.976
 21
150.11699999999999
 31
0.0
  0
LINE
  5
25B
  8
0
 62
     7
 10
138.309
 20
165.14400000000001
 30
0.0
 11
138.309
 21
150.11699999999999
 31
0.0
  0
LINE
  5
25C
  8
0
 62
     7
 10
153.35400000000001
 20
144.822
 30
0.0
 11
151.143
 21
144.22900000000001
 31
0.0
  0
LINE
  5
25D
  8
0
 62
     7
 10
151.143
 20
144.22900000000001
 30
0.0
 11
153.35400000000001
 21
143.637
 31
0.0
  0
LINE
  5
25E
  8
0
 62
     7
 10
153.35400000000001
 20
143.637
 30
0.0
 11
153.35400000000001
 21
144.822
 31
0.0
  0
LINE
  5
25F
  8
0
 62
     7
 10
171.43100000000001
 20
143.637
 30
0.0
 11
173.643
 21
144.22900000000001
 31
0.0
  0
LINE
  5
260
  8
0
 62
     7
 10
173.643
 20
144.22900000000001
 30
0.0
 11
171.43100000000001
 21
144.822
 31
0.0
  0
LINE
  5
261
  8
0
 62
     7
 10
171.43100000000001
 20
144.822
 30
0.0
 11
171.43100000000001
 21
143.637
 31
0.0
  0
LINE
  5
262
  8
0
 62
     7
 10
151.143
 20
144.22900000000001
 30
0.0
 11
173.643
 21
144.22900000000001
 31
0.0
  0
LINE
  5
263
  8
0
 62
     7
 10
151.143
 20
161.71000000000001
 30
0.0
 11
151.143
 21
155.529
 31
0.0
  0
LINE
  5
264
  8
0
 62
     7
 10
151.143
 20
149.441
 30
0.0
 11
151.143
 21
143.529
 31
0.0
  0
LINE
  5
265
  8
0
 62
     7
 10
173.643
 20
186.52500000000001
 30
0.0
 11
173.643
 21
143.529
 31
0.0
  0
LINE
  5
266
  8
0
 62
     7
 10
42.689100000000003
 20
151.672
 30
0.0
 11
40.477699999999992
 21
151.08000000000001
 31
0.0
  0
LINE
  5
267
  8
0
 62
     7
 10
40.477699999999992
 20
151.08000000000001
 30
0.0
 11
42.689100000000003
 21
150.48699999999999
 31
0.0
  0
LINE
  5
268
  8
0
 62
     7
 10
42.689100000000003
 20
150.48699999999999
 30
0.0
 11
42.689100000000003
 21
151.672
 31
0.0
  0
LINE
  5
269
  8
0
 62
     7
 10
88.933300000000003
 20
150.48699999999999
 30
0.0
 11
91.1447
 21
151.08000000000001
 31
0.0
  0
LINE
  5
26A
  8
0
 62
     7
 10
91.1447
 20
151.08000000000001
 30
0.0
 11
88.933300000000003
 21
151.672
 31
0.0
  0
LINE
  5
26B
  8
0
 62
     7
 10
88.933300000000003
 20
151.672
 30
0.0
 11
88.933300000000003
 21
150.48699999999999
 31
0.0
  0
LINE
  5
26C
  8
0
 62
     7
 10
40.477699999999992
 20
151.08000000000001
 30
0.0
 11
91.1447
 21
151.08000000000001
 31
0.0
  0
LINE
  5
26D
  8
0
 62
     7
 10
40.477699999999992
 20
165.14400000000001
 30
0.0
 11
40.477699999999992
 21
150.38
 31
0.0
  0
LINE
  5
26E
  8
0
 62
     7
 10
91.1447
 20
164.44399999999999
 30
0.0
 11
91.1447
 21
150.38
 31
0.0
  0
LINE
  5
26F
  8
0
 62
     7
 10
124.554
 20
221.67099999999999
 30
0.0
 11
122.342
 21
221.078
 31
0.0
  0
LINE
  5
270
  8
0
 62
     7
 10
122.342
 20
221.078
 30
0.0
 11
124.554
 21
220.48599999999999
 31
0.0
  0
LINE
  5
271
  8
0
 62
     7
 10
124.554
 20
220.48599999999999
 30
0.0
 11
124.554
 21
221.67099999999999
 31
0.0
  0
LINE
  5
272
  8
0
 62
     7
 10
165.131
 20
220.48599999999999
 30
0.0
 11
167.34200000000001
 21
221.078
 31
0.0
  0
LINE
  5
273
  8
0
 62
     7
 10
167.34200000000001
 20
221.078
 30
0.0
 11
165.131
 21
221.67099999999999
 31
0.0
  0
LINE
  5
274
  8
0
 62
     7
 10
165.131
 20
221.67099999999999
 30
0.0
 11
165.131
 21
220.48599999999999
 31
0.0
  0
LINE
  5
275
  8
0
 62
     7
 10
122.342
 20
221.078
 30
0.0
 11
167.34200000000001
 21
221.078
 31
0.0
  0
LINE
  5
276
  8
0
 62
     7
 10
122.342
 20
241.36000000000001
 30
0.0
 11
122.342
 21
220.37799999999999
 31
0.0
  0
LINE
  5
277
  8
0
 62
     7
 10
167.34200000000001
 20
241.36000000000001
 30
0.0
 11
167.34200000000001
 21
220.37799999999999
 31
0.0
  0
LINE
  5
278
  8
0
 62
     7
 10
33.022500000000001
 20
198.983
 30
0.0
 11
30.8111
 21
198.38999999999999
 31
0.0
  0
LINE
  5
279
  8
0
 62
     7
 10
30.8111
 20
198.38999999999999
 30
0.0
 11
33.022500000000001
 21
197.798
 31
0.0
  0
LINE
  5
27A
  8
0
 62
     7
 10
33.022500000000001
 20
197.798
 30
0.0
 11
33.022500000000001
 21
198.983
 31
0.0
  0
LINE
  5
27B
  8
0
 62
     7
 10
98.599900000000005
 20
197.798
 30
0.0
 11
100.81100000000001
 21
198.38999999999999
 31
0.0
  0
LINE
  5
27C
  8
0
 62
     7
 10
100.81100000000001
 20
198.38999999999999
 30
0.0
 11
98.599900000000005
 21
198.983
 31
0.0
  0
LINE
  5
27D
  8
0
 62
     7
 10
98.599900000000005
 20
198.983
 30
0.0
 11
98.599900000000005
 21
197.798
 31
0.0
  0
LINE
  5
27E
  8
0
 62
     7
 10
30.8111
 20
198.38999999999999
 30
0.0
 11
100.81100000000001
 21
198.38999999999999
 31
0.0
  0
LINE
  5
27F
  8
0
 62
     7
 10
33.855499999999999
 20
206.536
 30
0.0
 11
31.644100000000002
 21
205.94399999999999
 31
0.0
  0
LINE
  5
280
  8
0
 62
     7
 10
31.644100000000002
 20
205.94399999999999
 30
0.0
 11
33.855499999999999
 21
205.351
 31
0.0
  0
LINE
  5
281
  8
0
 62
     7
 10
33.855499999999999
 20
205.351
 30
0.0
 11
33.855499999999999
 21
206.536
 31
0.0
  0
LINE
  5
282
  8
0
 62
     7
 10
142.631
 20
260.76600000000002
 30
0.0
 11
144.84200000000001
 21
261.35899999999998
 31
0.0
  0
LINE
  5
283
  8
0
 62
     7
 10
144.84200000000001
 20
261.35899999999998
 30
0.0
 11
142.631
 21
261.95100000000002
 31
0.0
  0
LINE
  5
284
  8
0
 62
     7
 10
142.631
 20
261.95100000000002
 30
0.0
 11
142.631
 21
260.76600000000002
 31
0.0
  0
LINE
  5
285
  8
0
 62
     7
 10
147.054
 20
261.95100000000002
 30
0.0
 11
144.84200000000001
 21
261.35899999999998
 31
0.0
  0
LINE
  5
286
  8
0
 62
     7
 10
144.84200000000001
 20
261.35899999999998
 30
0.0
 11
147.054
 21
260.76600000000002
 31
0.0
  0
LINE
  5
287
  8
0
 62
     7
 10
147.054
 20
260.76600000000002
 30
0.0
 11
147.054
 21
261.95100000000002
 31
0.0
  0
LINE
  5
288
  8
0
 62
     7
 10
97.766599999999997
 20
205.351
 30
0.0
 11
99.977999999999994
 21
205.94399999999999
 31
0.0
  0
LINE
  5
289
  8
0
 62
     7
 10
99.977999999999994
 20
205.94399999999999
 30
0.0
 11
97.766599999999997
 21
206.536
 31
0.0
  0
LINE
  5
28A
  8
0
 62
     7
 10
97.766599999999997
 20
206.536
 30
0.0
 11
97.766599999999997
 21
205.351
 31
0.0
  0
LINE
  5
28B
  8
0
 62
     7
 10
25.721900000000002
 20
205.94399999999999
 30
0.0
 11
105.715
 21
205.94399999999999
 31
0.0
  0
LINE
  5
28C
  8
0
 62
     7
 10
103.023
 20
206.536
 30
0.0
 11
100.81100000000001
 21
205.94399999999999
 31
0.0
  0
LINE
  5
28D
  8
0
 62
     7
 10
100.81100000000001
 20
205.94399999999999
 30
0.0
 11
103.023
 21
205.351
 31
0.0
  0
LINE
  5
28E
  8
0
 62
     7
 10
103.023
 20
205.351
 30
0.0
 11
103.023
 21
206.536
 31
0.0
  0
LINE
  5
28F
  8
0
 62
     7
 10
78.856000000000009
 20
206.536
 30
0.0
 11
76.644599999999997
 21
205.94399999999999
 31
0.0
  0
LINE
  5
290
  8
0
 62
     7
 10
76.644599999999997
 20
205.94399999999999
 30
0.0
 11
78.856000000000009
 21
205.351
 31
0.0
  0
LINE
  5
291
  8
0
 62
     7
 10
78.856000000000009
 20
205.351
 30
0.0
 11
78.856000000000009
 21
206.536
 31
0.0
  0
LINE
  5
292
  8
0
 62
     7
 10
28.599599999999999
 20
205.351
 30
0.0
 11
30.8111
 21
205.94399999999999
 31
0.0
  0
LINE
  5
293
  8
0
 62
     7
 10
30.8111
 20
205.94399999999999
 30
0.0
 11
28.599599999999999
 21
206.536
 31
0.0
  0
LINE
  5
294
  8
0
 62
     7
 10
28.599599999999999
 20
206.536
 30
0.0
 11
28.599599999999999
 21
205.351
 31
0.0
  0
LINE
  5
295
  8
0
 62
     7
 10
74.433099999999996
 20
205.351
 30
0.0
 11
76.644599999999997
 21
205.94399999999999
 31
0.0
  0
LINE
  5
296
  8
0
 62
     7
 10
76.644599999999997
 20
205.94399999999999
 30
0.0
 11
74.433099999999996
 21
206.536
 31
0.0
  0
LINE
  5
297
  8
0
 62
     7
 10
74.433099999999996
 20
206.536
 30
0.0
 11
74.433099999999996
 21
205.351
 31
0.0
  0
LINE
  5
298
  8
0
 62
     7
 10
85.522599999999997
 20
213.74000000000001
 30
0.0
 11
83.311199999999999
 21
213.14699999999999
 31
0.0
  0
LINE
  5
299
  8
0
 62
     7
 10
83.311199999999999
 20
213.14699999999999
 30
0.0
 11
85.522599999999997
 21
212.55500000000001
 31
0.0
  0
LINE
  5
29A
  8
0
 62
     7
 10
85.522599999999997
 20
212.55500000000001
 30
0.0
 11
85.522599999999997
 21
213.74000000000001
 31
0.0
  0
LINE
  5
29B
  8
0
 62
     7
 10
78.856000000000009
 20
213.74000000000001
 30
0.0
 11
76.644599999999997
 21
213.14699999999999
 31
0.0
  0
LINE
  5
29C
  8
0
 62
     7
 10
76.644599999999997
 20
213.14699999999999
 30
0.0
 11
78.856000000000009
 21
212.55500000000001
 31
0.0
  0
LINE
  5
29D
  8
0
 62
     7
 10
78.856000000000009
 20
212.55500000000001
 30
0.0
 11
78.856000000000009
 21
213.74000000000001
 31
0.0
  0
LINE
  5
29E
  8
0
 62
     7
 10
81.099800000000002
 20
212.55500000000001
 30
0.0
 11
83.311199999999999
 21
213.14699999999999
 31
0.0
  0
LINE
  5
29F
  8
0
 62
     7
 10
83.311199999999999
 20
213.14699999999999
 30
0.0
 11
81.099800000000002
 21
213.74000000000001
 31
0.0
  0
LINE
  5
2A0
  8
0
 62
     7
 10
81.099800000000002
 20
213.74000000000001
 30
0.0
 11
81.099800000000002
 21
212.55500000000001
 31
0.0
  0
LINE
  5
2A1
  8
0
 62
     7
 10
98.599900000000005
 20
212.55500000000001
 30
0.0
 11
100.81100000000001
 21
213.14699999999999
 31
0.0
  0
LINE
  5
2A2
  8
0
 62
     7
 10
100.81100000000001
 20
213.14699999999999
 30
0.0
 11
98.599900000000005
 21
213.74000000000001
 31
0.0
  0
LINE
  5
2A3
  8
0
 62
     7
 10
98.599900000000005
 20
213.74000000000001
 30
0.0
 11
98.599900000000005
 21
212.55500000000001
 31
0.0
  0
LINE
  5
2A4
  8
0
 62
     7
 10
76.644599999999997
 20
213.14699999999999
 30
0.0
 11
100.81100000000001
 21
213.14699999999999
 31
0.0
  0
LINE
  5
2A5
  8
0
 62
     7
 10
87.166600000000003
 20
248.50399999999999
 30
0.0
 11
86.021799999999999
 21
246.52099999999999
 31
0.0
  0
LINE
  5
2A6
  8
0
 62
     7
 10
86.021799999999999
 20
246.52099999999999
 30
0.0
 11
88.004800000000003
 21
247.666
 31
0.0
  0
LINE
  5
2A7
  8
0
 62
     7
 10
88.004800000000003
 20
247.666
 30
0.0
 11
87.166600000000003
 21
248.50399999999999
 31
0.0
  0
LINE
  5
2A8
  8
0
 62
     7
 10
79.455799999999996
 20
239.11699999999999
 30
0.0
 11
80.6006
 21
241.09999999999999
 31
0.0
  0
LINE
  5
2A9
  8
0
 62
     7
 10
80.6006
 20
241.09999999999999
 30
0.0
 11
78.617599999999996
 21
239.95500000000001
 31
0.0
  0
LINE
  5
2AA
  8
0
 62
     7
 10
78.617599999999996
 20
239.95500000000001
 30
0.0
 11
79.455799999999996
 21
239.11699999999999
 31
0.0
  0
LINE
  5
2AB
  8
0
 62
     7
 10
77.356000000000009
 20
237.85499999999999
 30
0.0
 11
89.703299999999999
 21
250.202
 31
0.0
  0
LINE
  5
2AC
  8
0
 62
     7
 10
70.504300000000001
 20
239.95500000000001
 30
0.0
 11
68.521699999999996
 21
241.09999999999999
 31
0.0
  0
LINE
  5
2AD
  8
0
 62
     7
 10
68.521699999999996
 20
241.09999999999999
 30
0.0
 11
69.6661
 21
239.11699999999999
 31
0.0
  0
LINE
  5
2AE
  8
0
 62
     7
 10
69.6661
 20
239.11699999999999
 30
0.0
 11
70.504300000000001
 21
239.95500000000001
 31
0.0
  0
LINE
  5
2AF
  8
0
 62
     7
 10
61.347200000000001
 20
247.43700000000001
 30
0.0
 11
63.329900000000002
 21
246.292
 31
0.0
  0
LINE
  5
2B0
  8
0
 62
     7
 10
63.329900000000002
 20
246.292
 30
0.0
 11
62.185099999999998
 21
248.27500000000001
 31
0.0
  0
LINE
  5
2B1
  8
0
 62
     7
 10
62.185099999999998
 20
248.27500000000001
 30
0.0
 11
61.347200000000001
 21
247.43700000000001
 31
0.0
  0
LINE
  5
2B2
  8
0
 62
     7
 10
58.741300000000003
 20
250.88
 30
0.0
 11
72.281000000000006
 21
237.34100000000001
 31
0.0
  0
LINE
  5
2B3
  8
0
 62
     7
 10
31.644100000000002
 20
240.14400000000001
 30
0.0
 11
31.644100000000002
 21
205.244
 31
0.0
  0
LINE
  5
2B4
  8
0
 62
     7
 10
30.8111
 20
239.27699999999999
 30
0.0
 11
30.8111
 21
197.69
 31
0.0
  0
LINE
  5
2B5
  8
0
 62
     7
 10
100.81100000000001
 20
239.27699999999999
 30
0.0
 11
100.81100000000001
 21
197.69
 31
0.0
  0
LINE
  5
2B6
  8
0
  6
AIGENLINE001
 62
     7
 10
83.311199999999999
 20
190.86600000000001
 30
0.0
 11
83.311199999999999
 21
181.2459999999999
 31
0.0
  0
LINE
  5
2B7
  8
0
  6
AIGENLINE001
 62
     7
 10
151.143
 20
190.86600000000001
 30
0.0
 11
151.143
 21
162.41
 31
0.0
  0
LINE
  5
2B8
  8
0
 62
     7
 10
145.309
 20
165.011
 30
0.0
 11
145.309
 21
165.84399999999999
 31
0.0
  0
LINE
  5
2B9
  8
0
 62
     7
 10
156.976
 20
165.84399999999999
 30
0.0
 11
156.976
 21
165.011
 31
0.0
  0
LINE
  5
2BA
  8
0
  6
AIGENLINE001
 62
     7
 10
65.811000000000007
 20
190.86600000000001
 30
0.0
 11
65.811000000000007
 21
162.41
 31
0.0
  0
LINE
  5
2BB
  8
0
  6
AIGENLINE001
 62
     7
 10
65.811000000000007
 20
268.8540000000001
 30
0.0
 11
65.811000000000007
 21
218.50200000000001
 31
0.0
  0
LINE
  5
2BC
  8
0
  6
AIGENLINE001
 62
     7
 10
27.087900000000001
 20
243.81
 30
0.0
 11
104.38
 21
243.81
 31
0.0
  0
ARC
  5
2BD
  8
0
 62
     7
 10
65.790858999999983
 20
167.32781900000001
 30
0.0
 40
98.132419000000013
 50
89.999268999999998
 51
90.185934000000017
  0
LINE
  5
2BE
  8
0
 62
     7
 10
63.238199999999999
 20
265.44200000000001
 30
0.0
 11
63.165199999999999
 21
265.44099999999997
 31
0.0
  0
ARC
  5
2BF
  8
0
 62
     7
 10
65.840428000000003
 20
62.633423999999991
 30
0.0
 40
202.825523
 50
91.496295999999987
 51
93.217857999999978
  0
ARC
  5
2C0
  8
0
 62
     7
 10
69.321641999999997
 20
11.412903999999999
 30
0.0
 40
254.16353599999999
 50
93.786875000000009
 51
93.965519999999984
  0
ARC
  5
2C1
  8
0
 62
     7
 10
53.171987999999992
 20
241.92402799999999
 30
0.0
 40
23.087302999999999
 50
93.972084999999993
 51
94.269530000000003
  0
ARC
  5
2C2
  8
0
 62
     7
 10
49.57233200000001
 20
289.804846
 30
0.0
 40
24.928640999999999
 50
274.09518700000001
 51
274.32702599999999
  0
ARC
  5
2C3
  8
0
 62
     7
 10
54.974511
 20
216.839665
 30
0.0
 40
48.236360999999988
 50
94.306227000000007
 51
94.524167000000006
  0
ARC
  5
2C4
  8
0
 62
     7
 10
54.53892299999999
 20
224.64737199999999
 30
0.0
 40
40.41903099999999
 50
94.781650999999997
 51
95.250810000000001
  0
ARC
  5
2C5
  8
0
 62
     7
 10
52.896701999999998
 20
243.58040099999999
 30
0.0
 40
21.415514000000002
 50
96.277533000000005
 51
105.647368
  0
ARC
  5
2C6
  8
0
 62
     7
 10
52.816377000000003
 20
243.85501099999999
 30
0.0
 40
21.129010000000001
 50
108.993791
 51
114.083501
  0
ARC
  5
2C7
  8
0
 62
     7
 10
52.845507999999988
 20
243.760074
 30
0.0
 40
21.227622
 50
119.444492
 51
121.80577
  0
ARC
  5
2C8
  8
0
 62
     7
 10
53.022609000000003
 20
243.58174399999999
 30
0.0
 40
21.478504999999998
 50
131.09709799999999
 51
136.65941799999999
  0
ARC
  5
2C9
  8
0
 62
     7
 10
52.778137000000001
 20
243.81945300000001
 30
0.0
 40
21.137191000000001
 50
142.68827899999999
 51
149.68538100000001
  0
ARC
  5
2CA
  8
0
 62
     7
 10
52.894604000000001
 20
243.75734600000001
 30
0.0
 40
21.269254
 50
150.67668
 51
154.45631800000001
  0
ARC
  5
2CB
  8
0
 62
     7
 10
53.296456999999997
 20
243.58438599999999
 30
0.0
 40
21.706416999999998
 50
154.50178199999999
 51
158.20721700000001
  0
ARC
  5
2CC
  8
0
 62
     7
 10
52.889814000000001
 20
243.777254
 30
0.0
 40
21.257252000000001
 50
158.28300400000001
 51
165.39615900000001
  0
ARC
  5
2CD
  8
0
 62
     7
 10
52.873424999999997
 20
243.788826
 30
0.0
 40
21.238475999999999
 50
165.415223
 51
172.75251600000001
  0
ARC
  5
2CE
  8
0
 62
     7
 10
52.897743000000013
 20
243.794185
 30
0.0
 40
21.261925000000002
 50
172.77510899999999
 51
180.03793599999989
  0
ARC
  5
2CF
  8
0
 62
     7
 10
50.627881999999993
 20
245.04586599999999
 30
0.0
 40
18.661937000000002
 50
149.603667
 51
150.71758700000001
  0
ARC
  5
2D0
  8
0
 62
     7
 10
52.703012000000001
 20
243.887764
 30
0.0
 40
21.036034999999998
 50
136.66817399999999
 51
142.712231
  0
ARC
  5
2D1
  8
0
 62
     7
 10
52.907595999999998
 20
243.675048
 30
0.0
 40
21.332605000000001
 50
121.827128
 51
131.02903599999999
  0
ARC
  5
2D2
  8
0
 62
     7
 10
52.726987999999999
 20
243.99777900000001
 30
0.0
 40
20.962363
 50
114.019491
 51
119.481774
  0
ARC
  5
2D3
  8
0
 62
     7
 10
52.898936999999997
 20
243.61384799999999
 30
0.0
 40
21.383913
 50
105.67730400000001
 51
108.99265
  0
ARC
  5
2D4
  8
0
 62
     7
 10
54.894790999999998
 20
224.044826
 30
0.0
 40
41.052706999999998
 50
95.668441000000001
 51
96.068175999999994
  0
LINE
  5
2D5
  8
0
 62
     7
 10
51.572699999999998
 20
264.95600000000002
 30
0.0
 11
51.744599999999991
 21
264.96800000000002
 31
0.0
  0
ARC
  5
2D6
  8
0
 62
     7
 10
65.789194999999992
 20
64.453451999999999
 30
0.0
 40
201.005495
 50
93.232398999999987
 51
93.780705000000012
  0
ARC
  5
2D7
  8
0
 62
     7
 10
65.757654000000002
 20
67.45620799999999
 30
0.0
 40
198.00222600000001
 50
90.750191000000015
 51
91.508793999999995
  0
ARC
  5
2D8
  8
0
 62
     7
 10
66.203564999999983
 20
25.732047000000001
 30
0.0
 40
239.72878900000001
 50
90.17474399999999
 51
90.708730999999986
  0
ARC
  5
2D9
  8
0
 62
     7
 10
66.004650999999996
 20
59.238445999999989
 30
0.0
 40
206.221901
 50
89.275769999999994
 51
90.059045999999995
  0
ARC
  5
2DA
  8
0
 62
     7
 10
65.955147999999994
 20
56.024683999999993
 30
0.0
 40
209.43604400000001
 50
88.691920999999994
 51
89.146659000000014
  0
LINE
  5
2DB
  8
0
 62
     7
 10
71.040000000000006
 20
265.399
 30
0.0
 11
71.232299999999995
 21
265.39400000000001
 31
0.0
  0
LINE
  5
2DC
  8
0
 62
     7
 10
71.323899999999995
 20
265.392
 30
0.0
 11
71.608099999999993
 21
265.38400000000001
 31
0.0
  0
LINE
  5
2DD
  8
0
 62
     7
 10
71.660899999999998
 20
265.38299999999998
 30
0.0
 11
71.892700000000005
 21
265.37700000000001
 31
0.0
  0
LINE
  5
2DE
  8
0
 62
     7
 10
73.081999999999994
 20
265.339
 30
0.0
 11
73.319299999999984
 21
265.33100000000002
 31
0.0
  0
ARC
  5
2DF
  8
0
 62
     7
 10
67.186168999999992
 20
81.704048999999983
 30
0.0
 40
183.72451699999999
 50
86.209541999999985
 51
86.910556
  0
LINE
  5
2E0
  8
0
 62
     7
 10
79.472700000000003
 20
265.017
 30
0.0
 11
79.613900000000001
 21
265.00799999999998
 31
0.0
  0
ARC
  5
2E1
  8
0
 62
     7
 10
76.011420000000001
 20
207.62384499999999
 30
0.0
 40
57.496593999999988
 50
85.873363999999995
 51
86.298342000000005
  0
ARC
  5
2E2
  8
0
 62
     7
 10
79.126626999999999
 20
247.478306
 30
0.0
 40
17.519925000000001
 50
83.763542999999999
 51
84.873142000000001
  0
ARC
  5
2E3
  8
0
 62
     7
 10
78.068634000000003
 20
238.64810900000001
 30
0.0
 40
26.414284000000009
 50
82.455720000000014
 51
82.710433999999992
  0
LINE
  5
2E4
  8
0
 62
     7
 10
81.564899999999994
 20
264.82999999999998
 30
0.0
 11
81.652699999999996
 21
264.81799999999998
 31
0.0
  0
LINE
  5
2E5
  8
0
 62
     7
 10
81.671700000000001
 20
264.815
 30
0.0
 11
81.769199999999998
 21
264.80200000000002
 31
0.0
  0
LINE
  5
2E6
  8
0
 62
     7
 10
81.778499999999994
 20
264.80000000000001
 30
0.0
 11
81.885300000000001
 21
264.78500000000003
 31
0.0
  0
ARC
  5
2E7
  8
0
 62
     7
 10
78.710082999999983
 20
243.558652
 30
0.0
 40
21.462758000000001
 50
74.11425899999999
 51
78.323447999999999
  0
ARC
  5
2E8
  8
0
 62
     7
 10
78.922330000000002
 20
243.97492
 30
0.0
 40
20.987016000000001
 50
50.765578000000012
 51
55.264579000000012
  0
LINE
  5
2E9
  8
0
 62
     7
 10
65.830299999999994
 20
222.16
 30
0.0
 11
65.510599999999997
 21
222.16
 31
0.0
  0
ARC
  5
2EA
  8
0
 62
     7
 10
62.675369999999987
 20
174.29769099999999
 30
0.0
 40
47.879800000000003
 50
89.280660999999995
 51
89.368067000000011
  0
ARC
  5
2EB
  8
0
 62
     7
 10
65.491786000000005
 20
424.20564899999999
 30
0.0
 40
202.043699
 50
266.87936200000001
 51
268.60766000000001
  0
LINE
  5
2EC
  8
0
 62
     7
 10
52.572800000000001
 20
222.57599999999999
 30
0.0
 11
51.782200000000003
 21
222.62799999999999
 31
0.0
  0
ARC
  5
2ED
  8
0
 62
     7
 10
52.066198
 20
230.100179
 30
0.0
 40
7.4742559999999987
 50
265.58418799999998
 51
266.50279399999999
  0
LINE
  5
2EE
  8
0
 62
     7
 10
51.490699999999997
 20
222.648
 30
0.0
 11
51.39009999999999
 21
222.655
 31
0.0
  0
ARC
  5
2EF
  8
0
 62
     7
 10
59.95293199999999
 20
336.34543300000001
 30
0.0
 40
114.012094
 50
265.60041799999999
 51
265.692791
  0
ARC
  5
2F0
  8
0
 62
     7
 10
52.402149000000001
 20
238.557402
 30
0.0
 40
15.933004
 50
264.50763000000001
 51
265.69760300000002
  0
ARC
  5
2F1
  8
0
 62
     7
 10
52.867631999999993
 20
243.87224599999999
 30
0.0
 40
21.267963999999999
 50
254.423812
 51
263.859284
  0
ARC
  5
2F2
  8
0
 62
     7
 10
52.882371999999997
 20
243.91787099999999
 30
0.0
 40
21.315932
 50
246.047123
 51
251.09239700000001
  0
ARC
  5
2F3
  8
0
 62
     7
 10
53.410867000000003
 20
244.79765
 30
0.0
 40
22.341457999999999
 50
238.35515699999999
 51
240.59940800000001
  0
ARC
  5
2F4
  8
0
 62
     7
 10
52.988098999999998
 20
243.980388
 30
0.0
 40
21.428856
 50
223.43492599999999
 51
229.009692
  0
ARC
  5
2F5
  8
0
 62
     7
 10
52.789065999999998
 20
243.78491
 30
0.0
 40
21.149882000000002
 50
210.41630599999999
 51
217.40950099999989
  0
ARC
  5
2F6
  8
0
 62
     7
 10
53.108028000000012
 20
243.94893200000001
 30
0.0
 40
21.508595
 50
205.65904699999999
 51
209.39671000000001
  0
ARC
  5
2F7
  8
0
 62
     7
 10
52.710617999999997
 20
243.75377800000001
 30
0.0
 40
21.06587
 50
201.83081200000001
 51
205.64864299999999
  0
ARC
  5
2F8
  8
0
 62
     7
 10
52.830463000000002
 20
243.80404300000001
 30
0.0
 40
21.195812
 50
194.702135
 51
201.83647300000001
  0
ARC
  5
2F9
  8
0
 62
     7
 10
52.944510999999991
 20
243.82121900000001
 30
0.0
 40
21.310489
 50
187.356953
 51
194.66898
  0
ARC
  5
2FA
  8
0
 62
     7
 10
52.904226999999999
 20
243.804654
 30
0.0
 40
21.268418
 50
180.06612699999999
 51
187.326593
  0
ARC
  5
2FB
  8
0
 62
     7
 10
65.792738
 20
457.8487879999999
 30
0.0
 40
235.688503
 50
269.38829399999997
 51
269.93142899999998
  0
ARC
  5
2FC
  8
0
 62
     7
 10
65.553344999999993
 20
426.21708899999999
 30
0.0
 40
204.05604099999999
 50
268.60410400000001
 51
269.34017599999999
  0
ARC
  5
2FD
  8
0
 62
     7
 10
65.029436000000004
 20
415.79365999999999
 30
0.0
 40
193.61901399999999
 50
266.31130200000001
 51
266.88046500000002
  0
LINE
  5
2FE
  8
0
 62
     7
 10
51.782200000000003
 20
222.62799999999999
 30
0.0
 11
51.610300000000002
 21
222.63999999999999
 31
0.0
  0
ARC
  5
2FF
  8
0
 62
     7
 10
54.135948999999989
 20
256.35619500000001
 30
0.0
 40
33.816035999999997
 50
263.98530799999997
 51
264.469919
  0
ARC
  5
300
  8
0
 62
     7
 10
52.997824000000001
 20
244.293397
 30
0.0
 40
21.70861
 50
251.125292
 51
254.39128700000001
  0
ARC
  5
301
  8
0
 62
     7
 10
52.923933999999988
 20
243.991871
 30
0.0
 40
21.400434000000001
 50
240.67612
 51
246.02586500000001
  0
ARC
  5
302
  8
0
 62
     7
 10
52.824055000000001
 20
243.80847600000001
 30
0.0
 40
21.191495
 50
229.03959800000001
 51
238.30267699999999
  0
ARC
  5
303
  8
0
 62
     7
 10
52.919492000000012
 20
243.892201
 30
0.0
 40
21.318662
 50
217.42559399999999
 51
223.38895500000001
  0
ARC
  5
304
  8
0
 62
     7
 10
49.436508000000003
 20
241.872356
 30
0.0
 40
17.290517999999999
 50
209.37343899999999
 51
210.57536800000011
  0
ARC
  5
305
  8
0
 62
     7
 10
78.822734999999994
 20
243.80005399999999
 30
0.0
 40
21.151547000000001
 50
304.85584999999998
 51
309.3200470000001
  0
ARC
  5
306
  8
0
 62
     7
 10
78.825351999999995
 20
243.61441400000001
 30
0.0
 40
20.97851
 50
281.73121900000001
 51
286.03758699999997
  0
LINE
  5
307
  8
0
 62
     7
 10
81.922100000000015
 20
222.86500000000001
 30
0.0
 11
81.815700000000007
 21
222.84899999999999
 31
0.0
  0
LINE
  5
308
  8
0
 62
     7
 10
81.805999999999997
 20
222.84700000000001
 30
0.0
 11
81.708899999999986
 21
222.833
 31
0.0
  0
LINE
  5
309
  8
0
 62
     7
 10
81.689899999999994
 20
222.83099999999999
 30
0.0
 11
81.602099999999993
 21
222.81899999999999
 31
0.0
  0
ARC
  5
30A
  8
0
 62
     7
 10
79.469693000000007
 20
238.523629
 30
0.0
 40
15.849069999999999
 50
277.20466699999997
 51
277.62917900000002
  0
ARC
  5
30B
  8
0
 62
     7
 10
77.682889000000003
 20
254.56489300000001
 30
0.0
 40
31.991205999999998
 50
275.46460500000001
 51
276.072361
  0
ARC
  5
30C
  8
0
 62
     7
 10
60.099066000000001
 20
504.78890199999989
 30
0.0
 40
282.82833199999999
 50
273.98637000000002
 51
274.07277699999997
  0
LINE
  5
30D
  8
0
 62
     7
 10
79.651499999999999
 20
222.637
 30
0.0
 11
79.510199999999983
 21
222.62799999999999
 31
0.0
  0
ARC
  5
30E
  8
0
 62
     7
 10
66.118471999999997
 20
418.54050899999987
 30
0.0
 40
196.369957
 50
273.21336500000001
 51
273.86920600000002
  0
LINE
  5
30F
  8
0
 62
     7
 10
73.357600000000005
 20
222.303
 30
0.0
 11
73.119900000000001
 21
222.29400000000001
 31
0.0
  0
LINE
  5
310
  8
0
 62
     7
 10
71.930899999999994
 20
222.255
 30
0.0
 11
71.699100000000001
 21
222.24799999999999
 31
0.0
  0
LINE
  5
311
  8
0
 62
     7
 10
71.6464
 20
222.24700000000001
 30
0.0
 11
71.362200000000001
 21
222.239
 31
0.0
  0
LINE
  5
312
  8
0
 62
     7
 10
71.270499999999998
 20
222.23599999999999
 30
0.0
 11
71.0779
 21
222.23099999999999
 31
0.0
  0
ARC
  5
313
  8
0
 62
     7
 10
65.939543999999998
 20
416.32568099999997
 30
0.0
 40
194.16256000000001
 50
270.93636400000003
 51
271.42689000000001
  0
ARC
  5
314
  8
0
 62
     7
 10
65.719133999999997
 20
421.28260199999988
 30
0.0
 40
199.12217899999999
 50
270.03200700000002
 51
270.84322200000003
  0
ARC
  5
315
  8
0
 62
     7
 10
67.142505
 20
141.92054300000001
 30
0.0
 40
123.532062
 50
89.103981999999988
 51
89.318759000000014
  0
ARC
  5
316
  8
0
 62
     7
 10
70.201079000000007
 20
235.84350499999999
 30
0.0
 40
29.567487
 50
88.374036000000004
 51
88.963014999999984
  0
LINE
  5
317
  8
0
 62
     7
 10
71.232299999999995
 20
265.39400000000001
 30
0.0
 11
71.323899999999995
 21
265.392
 31
0.0
  0
LINE
  5
318
  8
0
 62
     7
 10
71.608099999999993
 20
265.38400000000001
 30
0.0
 11
71.660899999999998
 21
265.38299999999998
 31
0.0
  0
ARC
  5
319
  8
0
 62
     7
 10
67.338614000000007
 20
101.54783999999999
 30
0.0
 40
163.89196699999999
 50
87.991735000000006
 51
88.407698000000025
  0
ARC
  5
31A
  8
0
 62
     7
 10
65.969973999999993
 20
59.738506000000008
 30
0.0
 40
205.72368499999999
 50
86.902032999999975
 51
87.952697000000001
  0
LINE
  5
31B
  8
0
 62
     7
 10
79.331699999999998
 20
265.02699999999999
 30
0.0
 11
79.472700000000003
 21
265.017
 31
0.0
  0
ARC
  5
31C
  8
0
 62
     7
 10
71.15836800000001
 20
139.13072199999999
 30
0.0
 40
126.160844
 50
86.107171999999991
 51
86.157038999999983
  0
ARC
  5
31D
  8
0
 62
     7
 10
77.913951999999995
 20
233.45215099999999
 30
0.0
 40
31.598364
 50
84.955768000000006
 51
85.944024999999996
  0
ARC
  5
31E
  8
0
 62
     7
 10
79.164400999999984
 20
247.251552
 30
0.0
 40
17.741343000000001
 50
82.695169999999976
 51
83.964365000000001
  0
LINE
  5
31F
  8
0
 62
     7
 10
81.536600000000007
 20
264.834
 30
0.0
 11
81.564899999999994
 21
264.82999999999998
 31
0.0
  0
LINE
  5
320
  8
0
 62
     7
 10
81.652699999999996
 20
264.81799999999998
 30
0.0
 11
81.671700000000001
 21
264.815
 31
0.0
  0
LINE
  5
321
  8
0
 62
     7
 10
81.769199999999998
 20
264.80200000000002
 30
0.0
 11
81.778499999999994
 21
264.80000000000001
 31
0.0
  0
ARC
  5
322
  8
0
 62
     7
 10
78.609347999999983
 20
242.94851700000001
 30
0.0
 40
22.080667999999999
 50
78.387884
 51
81.468005000000005
  0
ARC
  5
323
  8
0
 62
     7
 10
78.737335000000002
 20
243.70716300000001
 30
0.0
 40
21.312465
 50
55.266025999999997
 51
74.07544200000001
  0
ARC
  5
324
  8
0
 62
     7
 10
78.780845999999997
 20
243.792258
 30
0.0
 40
21.217987999999998
 50
44.381743999999998
 51
50.781630999999997
  0
ARC
  5
325
  8
0
 62
     7
 10
78.842761999999993
 20
243.84607299999999
 30
0.0
 40
21.136098
 50
37.902492000000002
 51
44.394878000000013
  0
ARC
  5
326
  8
0
 62
     7
 10
78.876576
 20
243.86574300000001
 30
0.0
 40
21.097332999999999
 50
31.539503
 51
37.916753999999997
  0
ARC
  5
327
  8
0
 62
     7
 10
78.819498999999993
 20
243.827957
 30
0.0
 40
21.165745000000001
 50
25.177897000000002
 51
31.545859000000011
  0
ARC
  5
328
  8
0
 62
     7
 10
78.821287999999996
 20
243.82518300000001
 30
0.0
 40
21.165306000000001
 50
18.916366
 51
25.186755000000002
  0
ARC
  5
329
  8
0
 62
     7
 10
78.843186000000003
 20
243.83458099999999
 30
0.0
 40
21.141544
 50
12.632695999999999
 51
18.911508999999999
  0
ARC
  5
32A
  8
0
 62
     7
 10
78.80269100000001
 20
243.822329
 30
0.0
 40
21.183738999999999
 50
6.3604640000000012
 51
12.641076999999999
  0
ARC
  5
32B
  8
0
 62
     7
 10
78.828326000000004
 20
243.82522900000001
 30
0.0
 40
21.15794
 50
0.041562
 51
6.3603509999999988
  0
ARC
  5
32C
  8
0
 62
     7
 10
67.834315000000004
 20
290.80627099999998
 30
0.0
 40
68.629126999999997
 50
270.68056999999999
 51
271.06717600000002
  0
ARC
  5
32D
  8
0
 62
     7
 10
72.606569999999991
 20
154.93512699999999
 30
0.0
 40
67.313139000000007
 50
91.301248000000001
 51
91.559674999999999
  0
LINE
  5
32E
  8
0
 62
     7
 10
71.270499999999998
 20
222.23599999999999
 30
0.0
 11
71.362200000000001
 21
222.239
 31
0.0
  0
LINE
  5
32F
  8
0
 62
     7
 10
71.6464
 20
222.24700000000001
 30
0.0
 11
71.699100000000001
 21
222.24799999999999
 31
0.0
  0
ARC
  5
330
  8
0
 62
     7
 10
66.068295999999989
 20
416.89024799999987
 30
0.0
 40
194.723501
 50
271.72530699999999
 51
272.07532700000002
  0
ARC
  5
331
  8
0
 62
     7
 10
65.957543000000001
 20
421.11960199999987
 30
0.0
 40
198.95401699999999
 50
272.13159899999999
 51
273.21800400000001
  0
ARC
  5
332
  8
0
 62
     7
 10
77.298110999999992
 20
253.90624
 30
0.0
 40
31.356580999999998
 50
273.78731299999998
 51
274.04538300000002
  0
ARC
  5
333
  8
0
 62
     7
 10
71.195920000000001
 20
348.51460300000002
 30
0.0
 40
126.160844
 50
273.842961
 51
273.89282800000001
  0
ARC
  5
334
  8
0
 62
     7
 10
78.366069999999993
 20
248.35308699999999
 30
0.0
 40
25.742723000000002
 50
274.05509899999998
 51
275.26758100000001
  0
ARC
  5
335
  8
0
 62
     7
 10
77.537435999999985
 20
254.03703999999999
 30
0.0
 40
31.482340000000001
 50
276.43721599999998
 51
277.152624
  0
ARC
  5
336
  8
0
 62
     7
 10
81.881062999999983
 20
220.63177300000001
 30
0.0
 40
2.2045939999999988
 50
97.270007000000007
 51
98.010784999999998
  0
LINE
  5
337
  8
0
 62
     7
 10
81.689899999999994
 20
222.83099999999999
 30
0.0
 11
81.708899999999986
 21
222.833
 31
0.0
  0
LINE
  5
338
  8
0
 62
     7
 10
81.805999999999997
 20
222.84700000000001
 30
0.0
 11
81.815700000000007
 21
222.84899999999999
 31
0.0
  0
ARC
  5
339
  8
0
 62
     7
 10
78.839004000000003
 20
243.42971499999999
 30
0.0
 40
20.794906999999998
 50
278.52632499999999
 51
281.79785900000002
  0
ARC
  5
33A
  8
0
 62
     7
 10
78.746465999999998
 20
243.91690700000001
 30
0.0
 40
21.291025000000001
 50
286.01672000000002
 51
304.84455299999991
  0
ARC
  5
33B
  8
0
 62
     7
 10
78.810233999999994
 20
243.819954
 30
0.0
 40
21.174863999999999
 50
309.312093
 51
315.72519199999999
  0
ARC
  5
33C
  8
0
 62
     7
 10
78.872864000000007
 20
243.77269799999999
 30
0.0
 40
21.097033
 50
315.69834400000002
 51
322.20286900000002
  0
ARC
  5
33D
  8
0
 62
     7
 10
78.693854000000002
 20
243.903919
 30
0.0
 40
21.318906999999999
 50
322.21904799999999
 51
328.530013
  0
ARC
  5
33E
  8
0
 62
     7
 10
78.878736000000004
 20
243.786463
 30
0.0
 40
21.099900000000002
 50
328.53995800000001
 51
334.92790500000001
  0
ARC
  5
33F
  8
0
 62
     7
 10
78.925642999999994
 20
243.77351200000001
 30
0.0
 40
21.051926000000002
 50
334.905732
 51
341.20962300000002
  0
ARC
  5
340
  8
0
 62
     7
 10
78.913454999999985
 20
243.79113699999999
 30
0.0
 40
21.069146
 50
341.17492399999998
 51
347.47524600000003
  0
ARC
  5
341
  8
0
 62
     7
 10
78.732687999999996
 20
243.83202900000001
 30
0.0
 40
21.254479
 50
347.47331300000002
 51
353.73346299999997
  0
ARC
  5
342
  8
0
 62
     7
 10
78.834210999999996
 20
243.81826899999999
 30
0.0
 40
21.152061
 50
353.74049400000001
 51
0.060425
  0
ARC
  5
343
  8
0
 62
     7
 10
52.811073999999991
 20
243.80093099999999
 30
0.0
 40
22.000022999999999
 50
170.64652599999999
 51
180.056027
  0
ARC
  5
344
  8
0
 62
     7
 10
52.850273000000001
 20
243.79294200000001
 30
0.0
 40
22.039999000000002
 50
160.178425
 51
170.642595
  0
ARC
  5
345
  8
0
 62
     7
 10
52.826340000000002
 20
243.79972599999991
 30
0.0
 40
22.015183
 50
149.70469299999999
 51
160.17391499999999
  0
ARC
  5
346
  8
0
 62
     7
 10
52.927177
 20
243.73004299999999
 30
0.0
 40
22.137404
 50
142.73904400000001
 51
149.68062499999999
  0
ARC
  5
347
  8
0
 62
     7
 10
52.829681999999998
 20
243.794813
 30
0.0
 40
22.020596000000001
 50
131.08244199999999
 51
142.71958599999999
  0
ARC
  5
348
  8
0
 62
     7
 10
52.818959
 20
243.80890600000001
 30
0.0
 40
22.002925999999999
 50
119.44723500000001
 51
131.085511
  0
ARC
  5
349
  8
0
 62
     7
 10
52.813313000000001
 20
243.83027300000001
 30
0.0
 40
21.981545000000001
 50
108.96502
 51
119.461799
  0
ARC
  5
34A
  8
0
 62
     7
 10
52.453187
 20
244.966193
 30
0.0
 40
20.790267
 50
106.577454
 51
109.0438
  0
ARC
  5
34B
  8
0
 62
     7
 10
52.852110000000003
 20
243.69608500000001
 30
0.0
 40
22.121410000000001
 50
98.513221999999999
 51
106.629166
  0
ARC
  5
34C
  8
0
 62
     7
 10
52.833435999999999
 20
243.788025
 30
0.0
 40
22.027719000000001
 50
96.170311999999996
 51
98.500587999999993
  0
ARC
  5
34D
  8
0
 62
     7
 10
52.031442999999989
 20
251.705614
 30
0.0
 40
14.069898999999999
 50
95.177566000000013
 51
96.388869000000014
  0
ARC
  5
34E
  8
0
 62
     7
 10
52.679896999999997
 20
245.445649
 30
0.0
 40
20.363001000000001
 50
94.580990999999997
 51
95.405173000000005
  0
ARC
  5
34F
  8
0
 62
     7
 10
72.898118000000011
 20
-22.317406999999999
 30
0.0
 40
288.88808999999998
 50
94.278847000000013
 51
94.336609999999979
  0
ARC
  5
350
  8
0
 62
     7
 10
57.11206
 20
185.99187800000001
 30
0.0
 40
79.981859
 50
93.888707999999994
 51
94.135614000000004
  0
ARC
  5
351
  8
0
 62
     7
 10
54.012051999999997
 20
233.107201
 30
0.0
 40
32.764932999999999
 50
93.863117999999986
 51
94.067836999999997
  0
LINE
  5
352
  8
0
 62
     7
 10
51.804600000000001
 20
265.798
 30
0.0
 11
51.91449999999999
 21
265.80500000000001
 31
0.0
  0
LINE
  5
353
  8
0
 62
     7
 10
51.91449999999999
 20
265.80500000000001
 30
0.0
 11
52.056100000000001
 21
265.815
 31
0.0
  0
ARC
  5
354
  8
0
 62
     7
 10
54.632841999999997
 20
228.366657
 30
0.0
 40
37.536803000000013
 50
93.719637000000006
 51
93.936249000000004
  0
ARC
  5
355
  8
0
 62
     7
 10
57.467193999999992
 20
188.49127999999999
 30
0.0
 40
77.512433000000001
 50
93.688352000000009
 51
93.898139
  0
ARC
  5
356
  8
0
 62
     7
 10
57.810357999999987
 20
187.55091899999999
 30
0.0
 40
78.47342900000001
 50
93.479579999999999
 51
93.89421999999999
  0
ARC
  5
357
  8
0
 62
     7
 10
66.562846999999991
 20
50.591707999999997
 30
0.0
 40
215.71178499999999
 50
93.229985999999997
 51
93.592170999999993
  0
ARC
  5
358
  8
0
 62
     7
 10
65.874183000000002
 20
62.273846999999989
 30
0.0
 40
204.00940399999999
 50
92.146268999999975
 51
93.221743000000004
  0
ARC
  5
359
  8
0
 62
     7
 10
66.175491000000008
 20
53.683732999999997
 30
0.0
 40
212.60477700000001
 50
91.523634000000001
 51
92.140715000000014
  0
ARC
  5
35A
  8
0
 62
     7
 10
66.017500999999996
 20
56.921816
 30
0.0
 40
209.36365000000001
 50
90.061958999999987
 51
91.503975000000025
  0
ARC
  5
35B
  8
0
 62
     7
 10
65.921638000000002
 20
55.843575999999999
 30
0.0
 40
210.44180800000001
 50
88.600852999999987
 51
90.035542000000007
  0
ARC
  5
35C
  8
0
 62
     7
 10
66.582686999999993
 20
79.931263999999999
 30
0.0
 40
186.34517399999999
 50
87.919205000000005
 51
88.623206000000025
  0
ARC
  5
35D
  8
0
 62
     7
 10
65.845465000000004
 20
57.376829999999998
 30
0.0
 40
208.91152099999999
 50
86.891497999999999
 51
87.941745000000026
  0
ARC
  5
35E
  8
0
 62
     7
 10
65.575524000000001
 20
53.566095999999987
 30
0.0
 40
212.73129499999999
 50
86.507243000000003
 51
86.874556999999996
  0
ARC
  5
35F
  8
0
 62
     7
 10
106.16949
 20
702.69663000000003
 30
0.0
 40
437.667644
 50
266.38000299999999
 51
266.454339
  0
ARC
  5
360
  8
0
 62
     7
 10
81.736873000000003
 20
304.52225900000002
 30
0.0
 40
38.745173000000001
 50
266.10104100000001
 51
266.52068600000001
  0
LINE
  5
361
  8
0
 62
     7
 10
79.385499999999993
 20
265.84899999999999
 30
0.0
 11
79.527100000000004
 21
265.839
 31
0.0
  0
ARC
  5
362
  8
0
 62
     7
 10
77.153199000000001
 20
229.297527
 30
0.0
 40
36.618701000000001
 50
86.061015999999995
 51
86.283057999999997
  0
ARC
  5
363
  8
0
 62
     7
 10
70.871018000000007
 20
131.35069899999999
 30
0.0
 40
134.76649399999999
 50
86.210189999999997
 51
86.257014999999996
  0
ARC
  5
364
  8
0
 62
     7
 10
67.220481000000007
 20
79.311284999999984
 30
0.0
 40
186.93350799999999
 50
86.112003999999985
 51
86.147987999999998
  0
ARC
  5
365
  8
0
 62
     7
 10
77.058402999999998
 20
221.638079
 30
0.0
 40
44.267510999999992
 50
85.879071999999994
 51
86.325117000000006
  0
ARC
  5
366
  8
0
 62
     7
 10
86.415083999999993
 20
347.02336500000001
 30
0.0
 40
81.466627999999986
 50
265.65255500000001
 51
265.85712999999998
  0
ARC
  5
367
  8
0
 62
     7
 10
79.443725000000001
 20
251.36639099999999
 30
0.0
 40
14.444095000000001
 50
84.526739000000006
 51
85.688488000000035
  0
ARC
  5
368
  8
0
 62
     7
 10
78.663432
 20
242.53379000000001
 30
0.0
 40
23.310943999999999
 50
83.956470999999993
 51
84.688291000000007
  0
ARC
  5
369
  8
0
 62
     7
 10
78.935547999999997
 20
244.93545499999999
 30
0.0
 40
20.893985000000001
 50
81.548059999999978
 51
84.005137000000005
  0
ARC
  5
36A
  8
0
 62
     7
 10
78.776679999999985
 20
243.75096500000001
 30
0.0
 40
22.088968000000001
 50
73.464538000000005
 51
81.592034999999996
  0
ARC
  5
36B
  8
0
 62
     7
 10
79.231033999999994
 20
245.18241399999999
 30
0.0
 40
20.587425
 50
71.051749000000001
 51
73.542909999999992
  0
ARC
  5
36C
  8
0
 62
     7
 10
78.805094999999994
 20
243.84715800000001
 30
0.0
 40
21.988655000000001
 50
60.639668999999998
 51
71.131791000000007
  0
ARC
  5
36D
  8
0
 62
     7
 10
78.800776999999997
 20
243.82790600000001
 30
0.0
 40
22.007552
 50
49.01793
 51
60.654445999999993
  0
ARC
  5
36E
  8
0
 62
     7
 10
78.758657999999997
 20
243.78577999999999
 30
0.0
 40
22.066977000000001
 50
37.394219
 51
49.007106
  0
ARC
  5
36F
  8
0
 62
     7
 10
78.73625899999999
 20
243.78194099999999
 30
0.0
 40
22.087105999999999
 50
30.40953
 51
37.366844999999998
  0
ARC
  5
370
  8
0
 62
     7
 10
78.773036000000005
 20
243.81112300000001
 30
0.0
 40
22.040617999999998
 50
19.935468
 51
30.392496999999999
  0
ARC
  5
371
  8
0
 62
     7
 10
78.867975000000001
 20
243.84089700000001
 30
0.0
 40
21.941217000000002
 50
9.4357350000000011
 51
19.946908000000001
  0
ARC
  5
372
  8
0
 62
     7
 10
78.824911
 20
243.82405499999999
 30
0.0
 40
21.986462
 50
0.0453
 51
9.4606339999999989
  0
ARC
  5
373
  8
0
 62
     7
 10
65.700155000000009
 20
432.33237400000002
 30
0.0
 40
210.996894
 50
268.60463299999998
 51
270.03554700000001
  0
ARC
  5
374
  8
0
 62
     7
 10
64.991295999999991
 20
405.63648399999988
 30
0.0
 40
184.29166799999999
 50
267.91099300000002
 51
268.62284
  0
ARC
  5
375
  8
0
 62
     7
 10
65.776617999999999
 20
430.244034
 30
0.0
 40
208.91152099999999
 50
266.89151800000002
 51
267.94176399999998
  0
ARC
  5
376
  8
0
 62
     7
 10
66.580315999999996
 20
443.71303099999989
 30
0.0
 40
222.404293
 50
266.52168699999999
 51
266.87293399999999
  0
ARC
  5
377
  8
0
 62
     7
 10
21.760712000000002
 20
-274.044015
 30
0.0
 40
496.7511889999999
 50
86.384404000000004
 51
86.449898000000005
  0
ARC
  5
378
  8
0
 62
     7
 10
49.434940000000012
 20
176.48403200000001
 30
0.0
 40
45.374904999999991
 50
86.101259999999996
 51
86.460038999999995
  0
ARC
  5
379
  8
0
 62
     7
 10
58.181880000000007
 20
313.35521899999998
 30
0.0
 40
91.775630000000007
 50
266.19716099999999
 51
266.28574900000001
  0
LINE
  5
37A
  8
0
 62
     7
 10
52.094999999999999
 20
221.78200000000001
 30
0.0
 11
51.953400000000002
 21
221.791
 31
0.0
  0
ARC
  5
37B
  8
0
 62
     7
 10
48.730556
 20
174.791934
 30
0.0
 40
47.109399999999987
 50
86.077211000000005
 51
86.211177000000006
  0
LINE
  5
37C
  8
0
 62
     7
 10
51.843499999999999
 20
221.798
 30
0.0
 11
51.726700000000001
 21
221.80600000000001
 31
0.0
  0
ARC
  5
37D
  8
0
 62
     7
 10
54.128546999999998
 20
259.35578500000003
 30
0.0
 40
37.626398999999999
 50
265.81480299999998
 51
266.34011800000002
  0
ARC
  5
37E
  8
0
 62
     7
 10
52.657262000000003
 20
240.96742800000001
 30
0.0
 40
19.180112000000001
 50
265.32037800000001
 51
266.18930799999998
  0
ARC
  5
37F
  8
0
 62
     7
 10
52.245546999999988
 20
237.144722
 30
0.0
 40
15.336874999999999
 50
264.594179
 51
265.688244
  0
ARC
  5
380
  8
0
 62
     7
 10
52.917833999999992
 20
244.64811599999999
 30
0.0
 40
22.870263000000001
 50
263.94330400000001
 51
264.68836599999997
  0
ARC
  5
381
  8
0
 62
     7
 10
52.657771999999987
 20
242.42437599999991
 30
0.0
 40
20.631509999999999
 50
261.52148999999997
 51
264.0098910000001
  0
ARC
  5
382
  8
0
 62
     7
 10
52.847189999999998
 20
243.879625
 30
0.0
 40
22.098800000000001
 50
253.46729300000001
 51
261.59204299999999
  0
ARC
  5
383
  8
0
 62
     7
 10
52.357407000000002
 20
242.32463300000001
 30
0.0
 40
20.468738999999999
 50
251.038296
 51
253.54298499999999
  0
ARC
  5
384
  8
0
 62
     7
 10
52.820625999999997
 20
243.78332499999999
 30
0.0
 40
21.998823000000002
 50
240.64371499999999
 51
251.13179600000001
  0
ARC
  5
385
  8
0
 62
     7
 10
52.819001999999998
 20
243.78886700000001
 30
0.0
 40
22.002856999999999
 50
229.01646299999999
 51
240.65447399999999
  0
ARC
  5
386
  8
0
 62
     7
 10
52.831530000000008
 20
243.80463599999999
 30
0.0
 40
22.022977999999998
 50
217.382598
 51
229.018766
  0
ARC
  5
387
  8
0
 62
     7
 10
52.785304000000011
 20
243.773076
 30
0.0
 40
21.967085999999998
 50
210.39414199999999
 51
217.39039199999999
  0
ARC
  5
388
  8
0
 62
     7
 10
52.852114999999998
 20
243.81153800000001
 30
0.0
 40
22.044174000000002
 50
199.93758199999999
 51
210.39251300000001
  0
ARC
  5
389
  8
0
 62
     7
 10
52.865513
 20
243.808843
 30
0.0
 40
22.055851000000001
 50
189.46230700000001
 51
199.91913099999999
  0
ARC
  5
38A
  8
0
 62
     7
 10
52.923941999999997
 20
243.80523099999999
 30
0.0
 40
22.112895000000002
 50
180.06688299999999
 51
189.428189
  0
ARC
  5
38B
  8
0
 62
     7
 10
78.809165000000007
 20
243.81994
 30
0.0
 40
22.002210999999999
 50
350.64701200000002
 51
0.055984
  0
ARC
  5
38C
  8
0
 62
     7
 10
78.732416000000001
 20
243.83809299999999
 30
0.0
 40
22.080891000000001
 50
340.18816099999998
 51
350.63289800000001
  0
ARC
  5
38D
  8
0
 62
     7
 10
78.853118000000009
 20
243.796617
 30
0.0
 40
21.953275999999999
 50
329.68443100000002
 51
340.18323199999998
  0
ARC
  5
38E
  8
0
 62
     7
 10
78.918751
 20
243.74102600000001
 30
0.0
 40
21.868562000000001
 50
322.69634300000001
 51
329.723366
  0
ARC
  5
38F
  8
0
 62
     7
 10
78.806820999999999
 20
243.81168099999999
 30
0.0
 40
22.000418
 50
311.07845200000003
 51
322.72663599999998
  0
ARC
  5
390
  8
0
 62
     7
 10
78.769940000000005
 20
243.858711
 30
0.0
 40
22.060103999999999
 50
299.46238899999997
 51
311.07039700000001
  0
ARC
  5
391
  8
0
 62
     7
 10
78.767656999999986
 20
243.88252299999999
 30
0.0
 40
22.081961
 50
288.98924899999997
 51
299.43715900000001
  0
ARC
  5
392
  8
0
 62
     7
 10
79.169241
 20
242.65467100000001
 30
0.0
 40
20.790267
 50
286.577474
 51
289.0438200000001
  0
ARC
  5
393
  8
0
 62
     7
 10
78.756811999999996
 20
243.97979900000001
 30
0.0
 40
22.177994000000002
 50
278.5266410000001
 51
286.62194099999999
  0
ARC
  5
394
  8
0
 62
     7
 10
78.810524999999998
 20
243.70525000000001
 30
0.0
 40
21.898519
 50
276.14930299999997
 51
278.49416600000001
  0
ARC
  5
395
  8
0
 62
     7
 10
79.590640000000008
 20
235.91524999999999
 30
0.0
 40
14.069898999999999
 50
275.17758599999991
 51
276.38888900000001
  0
ARC
  5
396
  8
0
 62
     7
 10
78.942185999999992
 20
242.17521500000001
 30
0.0
 40
20.363001000000001
 50
274.58101099999999
 51
275.405193
  0
LINE
  5
397
  8
0
 62
     7
 10
80.5685
 20
221.87700000000001
 30
0.0
 11
80.278499999999994
 21
221.85499999999999
 31
0.0
  0
ARC
  5
398
  8
0
 62
     7
 10
74.105943999999994
 20
307.39473600000002
 30
0.0
 40
85.761934999999994
 50
273.89704799999998
 51
274.12731300000002
  0
ARC
  5
399
  8
0
 62
     7
 10
80.51145600000001
 20
212.634334
 30
0.0
 40
9.2148380000000003
 50
93.588823000000005
 51
94.318877999999984
  0
ARC
  5
39A
  8
0
 62
     7
 10
78.286456999999999
 20
243.720563
 30
0.0
 40
21.951018000000001
 50
273.71205300000003
 51
273.99955899999998
  0
ARC
  5
39B
  8
0
 62
     7
 10
78.380690000000001
 20
240.248875
 30
0.0
 40
18.480975000000001
 50
273.67735099999999
 51
274.11734799999999
  0
LINE
  5
39C
  8
0
 62
     7
 10
79.566000000000003
 20
221.80600000000001
 30
0.0
 11
79.424400000000006
 21
221.79599999999999
 31
0.0
  0
ARC
  5
39D
  8
0
 62
     7
 10
74.154888999999983
 20
299.129411
 30
0.0
 40
77.512433000000001
 50
273.68837200000002
 51
273.89815900000002
  0
ARC
  5
39E
  8
0
 62
     7
 10
94.310455000000005
 20
-18.047312000000002
 30
0.0
 40
240.30409900000001
 50
93.619197999999997
 51
93.754602000000006
  0
ARC
  5
39F
  8
0
 62
     7
 10
65.581592999999984
 20
428.70495599999992
 30
0.0
 40
207.37138300000001
 50
273.21549800000003
 51
273.5922480000001
  0
ARC
  5
3A0
  8
0
 62
     7
 10
65.702803000000003
 20
426.11242299999998
 30
0.0
 40
204.77613400000001
 50
272.15087599999998
 51
273.22232500000001
  0
ARC
  5
3A1
  8
0
 62
     7
 10
65.44659200000001
 20
433.936959
 30
0.0
 40
212.60477700000001
 50
271.52365400000002
 51
272.14073500000001
  0
ARC
  5
3A2
  8
0
 62
     7
 10
65.618879000000007
 20
430.15231699999998
 30
0.0
 40
208.81690399999999
 50
270.05821900000001
 51
271.50400999999999
  0
ARC
  5
3A3
  8
0
 62
     7
 10
31.232786999999998
 20
187.92850300000001
 30
0.0
 40
0.421815
 50
172.22333699999999
 51
188.75327200000001
  0
ARC
  5
3A4
  8
0
 62
     7
 10
31.226116999999999
 20
187.746139
 30
0.0
 40
0.597733
 50
89.959119999999999
 51
104.735347
  0
ARC
  5
3A5
  8
0
 62
     7
 10
31.172757000000001
 20
187.98871800000001
 30
0.0
 40
0.349706
 50
106.38981800000001
 51
164.98278400000001
  0
ARC
  5
3A6
  8
0
 62
     7
 10
31.414809999999999
 20
187.90571199999999
 30
0.0
 40
0.6052520000000001
 50
163.33033900000001
 51
172.41720900000001
  0
LINE
  5
3A7
  8
0
 62
     7
 10
31.226500000000001
 20
188.34399999999999
 30
0.0
 11
100.383
 21
188.34399999999999
 31
0.0
  0
ARC
  5
3A8
  8
0
 62
     7
 10
100.36803
 20
187.70346699999999
 30
0.0
 40
0.6421710000000001
 50
81.365226000000007
 51
84.987830000000017
  0
LINE
  5
3A9
  8
0
 62
     7
 10
100.422
 20
188.34299999999999
 30
0.0
 11
100.414
 21
188.34399999999999
 31
0.0
  0
LINE
  5
3AA
  8
0
 62
     7
 10
100.413
 20
188.34399999999999
 30
0.0
 11
100.396
 21
188.34399999999999
 31
0.0
  0
LINE
  5
3AB
  8
0
 62
     7
 10
100.38500000000001
 20
188.34399999999999
 30
0.0
 11
100.383
 21
188.34399999999999
 31
0.0
  0
LINE
  5
3AC
  8
0
 62
     7
 10
100.381
 20
188.34399999999999
 30
0.0
 11
100.383
 21
188.34399999999999
 31
0.0
  0
LINE
  5
3AD
  8
0
 62
     7
 10
100.413
 20
188.34399999999999
 30
0.0
 11
100.414
 21
188.34399999999999
 31
0.0
  0
LINE
  5
3AE
  8
0
 62
     7
 10
100.422
 20
188.34299999999999
 30
0.0
 11
100.42400000000001
 21
188.34299999999999
 31
0.0
  0
LINE
  5
3AF
  8
0
 62
     7
 10
100.464
 20
188.33799999999999
 30
0.0
 11
100.505
 21
188.32900000000001
 31
0.0
  0
LINE
  5
3B0
  8
0
 62
     7
 10
100.505
 20
188.32900000000001
 30
0.0
 11
100.545
 21
188.31599999999989
 31
0.0
  0
LINE
  5
3B1
  8
0
 62
     7
 10
100.545
 20
188.31599999999989
 30
0.0
 11
100.58199999999999
 21
188.30000000000001
 31
0.0
  0
LINE
  5
3B2
  8
0
 62
     7
 10
100.58199999999999
 20
188.30000000000001
 30
0.0
 11
100.617
 21
188.28
 31
0.0
  0
LINE
  5
3B3
  8
0
 62
     7
 10
100.617
 20
188.28
 30
0.0
 11
100.65000000000001
 21
188.25700000000001
 31
0.0
  0
LINE
  5
3B4
  8
0
 62
     7
 10
100.65000000000001
 20
188.25700000000001
 30
0.0
 11
100.681
 21
188.23099999999999
 31
0.0
  0
LINE
  5
3B5
  8
0
 62
     7
 10
100.681
 20
188.23099999999999
 30
0.0
 11
100.708
 21
188.203
 31
0.0
  0
LINE
  5
3B6
  8
0
 62
     7
 10
100.708
 20
188.203
 30
0.0
 11
100.733
 21
188.172
 31
0.0
  0
LINE
  5
3B7
  8
0
 62
     7
 10
100.733
 20
188.172
 30
0.0
 11
100.755
 21
188.13900000000001
 31
0.0
  0
LINE
  5
3B8
  8
0
 62
     7
 10
100.755
 20
188.13900000000001
 30
0.0
 11
100.773
 21
188.10299999999989
 31
0.0
  0
LINE
  5
3B9
  8
0
 62
     7
 10
100.773
 20
188.10299999999989
 30
0.0
 11
100.788
 21
188.06599999999989
 31
0.0
  0
LINE
  5
3BA
  8
0
 62
     7
 10
100.788
 20
188.06599999999989
 30
0.0
 11
100.8
 21
188.02799999999999
 31
0.0
  0
LINE
  5
3BB
  8
0
 62
     7
 10
100.8
 20
188.02799999999999
 30
0.0
 11
100.80800000000001
 21
187.988
 31
0.0
  0
LINE
  5
3BC
  8
0
 62
     7
 10
100.80800000000001
 20
187.988
 30
0.0
 11
100.81100000000001
 21
187.94800000000001
 31
0.0
  0
LINE
  5
3BD
  8
0
 62
     7
 10
100.81100000000001
 20
187.94800000000001
 30
0.0
 11
100.81100000000001
 21
187.90599999999989
 31
0.0
  0
LINE
  5
3BE
  8
0
 62
     7
 10
100.81100000000001
 20
187.90599999999989
 30
0.0
 11
100.807
 21
187.864
 31
0.0
  0
ARC
  5
3BF
  8
0
 62
     7
 10
389.34634999999997
 20
142.735288
 30
0.0
 40
292.04768300000001
 50
171.11066199999999
 51
171.35904400000001
  0
ARC
  5
3C0
  8
0
 62
     7
 10
791.98460299999999
 20
80.801338999999984
 30
0.0
 40
699.42115899999988
 50
171.298598
 51
171.471746
  0
ARC
  5
3C1
  8
0
 62
     7
 10
-679.95639600000004
 20
302.74068
 30
0.0
 40
789.15824900000007
 50
351.331118
 51
351.38455199999999
  0
ARC
  5
3C2
  8
0
 62
     7
 10
-284.739484
 20
243.140501
 30
0.0
 40
389.473705
 50
351.04929399999997
 51
351.23559100000011
  0
ARC
  5
3C3
  8
0
 62
     7
 10
-38.088309000000002
 20
204.49354600000001
 30
0.0
 40
139.813378
 50
350.39582799999999
 51
350.96782200000001
  0
ARC
  5
3C4
  8
0
 62
     7
 10
-0.4451500000000001
 20
198.22125299999999
 30
0.0
 40
101.651402
 50
349.60556700000001
 51
350.341703
  0
ARC
  5
3C5
  8
0
 62
     7
 10
36.990102
 20
191.42668499999999
 30
0.0
 40
63.604638999999999
 50
347.45717500000001
 51
349.54148300000003
  0
ARC
  5
3C6
  8
0
 62
     7
 10
57.601089999999992
 20
186.949443
 30
0.0
 40
42.513364999999993
 50
345.54742299999998
 51
347.31473900000009
  0
ARC
  5
3C7
  8
0
 62
     7
 10
63.390309000000002
 20
185.50547900000001
 30
0.0
 40
36.546996
 50
343.95811099999997
 51
345.47437400000001
  0
ARC
  5
3C8
  8
0
 62
     7
 10
72.838587000000004
 20
182.83710099999999
 30
0.0
 40
26.729296000000001
 50
339.1312759999999
 51
343.85850599999998
  0
ARC
  5
3C9
  8
0
 62
     7
 10
81.332448999999997
 20
179.70277899999999
 30
0.0
 40
17.676372000000001
 50
332.61192999999997
 51
338.81671899999998
  0
ARC
  5
3CA
  8
0
 62
     7
 10
86.050228000000004
 20
177.329849
 30
0.0
 40
12.395981000000001
 50
324.02997499999998
 51
332.31935399999998
  0
ARC
  5
3CB
  8
0
 62
     7
 10
89.558227000000002
 20
174.864079
 30
0.0
 40
8.1088320000000014
 50
305.75009699999998
 51
323.57170000000002
  0
ARC
  5
3CC
  8
0
 62
     7
 10
89.962979000000004
 20
174.445087
 30
0.0
 40
7.5327779999999986
 50
284.61529999999999
 51
305.11352299999999
  0
ARC
  5
3CD
  8
0
  6
AIGENLINE002
 62
     7
 10
98.716642000000007
 20
185.86921899999999
 30
0.0
 40
0.858717
 50
271.293521
 51
347.37191899999999
  0
ARC
  5
3CE
  8
0
  6
AIGENLINE002
 62
     7
 10
100.398273
 20
187.82327100000001
 30
0.0
 40
0.52081
 50
91.627376999999996
 51
115.640004
  0
ARC
  5
3CF
  8
0
  6
AIGENLINE002
 62
     7
 10
100.341655
 20
187.98856900000001
 30
0.0
 40
0.347894
 50
119.01549300000001
 51
164.95075600000001
  0
ARC
  5
3D0
  8
0
  6
AIGENLINE002
 62
     7
 10
100.57710400000001
 20
187.897941
 30
0.0
 40
0.5993800000000001
 50
162.42766700000001
 51
170.124585
  0
LINE
  5
3D1
  8
0
  6
AIGENLINE002
 62
     7
 10
98.736000000000004
 20
185.011
 30
0.0
 11
77.5809
 21
185.011
 31
0.0
  0
ARC
  5
3D2
  8
0
  6
AIGENLINE002
 62
     7
 10
-63.592668000000003
 20
216.87552400000001
 30
0.0
 40
166.108193
 50
349.60877599999998
 51
349.98935299999999
  0
ARC
  5
3D3
  8
0
  6
AIGENLINE002
 62
     7
 10
20.760106
 20
201.43734799999999
 30
0.0
 40
80.354324000000005
 50
348.69218999999998
 51
349.58766400000002
  0
ARC
  5
3D4
  8
0
  6
AIGENLINE002
 62
     7
 10
248.10312999999999
 20
226.34141199999999
 30
0.0
 40
219.836536
 50
190.04407499999999
 51
190.36851299999989
  0
ARC
  5
3D5
  8
0
  6
AIGENLINE002
 62
     7
 10
104.937387
 20
200.226012
 30
0.0
 40
74.308441000000002
 50
190.42848000000001
 51
191.38828000000001
  0
ARC
  5
3D6
  8
0
  6
AIGENLINE002
 62
     7
 10
77.712958999999998
 20
194.80626100000001
 30
0.0
 40
46.549894999999999
 50
191.46532500000001
 51
193.50714099999999
  0
ARC
  5
3D7
  8
0
  6
AIGENLINE002
 62
     7
 10
62.619298000000001
 20
191.25995900000001
 30
0.0
 40
31.04551
 50
193.64953399999999
 51
196.47117399999999
  0
ARC
  5
3D8
  8
0
  6
AIGENLINE002
 62
     7
 10
55.399569999999997
 20
189.18183999999999
 30
0.0
 40
23.532909
 50
196.60310899999999
 51
200.18187800000001
  0
ARC
  5
3D9
  8
0
  6
AIGENLINE002
 62
     7
 10
50.363993999999998
 20
187.404832
 30
0.0
 40
18.193569
 50
200.40036000000001
 51
204.56615199999999
  0
ARC
  5
3DA
  8
0
  6
AIGENLINE002
 62
     7
 10
47.362667000000002
 20
186.08772400000001
 30
0.0
 40
14.91642
 50
204.75780599999999
 51
209.84051600000001
  0
ARC
  5
3DB
  8
0
  6
AIGENLINE002
 62
     7
 10
45.251489999999997
 20
184.9204
 30
0.0
 40
12.504367999999999
 50
210.01436799999999
 51
216.07346799999999
  0
ARC
  5
3DC
  8
0
  6
AIGENLINE002
 62
     7
 10
44.062223999999993
 20
184.087356
 30
0.0
 40
11.052647
 50
216.21315999999999
 51
219.25991999999999
  0
ARC
  5
3DD
  8
0
  6
AIGENLINE002
 62
     7
 10
44.140681999999991
 20
184.18212299999999
 30
0.0
 40
11.173393000000001
 50
219.38157899999999
 51
222.39646999999999
  0
ARC
  5
3DE
  8
0
  6
AIGENLINE002
 62
     7
 10
43.694364999999998
 20
183.79609600000001
 30
0.0
 40
10.583519000000001
 50
222.48229499999999
 51
228.847925
  0
ARC
  5
3DF
  8
0
  6
AIGENLINE002
 62
     7
 10
43.625523999999999
 20
183.72910100000001
 30
0.0
 40
10.487776
 50
228.890252
 51
232.10079099999999
  0
ARC
  5
3E0
  8
0
  6
AIGENLINE002
 62
     7
 10
43.372125999999987
 20
183.41019900000001
 30
0.0
 40
10.080477999999999
 50
232.12387000000001
 51
235.4659520000001
  0
ARC
  5
3E1
  8
0
  6
AIGENLINE002
 62
     7
 10
43.892206999999999
 20
184.14744300000001
 30
0.0
 40
10.982647999999999
 50
235.41119499999999
 51
241.54333099999999
  0
ARC
  5
3E2
  8
0
  6
AIGENLINE002
 62
     7
 10
31.074057
 20
187.902342
 30
0.0
 40
0.570318
 50
9.9348650000000021
 51
25.045048999999999
  0
ARC
  5
3E3
  8
0
  6
AIGENLINE002
 62
     7
 10
31.273651999999998
 20
187.98454899999999
 30
0.0
 40
0.354831
 50
26.662745000000001
 51
82.955894999999998
  0
ARC
  5
3E4
  8
0
  6
AIGENLINE002
 62
     7
 10
31.223868
 20
187.74448699999999
 30
0.0
 40
0.599518
 50
81.047229000000002
 51
88.789488000000006
  0
LINE
  5
3E5
  8
0
 62
     7
 10
91.1447
 20
165.84399999999999
 30
0.0
 11
40.477699999999992
 21
165.84399999999999
 31
0.0
  0
LINE
  5
3E6
  8
0
 62
     7
 10
59.977800000000002
 20
165.011
 30
0.0
 11
59.977800000000002
 21
165.84399999999999
 31
0.0
  0
ARC
  5
3E7
  8
0
 62
     7
 10
-298.97556300000002
 20
136.28410199999999
 30
0.0
 40
333.80037399999998
 50
8.6718740000000007
 51
8.8891969999999993
  0
ARC
  5
3E8
  8
0
 62
     7
 10
-989.49006600000007
 20
31.106694000000001
 30
0.0
 40
1032.279
 50
8.5469170000000005
 51
8.6642309999999991
  0
ARC
  5
3E9
  8
0
 62
     7
 10
-555.74215499999991
 20
94.645460999999983
 30
0.0
 40
593.90735400000005
 50
8.6331769999999999
 51
8.7041820000000012
  0
ARC
  5
3EA
  8
0
 62
     7
 10
262.38239600000003
 20
219.14479499999999
 30
0.0
 40
233.63603900000001
 50
188.70229800000001
 51
189.012857
  0
ARC
  5
3EB
  8
0
 62
     7
 10
169.71073699999999
 20
204.49354600000001
 30
0.0
 40
139.813378
 50
189.03219799999991
 51
189.60419200000001
  0
ARC
  5
3EC
  8
0
 62
     7
 10
124.513177
 20
196.88562300000001
 30
0.0
 40
93.980009999999979
 50
189.62827200000001
 51
190.424498
  0
ARC
  5
3ED
  8
0
 62
     7
 10
95.660301000000004
 20
191.635841
 30
0.0
 40
64.653505999999993
 50
190.47544500000001
 51
192.525936
  0
ARC
  5
3EE
  8
0
 62
     7
 10
76.205178000000004
 20
187.4648
 30
0.0
 40
44.757075999999991
 50
192.715
 51
194.39361
  0
ARC
  5
3EF
  8
0
 62
     7
 10
66.471152000000004
 20
185.02436299999999
 30
0.0
 40
34.721990000000012
 50
194.48579599999999
 51
196.08175900000001
  0
ARC
  5
3F0
  8
0
 62
     7
 10
58.782047999999989
 20
182.83668
 30
0.0
 40
26.727786999999999
 50
196.14151100000001
 51
200.869011
  0
ARC
  5
3F1
  8
0
 62
     7
 10
50.289640000000013
 20
179.70277899999999
 30
0.0
 40
17.676372000000001
 50
201.183301
 51
207.38809000000001
  0
ARC
  5
3F2
  8
0
 62
     7
 10
45.568884999999987
 20
177.327967
 30
0.0
 40
12.392472
 50
207.67935
 51
215.97106700000001
  0
ARC
  5
3F3
  8
0
 62
     7
 10
42.062579999999997
 20
174.863134
 30
0.0
 40
8.1072439999999997
 50
216.428304
 51
234.25408100000001
  0
ARC
  5
3F4
  8
0
 62
     7
 10
41.660245000000003
 20
174.44705400000001
 30
0.0
 40
7.5349690000000002
 50
234.888801
 51
255.38009299999999
  0
LINE
  5
3F5
  8
0
 62
     7
 10
40.362999999999992
 20
166.495
 30
0.0
 11
40.477699999999992
 21
165.84399999999999
 31
0.0
  0
ARC
  5
3F6
  8
0
 62
     7
 10
39.50067
 20
166.19924
 30
0.0
 40
0.9906700000000001
 50
57.171556999999993
 51
74.901398999999984
  0
ARC
  5
3F7
  8
0
 62
     7
 10
39.621940000000002
 20
166.422065
 30
0.0
 40
0.737929
 50
16.712531999999999
 51
55.704244000000003
  0
ARC
  5
3F8
  8
0
 62
     7
 10
39.341087999999999
 20
166.317297
 30
0.0
 40
1.037231
 50
9.8613600000000012
 51
17.794076
  0
LINE
  5
3F9
  8
0
 62
     7
 10
91.259399999999985
 20
166.495
 30
0.0
 11
91.1447
 21
165.84399999999999
 31
0.0
  0
ARC
  5
3FA
  8
0
 62
     7
 10
92.121973999999994
 20
166.198452
 30
0.0
 40
0.991488
 50
105.09874599999991
 51
122.817593
  0
ARC
  5
3FB
  8
0
 62
     7
 10
92.000124
 20
166.422223
 30
0.0
 40
0.737634
 50
124.283787
 51
163.29333399999999
  0
ARC
  5
3FC
  8
0
 62
     7
 10
92.276168999999996
 20
166.31929099999999
 30
0.0
 40
1.031795
 50
162.22531699999999
 51
170.198531
  0
LINE
  5
3FD
  8
0
 62
     7
 10
71.6447
 20
165.84399999999999
 30
0.0
 11
71.6447
 21
165.011
 31
0.0
  0
LINE
  5
3FE
  8
0
 62
     7
 10
160.21100000000001
 20
156.67699999999999
 30
0.0
 11
160.37799999999999
 21
156.84399999999999
 31
0.0
  0
LINE
  5
3FF
  8
0
 62
     7
 10
159.57300000000001
 20
156.67699999999999
 30
0.0
 11
159.40600000000001
 21
156.84399999999999
 31
0.0
  0
LINE
  5
400
  8
0
  6
AIGENLINE001
 62
     7
 10
159.893
 20
166.84399999999999
 30
0.0
 11
159.893
 21
155.995
 31
0.0
  0
LINE
  5
401
  8
0
 62
     7
 10
159.40600000000001
 20
156.84399999999999
 30
0.0
 11
159.893
 21
156.84399999999999
 31
0.0
  0
LINE
  5
402
  8
0
 62
     7
 10
160.37799999999999
 20
156.84399999999999
 30
0.0
 11
159.893
 21
156.84399999999999
 31
0.0
  0
LINE
  5
403
  8
0
 62
     7
 10
159.57300000000001
 20
156.67699999999999
 30
0.0
 11
159.893
 21
156.67699999999999
 31
0.0
  0
LINE
  5
404
  8
0
 62
     7
 10
159.57300000000001
 20
158.09399999999999
 30
0.0
 11
159.57300000000001
 21
156.67699999999999
 31
0.0
  0
LINE
  5
405
  8
0
 62
     7
 10
159.57300000000001
 20
165.84399999999999
 30
0.0
 11
159.57300000000001
 21
159.17699999999999
 31
0.0
  0
LINE
  5
406
  8
0
 62
     7
 10
159.40600000000001
 20
158.09399999999999
 30
0.0
 11
159.40600000000001
 21
156.84399999999999
 31
0.0
  0
LINE
  5
407
  8
0
 62
     7
 10
161.351
 20
158.92699999999999
 30
0.0
 11
161.351
 21
159.17500000000001
 31
0.0
  0
LINE
  5
408
  8
0
 62
     7
 10
158.434
 20
158.928
 30
0.0
 11
158.434
 21
159.17699999999999
 31
0.0
  0
LINE
  5
409
  8
0
 62
     7
 10
159.06700000000001
 20
158.09399999999999
 30
0.0
 11
159.893
 21
158.09399999999999
 31
0.0
  0
LINE
  5
40A
  8
0
 62
     7
 10
158.434
 20
158.92699999999999
 30
0.0
 11
159.893
 21
158.92699999999999
 31
0.0
  0
LINE
  5
40B
  8
0
 62
     7
 10
158.434
 20
159.17699999999999
 30
0.0
 11
159.893
 21
159.17699999999999
 31
0.0
  0
LINE
  5
40C
  8
0
 62
     7
 10
159.893
 20
158.92699999999999
 30
0.0
 11
159.893
 21
158.09399999999999
 31
0.0
  0
LINE
  5
40D
  8
0
 62
     7
 10
159.06700000000001
 20
158.92699999999999
 30
0.0
 11
159.06700000000001
 21
158.09399999999999
 31
0.0
  0
LINE
  5
40E
  8
0
 62
     7
 10
159.40600000000001
 20
165.84399999999999
 30
0.0
 11
159.40600000000001
 21
159.17699999999999
 31
0.0
  0
LINE
  5
40F
  8
0
 62
     7
 10
160.21100000000001
 20
156.67699999999999
 30
0.0
 11
159.893
 21
156.67699999999999
 31
0.0
  0
LINE
  5
410
  8
0
 62
     7
 10
160.21100000000001
 20
158.09399999999999
 30
0.0
 11
160.21100000000001
 21
156.67699999999999
 31
0.0
  0
LINE
  5
411
  8
0
 62
     7
 10
160.21100000000001
 20
165.84399999999999
 30
0.0
 11
160.21100000000001
 21
159.17699999999999
 31
0.0
  0
LINE
  5
412
  8
0
 62
     7
 10
160.37799999999999
 20
158.09399999999999
 30
0.0
 11
160.37799999999999
 21
156.84399999999999
 31
0.0
  0
LINE
  5
413
  8
0
 62
     7
 10
160.71700000000001
 20
158.09399999999999
 30
0.0
 11
159.893
 21
158.09399999999999
 31
0.0
  0
LINE
  5
414
  8
0
 62
     7
 10
161.351
 20
158.92699999999999
 30
0.0
 11
159.893
 21
158.92699999999999
 31
0.0
  0
LINE
  5
415
  8
0
 62
     7
 10
161.351
 20
159.17699999999999
 30
0.0
 11
159.893
 21
159.17699999999999
 31
0.0
  0
LINE
  5
416
  8
0
 62
     7
 10
160.71700000000001
 20
158.92699999999999
 30
0.0
 11
160.71700000000001
 21
158.09399999999999
 31
0.0
  0
LINE
  5
417
  8
0
 62
     7
 10
160.37799999999999
 20
165.84399999999999
 30
0.0
 11
160.37799999999999
 21
159.17699999999999
 31
0.0
  0
LINE
  5
418
  8
0
 62
     7
 10
142.71199999999999
 20
156.67699999999999
 30
0.0
 11
142.87799999999999
 21
156.84399999999999
 31
0.0
  0
LINE
  5
419
  8
0
 62
     7
 10
142.07300000000001
 20
156.67699999999999
 30
0.0
 11
141.90600000000001
 21
156.84399999999999
 31
0.0
  0
LINE
  5
41A
  8
0
  6
AIGENLINE001
 62
     7
 10
142.393
 20
166.84399999999999
 30
0.0
 11
142.393
 21
155.995
 31
0.0
  0
LINE
  5
41B
  8
0
  6
AIGENLINE003
 62
     7
 10
178.29599999999999
 20
165.84399999999999
 30
0.0
 11
124.236
 21
165.84399999999999
 31
0.0
  0
LINE
  5
41C
  8
0
  6
AIGENLINE003
 62
     7
 10
105.464
 20
165.84399999999999
 30
0.0
 11
26.4041
 21
165.84399999999999
 31
0.0
  0
LINE
  5
41D
  8
0
  6
AIGENLINE003
 62
     7
 10
178.29599999999999
 20
159.17699999999999
 30
0.0
 11
124.236
 21
159.17699999999999
 31
0.0
  0
LINE
  5
41E
  8
0
 62
     7
 10
141.90600000000001
 20
156.84399999999999
 30
0.0
 11
142.393
 21
156.84399999999999
 31
0.0
  0
LINE
  5
41F
  8
0
 62
     7
 10
142.87799999999999
 20
156.84399999999999
 30
0.0
 11
142.393
 21
156.84399999999999
 31
0.0
  0
LINE
  5
420
  8
0
 62
     7
 10
142.07300000000001
 20
156.67699999999999
 30
0.0
 11
142.393
 21
156.67699999999999
 31
0.0
  0
LINE
  5
421
  8
0
 62
     7
 10
142.07300000000001
 20
158.09399999999999
 30
0.0
 11
142.07300000000001
 21
156.67699999999999
 31
0.0
  0
LINE
  5
422
  8
0
 62
     7
 10
142.07300000000001
 20
165.84399999999999
 30
0.0
 11
142.07300000000001
 21
159.17699999999999
 31
0.0
  0
LINE
  5
423
  8
0
 62
     7
 10
141.90600000000001
 20
158.09399999999999
 30
0.0
 11
141.90600000000001
 21
156.84399999999999
 31
0.0
  0
LINE
  5
424
  8
0
 62
     7
 10
143.851
 20
158.92699999999999
 30
0.0
 11
143.851
 21
159.17500000000001
 31
0.0
  0
LINE
  5
425
  8
0
 62
     7
 10
140.934
 20
158.928
 30
0.0
 11
140.934
 21
159.17699999999999
 31
0.0
  0
LINE
  5
426
  8
0
 62
     7
 10
141.56700000000001
 20
158.09399999999999
 30
0.0
 11
142.393
 21
158.09399999999999
 31
0.0
  0
LINE
  5
427
  8
0
 62
     7
 10
140.934
 20
158.92699999999999
 30
0.0
 11
142.393
 21
158.92699999999999
 31
0.0
  0
LINE
  5
428
  8
0
 62
     7
 10
140.934
 20
159.17699999999999
 30
0.0
 11
142.393
 21
159.17699999999999
 31
0.0
  0
LINE
  5
429
  8
0
 62
     7
 10
142.393
 20
158.92699999999999
 30
0.0
 11
142.393
 21
158.09399999999999
 31
0.0
  0
LINE
  5
42A
  8
0
 62
     7
 10
141.56700000000001
 20
158.92699999999999
 30
0.0
 11
141.56700000000001
 21
158.09399999999999
 31
0.0
  0
LINE
  5
42B
  8
0
 62
     7
 10
141.90600000000001
 20
165.84399999999999
 30
0.0
 11
141.90600000000001
 21
159.17699999999999
 31
0.0
  0
LINE
  5
42C
  8
0
 62
     7
 10
142.71199999999999
 20
156.67699999999999
 30
0.0
 11
142.393
 21
156.67699999999999
 31
0.0
  0
LINE
  5
42D
  8
0
 62
     7
 10
142.71199999999999
 20
158.09399999999999
 30
0.0
 11
142.71199999999999
 21
156.67699999999999
 31
0.0
  0
LINE
  5
42E
  8
0
 62
     7
 10
142.71199999999999
 20
165.84399999999999
 30
0.0
 11
142.71199999999999
 21
159.17699999999999
 31
0.0
  0
LINE
  5
42F
  8
0
 62
     7
 10
142.87799999999999
 20
158.09399999999999
 30
0.0
 11
142.87799999999999
 21
156.84399999999999
 31
0.0
  0
LINE
  5
430
  8
0
 62
     7
 10
143.21700000000001
 20
158.09399999999999
 30
0.0
 11
142.393
 21
158.09399999999999
 31
0.0
  0
LINE
  5
431
  8
0
 62
     7
 10
143.851
 20
158.92699999999999
 30
0.0
 11
142.393
 21
158.92699999999999
 31
0.0
  0
LINE
  5
432
  8
0
 62
     7
 10
143.851
 20
159.17699999999999
 30
0.0
 11
142.393
 21
159.17699999999999
 31
0.0
  0
LINE
  5
433
  8
0
 62
     7
 10
143.21700000000001
 20
158.92699999999999
 30
0.0
 11
143.21700000000001
 21
158.09399999999999
 31
0.0
  0
LINE
  5
434
  8
0
 62
     7
 10
142.87799999999999
 20
165.84399999999999
 30
0.0
 11
142.87799999999999
 21
159.17699999999999
 31
0.0
  0
LINE
  5
435
  8
0
 62
     7
 10
77.046599999999998
 20
156.67699999999999
 30
0.0
 11
77.213300000000004
 21
156.84399999999999
 31
0.0
  0
LINE
  5
436
  8
0
 62
     7
 10
76.408199999999994
 20
156.67699999999999
 30
0.0
 11
76.241500000000002
 21
156.84399999999999
 31
0.0
  0
LINE
  5
437
  8
0
  6
AIGENLINE001
 62
     7
 10
76.727900000000005
 20
166.84399999999999
 30
0.0
 11
76.727900000000005
 21
155.995
 31
0.0
  0
LINE
  5
438
  8
0
 62
     7
 10
76.241500000000002
 20
156.84399999999999
 30
0.0
 11
76.727900000000005
 21
156.84399999999999
 31
0.0
  0
LINE
  5
439
  8
0
 62
     7
 10
77.213300000000004
 20
156.84399999999999
 30
0.0
 11
76.727900000000005
 21
156.84399999999999
 31
0.0
  0
LINE
  5
43A
  8
0
 62
     7
 10
76.408199999999994
 20
156.67699999999999
 30
0.0
 11
76.727900000000005
 21
156.67699999999999
 31
0.0
  0
LINE
  5
43B
  8
0
 62
     7
 10
76.408199999999994
 20
158.09399999999999
 30
0.0
 11
76.408199999999994
 21
156.67699999999999
 31
0.0
  0
LINE
  5
43C
  8
0
 62
     7
 10
76.408199999999994
 20
165.84399999999999
 30
0.0
 11
76.408199999999994
 21
159.17699999999999
 31
0.0
  0
LINE
  5
43D
  8
0
 62
     7
 10
76.241500000000002
 20
158.09399999999999
 30
0.0
 11
76.241500000000002
 21
156.84399999999999
 31
0.0
  0
LINE
  5
43E
  8
0
 62
     7
 10
78.185599999999994
 20
158.92699999999999
 30
0.0
 11
78.185599999999994
 21
159.17500000000001
 31
0.0
  0
LINE
  5
43F
  8
0
 62
     7
 10
75.268900000000002
 20
158.928
 30
0.0
 11
75.268900000000002
 21
159.17699999999999
 31
0.0
  0
LINE
  5
440
  8
0
 62
     7
 10
75.902500000000003
 20
158.09399999999999
 30
0.0
 11
76.727599999999995
 21
158.09399999999999
 31
0.0
  0
LINE
  5
441
  8
0
 62
     7
 10
75.268900000000002
 20
158.92699999999999
 30
0.0
 11
76.727900000000005
 21
158.92699999999999
 31
0.0
  0
LINE
  5
442
  8
0
 62
     7
 10
75.268900000000002
 20
159.17699999999999
 30
0.0
 11
76.727900000000005
 21
159.17699999999999
 31
0.0
  0
LINE
  5
443
  8
0
 62
     7
 10
77.118899999999996
 20
158.92699999999999
 30
0.0
 11
77.118899999999996
 21
158.09399999999999
 31
0.0
  0
LINE
  5
444
  8
0
 62
     7
 10
76.335899999999995
 20
158.92699999999999
 30
0.0
 11
76.335899999999995
 21
158.09399999999999
 31
0.0
  0
LINE
  5
445
  8
0
 62
     7
 10
75.902500000000003
 20
158.92699999999999
 30
0.0
 11
75.902500000000003
 21
158.09399999999999
 31
0.0
  0
LINE
  5
446
  8
0
 62
     7
 10
76.241500000000002
 20
165.84399999999999
 30
0.0
 11
76.241500000000002
 21
159.17699999999999
 31
0.0
  0
LINE
  5
447
  8
0
 62
     7
 10
77.046599999999998
 20
156.67699999999999
 30
0.0
 11
76.727900000000005
 21
156.67699999999999
 31
0.0
  0
LINE
  5
448
  8
0
 62
     7
 10
77.046599999999998
 20
158.09399999999999
 30
0.0
 11
77.046599999999998
 21
156.67699999999999
 31
0.0
  0
LINE
  5
449
  8
0
 62
     7
 10
77.046599999999998
 20
165.84399999999999
 30
0.0
 11
77.046599999999998
 21
159.17699999999999
 31
0.0
  0
LINE
  5
44A
  8
0
 62
     7
 10
77.213300000000004
 20
158.09399999999999
 30
0.0
 11
77.213300000000004
 21
156.84399999999999
 31
0.0
  0
LINE
  5
44B
  8
0
 62
     7
 10
77.552300000000002
 20
158.09399999999999
 30
0.0
 11
76.727599999999995
 21
158.09399999999999
 31
0.0
  0
LINE
  5
44C
  8
0
 62
     7
 10
78.185599999999994
 20
158.92699999999999
 30
0.0
 11
76.727900000000005
 21
158.92699999999999
 31
0.0
  0
LINE
  5
44D
  8
0
 62
     7
 10
78.185599999999994
 20
159.17699999999999
 30
0.0
 11
76.727900000000005
 21
159.17699999999999
 31
0.0
  0
LINE
  5
44E
  8
0
 62
     7
 10
77.552300000000002
 20
158.92699999999999
 30
0.0
 11
77.552300000000002
 21
158.09399999999999
 31
0.0
  0
LINE
  5
44F
  8
0
 62
     7
 10
77.213300000000004
 20
165.84399999999999
 30
0.0
 11
77.213300000000004
 21
159.17699999999999
 31
0.0
  0
LINE
  5
450
  8
0
 62
     7
 10
55.213200000000001
 20
156.67699999999999
 30
0.0
 11
55.379899999999999
 21
156.84399999999999
 31
0.0
  0
LINE
  5
451
  8
0
 62
     7
 10
54.574800000000003
 20
156.67699999999999
 30
0.0
 11
54.408000000000001
 21
156.84399999999999
 31
0.0
  0
LINE
  5
452
  8
0
  6
AIGENLINE001
 62
     7
 10
54.894500000000001
 20
166.84399999999999
 30
0.0
 11
54.894500000000001
 21
155.995
 31
0.0
  0
LINE
  5
453
  8
0
  6
AIGENLINE003
 62
     7
 10
105.464
 20
159.17699999999999
 30
0.0
 11
26.4041
 21
159.17699999999999
 31
0.0
  0
LINE
  5
454
  8
0
 62
     7
 10
54.408000000000001
 20
156.84399999999999
 30
0.0
 11
54.894500000000001
 21
156.84399999999999
 31
0.0
  0
LINE
  5
455
  8
0
 62
     7
 10
55.379899999999999
 20
156.84399999999999
 30
0.0
 11
54.894500000000001
 21
156.84399999999999
 31
0.0
  0
LINE
  5
456
  8
0
 62
     7
 10
54.574800000000003
 20
156.67699999999999
 30
0.0
 11
54.894500000000001
 21
156.67699999999999
 31
0.0
  0
LINE
  5
457
  8
0
 62
     7
 10
54.574800000000003
 20
158.09399999999999
 30
0.0
 11
54.574800000000003
 21
156.67699999999999
 31
0.0
  0
LINE
  5
458
  8
0
 62
     7
 10
54.574800000000003
 20
165.84399999999999
 30
0.0
 11
54.574800000000003
 21
159.17699999999999
 31
0.0
  0
LINE
  5
459
  8
0
 62
     7
 10
54.408000000000001
 20
158.09399999999999
 30
0.0
 11
54.408000000000001
 21
156.84399999999999
 31
0.0
  0
LINE
  5
45A
  8
0
 62
     7
 10
56.3521
 20
158.92699999999999
 30
0.0
 11
56.3521
 21
159.17500000000001
 31
0.0
  0
LINE
  5
45B
  8
0
 62
     7
 10
53.435499999999998
 20
158.928
 30
0.0
 11
53.435499999999998
 21
159.17699999999999
 31
0.0
  0
LINE
  5
45C
  8
0
 62
     7
 10
54.069000000000003
 20
158.09399999999999
 30
0.0
 11
54.894199999999991
 21
158.09399999999999
 31
0.0
  0
LINE
  5
45D
  8
0
 62
     7
 10
53.435499999999998
 20
158.92699999999999
 30
0.0
 11
54.894500000000001
 21
158.92699999999999
 31
0.0
  0
LINE
  5
45E
  8
0
 62
     7
 10
53.435499999999998
 20
159.17699999999999
 30
0.0
 11
54.894500000000001
 21
159.17699999999999
 31
0.0
  0
LINE
  5
45F
  8
0
 62
     7
 10
55.285499999999999
 20
158.92699999999999
 30
0.0
 11
55.285499999999999
 21
158.09399999999999
 31
0.0
  0
LINE
  5
460
  8
0
 62
     7
 10
54.502400000000002
 20
158.92699999999999
 30
0.0
 11
54.502400000000002
 21
158.09399999999999
 31
0.0
  0
LINE
  5
461
  8
0
 62
     7
 10
54.069000000000003
 20
158.92699999999999
 30
0.0
 11
54.069000000000003
 21
158.09399999999999
 31
0.0
  0
LINE
  5
462
  8
0
 62
     7
 10
54.408000000000001
 20
165.84399999999999
 30
0.0
 11
54.408000000000001
 21
159.17699999999999
 31
0.0
  0
LINE
  5
463
  8
0
 62
     7
 10
55.213200000000001
 20
156.67699999999999
 30
0.0
 11
54.894500000000001
 21
156.67699999999999
 31
0.0
  0
LINE
  5
464
  8
0
 62
     7
 10
55.213200000000001
 20
158.09399999999999
 30
0.0
 11
55.213200000000001
 21
156.67699999999999
 31
0.0
  0
LINE
  5
465
  8
0
 62
     7
 10
55.213200000000001
 20
165.84399999999999
 30
0.0
 11
55.213200000000001
 21
159.17699999999999
 31
0.0
  0
LINE
  5
466
  8
0
 62
     7
 10
55.379899999999999
 20
158.09399999999999
 30
0.0
 11
55.379899999999999
 21
156.84399999999999
 31
0.0
  0
LINE
  5
467
  8
0
 62
     7
 10
55.718899999999991
 20
158.09399999999999
 30
0.0
 11
54.894199999999991
 21
158.09399999999999
 31
0.0
  0
LINE
  5
468
  8
0
 62
     7
 10
56.3521
 20
158.92699999999999
 30
0.0
 11
54.894500000000001
 21
158.92699999999999
 31
0.0
  0
LINE
  5
469
  8
0
 62
     7
 10
56.3521
 20
159.17699999999999
 30
0.0
 11
54.894500000000001
 21
159.17699999999999
 31
0.0
  0
LINE
  5
46A
  8
0
 62
     7
 10
55.718899999999991
 20
158.92699999999999
 30
0.0
 11
55.718899999999991
 21
158.09399999999999
 31
0.0
  0
LINE
  5
46B
  8
0
 62
     7
 10
55.379899999999999
 20
165.84399999999999
 30
0.0
 11
55.379899999999999
 21
159.17699999999999
 31
0.0
  0
LINE
  5
46C
  8
_________2
 62
     7
 10
134.38
 20
94.428600000000003
 30
0.0
 11
134.38
 21
59.428600000000003
 31
0.0
  0
LINE
  5
46D
  8
_________2
 62
     7
 10
158.321
 20
94.428600000000003
 30
0.0
 11
158.321
 21
59.428600000000003
 31
0.0
  0
TEXT
  5
46E
  8
_________2
 62
     7
 10
161.32299999999989
 20
61.579399999999993
 30
0.0
 40
3.3734599999999988
  1
マットホワイト
 41
0.5
  0
TEXT
  5
46F
  8
_________2
 62
     7
 10
136.4943025
 20
61.579399999999993
 30
0.0
 40
3.3734599999999988
  1
DV038142R-26
 41
0.5
 72
     1
 11
146.19300000000001
 21
61.579399999999993
 31
0.0
  0
LINE
  5
470
  8
_________2
 62
     7
 10
134.38
 20
66.428799999999995
 30
0.0
 11
188.49000000000001
 21
66.428799999999995
 31
0.0
  0
TEXT
  5
471
  8
_________2
 62
     7
 10
161.32299999999989
 20
68.579499999999996
 30
0.0
 40
3.3734599999999988
  1
グレーサテンマット
 41
0.5
  0
TEXT
  5
472
  8
_________2
 62
     7
 10
136.4943025
 20
68.579499999999996
 30
0.0
 40
3.3734599999999988
  1
DV038142R-23
 41
0.5
 72
     1
 11
146.19300000000001
 21
68.579499999999996
 31
0.0
  0
LINE
  5
473
  8
_________2
 62
     7
 10
134.38
 20
73.428899999999999
 30
0.0
 11
188.49000000000001
 21
73.428899999999999
 31
0.0
  0
TEXT
  5
474
  8
_________2
 62
     7
 10
161.32299999999989
 20
75.579700000000003
 30
0.0
 40
3.3734599999999988
  1
サンドサテンマット
 41
0.5
  0
TEXT
  5
475
  8
_________2
 62
     7
 10
161.32299999999989
 20
82.579499999999996
 30
0.0
 40
3.3734599999999988
  1
ホワイト
 41
0.5
  0
TEXT
  5
476
  8
_________2
 62
     7
 10
167.94385933333331
 20
89.579599999999985
 30
0.0
 40
3.3734599999999988
  1
色
 41
0.5
 72
     1
 11
168.73099999999999
 21
89.579599999999985
 31
0.0
  0
TEXT
  5
477
  8
_________2
 62
     7
 10
136.7754241666666
 20
75.579700000000003
 30
0.0
 40
3.3734599999999988
  1
DV038142R-21
 41
0.5
 72
     1
 11
146.19300000000001
 21
75.579700000000003
 31
0.0
  0
TEXT
  5
478
  8
_________2
 62
     7
 10
136.7754241666666
 20
82.579499999999996
 30
0.0
 40
3.3734599999999988
  1
DV038142R-00
 41
0.5
 72
     1
 11
146.19300000000001
 21
82.579499999999996
 31
0.0
  0
TEXT
  5
479
  8
_________2
 62
     7
 10
144.39382133333331
 20
89.579599999999985
 30
0.0
 40
3.3734599999999988
  1
品番
 41
0.5
 72
     1
 11
146.19300000000001
 21
89.579599999999985
 31
0.0
  0
LINE
  5
47A
  8
_________2
 62
     7
 10
134.38
 20
80.429000000000016
 30
0.0
 11
188.49000000000001
 21
80.429000000000016
 31
0.0
  0
LINE
  5
47B
  8
_________2
 62
     7
 10
134.38
 20
94.428600000000003
 30
0.0
 11
188.49000000000001
 21
94.428600000000003
 31
0.0
  0
LINE
  5
47C
  8
_________2
 62
     7
 10
134.38
 20
59.428600000000003
 30
0.0
 11
188.49000000000001
 21
59.428600000000003
 31
0.0
  0
LINE
  5
47D
  8
_________2
 62
     7
 10
134.38
 20
87.428799999999995
 30
0.0
 11
188.49000000000001
 21
87.428799999999995
 31
0.0
  0
TEXT
  5
47E
  8
_________2
 62
     7
 10
95.487658666666675
 20
34.7378
 30
0.0
 40
3.6545800000000002
  1
1 ： 6
 41
0.5
 72
     1
 11
98.898600000000002
 21
34.7378
 31
0.0
  0
TEXT
  5
47F
  8
_________2
 62
     7
 10
28.83196533333334
 20
49.456400000000002
 30
0.0
 40
4.4979399999999989
  1
セラトレーディング株式会社
 41
0.5
 72
     1
 11
46.22399999999999
 21
49.456400000000002
 31
0.0
  0
TEXT
  5
480
  8
_________2
 62
     7
 10
29.525700000000001
 20
22.2272
 30
0.0
 40
3.9357000000000002
  1
重量：5.5kg、オーバーフローなし、排水目皿付
 41
0.5
  0
TEXT
  5
481
  8
_________2
 62
     7
 10
113.886
 20
45.745600000000003
 30
0.0
 40
3.9357000000000002
  1
ルフ 手洗器
 41
0.5
  0
LINE
  5
482
  8
_________2
 62
     7
 10
105.239
 20
17.4285
 30
0.0
 11
105.239
 21
0.4485540000000001
 31
0.0
  0
LINE
  5
483
  8
_________2
 62
     7
 10
81.679900000000004
 20
51.324300000000001
 30
0.0
 11
79.493700000000004
 21
51.324300000000001
 31
0.0
  0
LINE
  5
484
  8
_________2
 62
     7
 10
82.172600000000017
 20
51.324300000000001
 30
0.0
 11
81.920400000000001
 21
51.324300000000001
 31
0.0
  0
LINE
  5
485
  8
_________2
 62
     7
 10
82.665199999999984
 20
51.324300000000001
 30
0.0
 11
85.590100000000007
 21
51.324300000000001
 31
0.0
  0
LINE
  5
486
  8
_________2
 62
     7
 10
82.172600000000017
 20
51.324300000000001
 30
0.0
 11
82.424800000000005
 21
51.324300000000001
 31
0.0
  0
LINE
  5
487
  8
_________2
 62
     7
 10
75.776399999999995
 20
51.324300000000001
 30
0.0
 11
73.589399999999998
 21
51.324300000000001
 31
0.0
  0
LINE
  5
488
  8
_________2
 62
     7
 10
76.2684
 20
51.324300000000001
 30
0.0
 11
76.016900000000007
 21
51.324300000000001
 31
0.0
  0
LINE
  5
489
  8
_________2
 62
     7
 10
76.2684
 20
51.817
 30
0.0
 11
76.2684
 21
54.003900000000002
 31
0.0
  0
LINE
  5
48A
  8
_________2
 62
     7
 10
76.2684
 20
51.324300000000001
 30
0.0
 11
76.2684
 21
51.576900000000002
 31
0.0
  0
LINE
  5
48B
  8
_________2
 62
     7
 10
76.76100000000001
 20
51.324300000000001
 30
0.0
 11
78.947999999999993
 21
51.324300000000001
 31
0.0
  0
LINE
  5
48C
  8
_________2
 62
     7
 10
76.2684
 20
51.324300000000001
 30
0.0
 11
76.520499999999998
 21
51.324300000000001
 31
0.0
  0
LINE
  5
48D
  8
_________2
 62
     7
 10
76.2684
 20
50.832399999999993
 30
0.0
 11
76.2684
 21
48.645699999999998
 31
0.0
  0
LINE
  5
48E
  8
_________2
 62
     7
 10
76.2684
 20
51.324300000000001
 30
0.0
 11
76.2684
 21
51.072800000000001
 31
0.0
  0
LINE
  5
48F
  8
_________2
 62
     7
 10
79.979399999999984
 20
50.104799999999997
 30
0.0
 11
85.157399999999996
 21
49.240000000000002
 31
0.0
  0
LINE
  5
490
  8
_________2
 62
     7
 10
79.979399999999984
 20
52.544199999999989
 30
0.0
 11
85.157399999999996
 21
53.409700000000001
 31
0.0
  0
LINE
  5
491
  8
_________2
 62
     7
 10
85.157399999999996
 20
49.240000000000002
 30
0.0
 11
85.157399999999996
 21
53.409700000000001
 31
0.0
  0
LINE
  5
492
  8
_________2
 62
     7
 10
79.979399999999984
 20
50.104799999999997
 30
0.0
 11
79.979399999999984
 21
52.544199999999989
 31
0.0
  0
ARC
  5
493
  8
_________2
 62
     7
 10
76.221766000000002
 20
51.277380999999998
 30
0.0
 40
1.267714
 50
2.1220840000000001
 51
87.894083999999992
  0
ARC
  5
494
  8
_________2
 62
     7
 10
76.315297000000001
 20
51.277734999999993
 30
0.0
 40
1.267374999999999
 50
92.122849999999985
 51
177.893304
  0
ARC
  5
495
  8
_________2
 62
     7
 10
76.315273000000005
 20
51.371245999999992
 30
0.0
 40
1.267363
 50
182.121815
 51
267.87821400000001
  0
ARC
  5
496
  8
_________2
 62
     7
 10
76.221461000000005
 20
51.371928999999987
 30
0.0
 40
1.2680439999999991
 50
272.11916400000001
 51
357.84848499999998
  0
ARC
  5
497
  8
_________2
 62
     7
 10
76.187981999999991
 20
51.244312999999998
 30
0.0
 40
2.1668310000000002
 50
2.1161439999999989
 51
87.874379000000005
  0
ARC
  5
498
  8
_________2
 62
     7
 10
76.348411999999996
 20
51.245334999999997
 30
0.0
 40
2.1657980000000001
 50
92.118487999999999
 51
177.909886
  0
ARC
  5
499
  8
_________2
 62
     7
 10
76.348354
 20
51.404327000000002
 30
0.0
 40
2.1657779999999991
 50
182.11700400000001
 51
267.88302499999998
  0
ARC
  5
49A
  8
_________2
 62
     7
 10
76.188378999999983
 20
51.405009999999997
 30
0.0
 40
2.1664590000000001
 50
272.11546800000002
 51
357.86560400000002
  0
TEXT
  5
49B
  8
_________2
 62
     7
 10
109.544
 20
23.199100000000001
 30
0.0
 40
3.0923400000000001
  1
図番
 41
0.5
  0
LINE
  5
49C
  8
_________2
 62
     7
 10
108.489
 20
27.4283
 30
0.0
 11
188.49000000000001
 21
27.4283
 31
0.0
  0
TEXT
  5
49D
  8
_________2
 62
     7
 10
109.544
 20
33.198900000000002
 30
0.0
 40
3.0923400000000001
  1
品番
 41
0.5
  0
TEXT
  5
49E
  8
_________2
 62
     7
 10
109.544
 20
53.338000000000001
 30
0.0
 40
3.0923400000000001
  1
名称
 41
0.5
  0
TEXT
  5
49F
  8
_________2
 62
     7
 10
94.569199999999995
 20
48.341900000000003
 30
0.0
 40
3.6545800000000002
  1
mm
 41
0.5
  0
TEXT
  5
4A0
  8
_________2
 62
     7
 10
90.582099999999997
 20
53.338000000000001
 30
0.0
 40
3.0923400000000001
  1
単位
 41
0.5
  0
TEXT
  5
4A1
  8
_________2
 62
     7
 10
90.582099999999997
 20
40.930399999999999
 30
0.0
 40
3.0923400000000001
  1
尺度
 41
0.5
  0
TEXT
  5
4A2
  8
_________2
 62
     7
 10
137.327
 20
30.627800000000001
 30
0.0
 40
3.9357000000000002
  1
図中の表参照
 41
0.5
  0
TEXT
  5
4A3
  8
_________2
 62
     7
 10
137.327
 20
20.626999999999999
 30
0.0
 40
3.9357000000000002
  1
DV038142R
 41
0.5
  0
TEXT
  5
4A4
  8
_________2
 62
     7
 10
41.6663
 20
35.123000000000012
 30
0.0
 40
3.6545800000000002
  1
井伊
 41
0.5
  0
TEXT
  5
4A5
  8
_________2
 62
     7
 10
23.092300000000002
 20
35.123000000000012
 30
0.0
 40
3.6545800000000002
  1
菅原
 41
0.5
  0
TEXT
  5
4A6
  8
_________2
 62
     7
 10
72.724699999999999
 20
34.7378
 30
0.0
 40
3.6545800000000002
  1
18.04.04
 41
0.5
  0
TEXT
  5
4A7
  8
_________2
 62
     7
 10
74.768500000000003
 20
40.930399999999999
 30
0.0
 40
3.0923400000000001
  1
付
 41
0.5
  0
TEXT
  5
4A8
  8
_________2
 62
     7
 10
71.209900000000005
 20
40.930399999999999
 30
0.0
 40
3.0923400000000001
  1
日
 41
0.5
  0
TEXT
  5
4A9
  8
_________2
 62
     7
 10
34.578299999999999
 20
40.930399999999999
 30
0.0
 40
3.0923400000000001
  1
検図
 41
0.5
  0
TEXT
  5
4AA
  8
_________2
 62
     7
 10
22.9602
 20
26.731000000000002
 30
0.0
 40
3.0923400000000001
  1
備考
 41
0.5
  0
TEXT
  5
4AB
  8
_________2
 62
     7
 10
22.9602
 20
40.930399999999999
 30
0.0
 40
3.0923400000000001
  1
製図
 41
0.5
  0
LINE
  5
4AC
  8
_________2
 62
     7
 10
188.49000000000001
 20
17.4285
 30
0.0
 11
21.988499999999998
 21
17.4285
 31
0.0
  0
LINE
  5
4AD
  8
_________2
 62
     7
 10
21.988499999999998
 20
17.4285
 30
0.0
 11
21.988499999999998
 21
280.43000000000001
 31
0.0
  0
LINE
  5
4AE
  8
_________2
 62
     7
 10
21.988499999999998
 20
280.43000000000001
 30
0.0
 11
188.49000000000001
 21
280.43000000000001
 31
0.0
  0
LINE
  5
4AF
  8
_________2
 62
     7
 10
188.49000000000001
 20
280.43000000000001
 30
0.0
 11
188.49000000000001
 21
17.4285
 31
0.0
  0
LINE
  5
4B0
  8
_________2
 62
     7
 10
70.488799999999998
 20
30.928899999999999
 30
0.0
 11
70.488799999999998
 21
57.428699999999992
 31
0.0
  0
LINE
  5
4B1
  8
_________2
 62
     7
 10
89.488600000000005
 20
30.928899999999999
 30
0.0
 11
89.488600000000005
 21
57.428699999999992
 31
0.0
  0
LINE
  5
4B2
  8
_________2
 62
     7
 10
108.489
 20
17.4285
 30
0.0
 11
108.489
 21
57.428699999999992
 31
0.0
  0
LINE
  5
4B3
  8
_________2
 62
     7
 10
33.488300000000002
 20
30.928899999999999
 30
0.0
 11
33.488300000000002
 21
44.928800000000003
 31
0.0
  0
LINE
  5
4B4
  8
_________2
 62
     7
 10
21.988499999999998
 20
30.928899999999999
 30
0.0
 11
108.489
 21
30.928899999999999
 31
0.0
  0
LINE
  5
4B5
  8
_________2
 62
     7
 10
21.988499999999998
 20
44.928800000000003
 30
0.0
 11
108.489
 21
44.928800000000003
 31
0.0
  0
LINE
  5
4B6
  8
_________2
 62
     7
 10
108.489
 20
37.428100000000001
 30
0.0
 11
188.49000000000001
 21
37.428100000000001
 31
0.0
  0
LINE
  5
4B7
  8
_________2
 62
     7
 10
21.988499999999998
 20
57.428699999999992
 30
0.0
 11
188.49000000000001
 21
57.428699999999992
 31
0.0
  0
LINE
  5
4B8
  8
_________2
 62
     7
 10
210.24000000000001
 20
148.93100000000001
 30
0.0
 11
188.489
 21
148.93100000000001
 31
0.0
  0
LINE
  5
4B9
  8
_________2
 62
     7
 10
105.239
 20
297.45100000000002
 30
0.0
 11
105.239
 21
280.43000000000001
 31
0.0
  0
LINE
  5
4BA
  8
_________2
 62
     7
 10
21.988499999999998
 20
148.93100000000001
 30
0.0
 11
0.238402
 21
148.93100000000001
 31
0.0
  0
ENDSEC
  0
EOF
