  0
SECTION
  2
HEADER
  9
$ACADVER
  1
AC1009
  9
$INSBASE
 10
0.0
 20
0.0
 30
0.0
  9
$EXTMIN
 10
-4.70052
 20
-21.071400000000001
 30
0.0
  9
$EXTMAX
 10
205.30099999999999
 20
275.93099999999998
 30
0.0
  9
$LIMMIN
 10
0.0
 20
0.0
  9
$LIMMAX
 10
12.0
 20
9.0
  9
$ORTHOMODE
 70
     0
  9
$REGENMODE
 70
     1
  9
$FILLMODE
 70
     1
  9
$QTEXTMODE
 70
     0
  9
$MIRRTEXT
 70
     1
  9
$DRAGMODE
 70
     2
  9
$LTSCALE
 40
1.0
  9
$OSMODE
 70
    37
  9
$ATTMODE
 70
     1
  9
$TEXTSIZE
 40
0.0
  9
$TRACEWID
 40
0.05
  9
$TEXTSTYLE
  7
STANDARD
  9
$CLAYER
  8
0
  9
$CELTYPE
  6
CONTINUOUS
  9
$CECOLOR
 62
   256
  9
$DIMSCALE
 40
1.0
  9
$DIMASZ
 40
0.18
  9
$DIMEXO
 40
0.0625
  9
$DIMDLI
 40
0.38
  9
$DIMRND
 40
0.0
  9
$DIMDLE
 40
0.0
  9
$DIMEXE
 40
0.18
  9
$DIMTP
 40
0.0
  9
$DIMTM
 40
0.0
  9
$DIMTXT
 40
0.18
  9
$DIMCEN
 40
0.09
  9
$DIMTSZ
 40
0.0
  9
$DIMTOL
 70
     0
  9
$DIMLIM
 70
     0
  9
$DIMTIH
 70
     1
  9
$DIMTOH
 70
     1
  9
$DIMSE1
 70
     0
  9
$DIMSE2
 70
     0
  9
$DIMTAD
 70
     0
  9
$DIMZIN
 70
     0
  9
$DIMBLK
  1

  9
$DIMASO
 70
     1
  9
$DIMSHO
 70
     1
  9
$DIMPOST
  1

  9
$DIMAPOST
  1

  9
$DIMALT
 70
     0
  9
$DIMALTD
 70
     2
  9
$DIMALTF
 40
25.399999999999999
  9
$DIMLFAC
 40
1.0
  9
$DIMTOFL
 70
     0
  9
$DIMTVP
 40
0.0
  9
$DIMTIX
 70
     0
  9
$DIMSOXD
 70
     0
  9
$DIMSAH
 70
     0
  9
$DIMBLK1
  1

  9
$DIMBLK2
  1

  9
$DIMSTYLE
  2
STANDARD
  9
$DIMCLRD
 70
     0
  9
$DIMCLRE
 70
     0
  9
$DIMCLRT
 70
     0
  9
$DIMTFAC
 40
1.0
  9
$DIMGAP
 40
0.09
  9
$LUNITS
 70
     2
  9
$LUPREC
 70
     4
  9
$SKETCHINC
 40
0.1
  9
$FILLETRAD
 40
0.0
  9
$AUNITS
 70
     0
  9
$AUPREC
 70
     0
  9
$MENU
  1
.
  9
$ELEVATION
 40
0.0
  9
$PELEVATION
 40
0.0
  9
$THICKNESS
 40
0.0
  9
$LIMCHECK
 70
     0
  9
$BLIPMODE
 70
     0
  9
$CHAMFERA
 40
0.0
  9
$CHAMFERB
 40
0.0
  9
$SKPOLY
 70
     0
  9
$TDCREATE
 40
2444972.375
  9
$TDUPDATE
 40
2457312.2583295722
  9
$TDINDWG
 40
0.0000312384
  9
$TDUSRTIMER
 40
0.0000312384
  9
$USRTIMER
 70
     1
  9
$ANGBASE
 50
0.0
  9
$ANGDIR
 70
     0
  9
$PDMODE
 70
     0
  9
$PDSIZE
 40
0.0
  9
$PLINEWID
 40
0.0
  9
$COORDS
 70
     1
  9
$SPLFRAME
 70
     0
  9
$SPLINETYPE
 70
     6
  9
$SPLINESEGS
 70
     8
  9
$ATTDIA
 70
     1
  9
$ATTREQ
 70
     1
  9
$HANDLING
 70
     1
  9
$HANDSEED
  5
2A8
  9
$SURFTAB1
 70
     6
  9
$SURFTAB2
 70
     6
  9
$SURFTYPE
 70
     6
  9
$SURFU
 70
     6
  9
$SURFV
 70
     6
  9
$UCSNAME
  2

  9
$UCSORG
 10
0.0
 20
0.0
 30
0.0
  9
$UCSXDIR
 10
1.0
 20
0.0
 30
0.0
  9
$UCSYDIR
 10
0.0
 20
1.0
 30
0.0
  9
$PUCSNAME
  2

  9
$PUCSORG
 10
0.0
 20
0.0
 30
0.0
  9
$PUCSXDIR
 10
1.0
 20
0.0
 30
0.0
  9
$PUCSYDIR
 10
0.0
 20
1.0
 30
0.0
  9
$USERI1
 70
     0
  9
$USERI2
 70
     0
  9
$USERI3
 70
     0
  9
$USERI4
 70
     0
  9
$USERI5
 70
     0
  9
$USERR1
 40
0.0
  9
$USERR2
 40
0.0
  9
$USERR3
 40
0.0
  9
$USERR4
 40
0.0
  9
$USERR5
 40
0.0
  9
$WORLDVIEW
 70
     1
  9
$SHADEDGE
 70
     3
  9
$SHADEDIF
 70
    70
  9
$TILEMODE
 70
     1
  9
$MAXACTVP
 70
    48
  9
$PLIMCHECK
 70
     0
  9
$PEXTMIN
 10
1.0000000000000000E+020
 20
1.0000000000000000E+020
 30
1.0000000000000000E+020
  9
$PEXTMAX
 10
-1.0000000000000000E+020
 20
-1.0000000000000000E+020
 30
-1.0000000000000000E+020
  9
$PLIMMIN
 10
0.0
 20
0.0
  9
$PLIMMAX
 10
12.0
 20
9.0
  9
$UNITMODE
 70
     0
  9
$VISRETAIN
 70
     1
  9
$PLINEGEN
 70
     0
  9
$PSLTSCALE
 70
     1
  0
ENDSEC
  0
SECTION
  2
TABLES
  0
TABLE
  2
VPORT
 70
     1
  0
VPORT
  2
*ACTIVE
 70
     0
 10
0.0
 20
0.0
 11
1.0
 21
1.0
 12
165.72805692007461
 22
127.4298
 13
0.0
 23
0.0
 14
1.0
 24
1.0
 15
0.0
 25
0.0
 16
0.0
 26
0.0
 36
1.0
 17
0.0
 27
0.0
 37
0.0
 40
283.5288175207607
 41
2.1001926782273599
 42
50.0
 43
0.0
 44
0.0
 50
0.0
 51
0.0
 71
     0
 72
   100
 73
     1
 74
     1
 75
     0
 76
     0
 77
     0
 78
     0
  0
ENDTAB
  0
TABLE
  2
LTYPE
 70
     4
  0
LTYPE
  2
CONTINUOUS
 70
     0
  3
Solid line
 72
    65
 73
     0
 40
0.0
  0
LTYPE
  2
AIGENLINE001
 70
     0
  3
generate AI->DXF Converter
 72
    65
 73
     2
 40
1.5522299999999991
 49
0.776115
 49
-0.776115
  0
LTYPE
  2
AIGENLINE002
 70
     0
  3
generate AI->DXF Converter
 72
    65
 73
     4
 40
5.8561449999999988
 49
3.5278
 49
-0.776115
 49
0.776115
 49
-0.776115
  0
LTYPE
  2
AIGENLINE003
 70
     0
  3
generate AI->DXF Converter
 72
    65
 73
     6
 40
7.4083750000000004
 49
3.5278
 49
-0.776115
 49
0.776115
 49
-0.776115
 49
0.776115
 49
-0.776115
  0
ENDTAB
  0
TABLE
  2
LAYER
 70
     2
  0
LAYER
  2
0
 70
     0
 62
     7
  6
CONTINUOUS
  0
LAYER
  2
_________2
 70
     0
 62
     7
  6
CONTINUOUS
  0
ENDTAB
  0
TABLE
  2
STYLE
 70
     1
  0
STYLE
  2
STANDARD
 70
     0
 40
0.0
 41
0.0
 50
0.0
 71
     0
 42
0.0
  3
TXT
  4
EXTFONT.SHX
  0
ENDTAB
  0
TABLE
  2
VIEW
 70
     0
  0
ENDTAB
  0
TABLE
  2
UCS
 70
     0
  0
ENDTAB
  0
TABLE
  2
APPID
 70
     3
  0
APPID
  2
ACAD
 70
     0
  0
APPID
  2
ACAD_NAV_VCDISPLAY
 70
     0
  0
APPID
  2
ACAD_MLEADERVER
 70
     0
  0
ENDTAB
  0
TABLE
  2
DIMSTYLE
 70
     1
  0
DIMSTYLE
  2
STANDARD
 70
     0
  3

  4

  5

  6

  7

 40
1.0
 41
0.18
 42
0.0625
 43
0.38
 44
0.18
 45
0.0
 46
0.0
 47
0.0
 48
0.0
140
0.18
141
0.09
142
0.0
143
25.399999999999999
144
1.0
145
0.0
146
1.0
147
0.09
 71
     0
 72
     0
 73
     1
 74
     1
 75
     0
 76
     0
 77
     0
 78
     0
170
     0
171
     2
172
     0
173
     0
174
     0
175
     0
176
     0
177
     0
178
     0
  0
ENDTAB
  0
ENDSEC
  0
SECTION
  2
BLOCKS
  0
BLOCK
  8
0
  2
$MODEL_SPACE
 70
     0
 10
0.0
 20
0.0
 30
0.0
  3
$MODEL_SPACE
  1

  0
ENDBLK
  5
1A
  8
0
  0
BLOCK
 67
     1
  8
0
  2
$PAPER_SPACE
 70
     0
 10
0.0
 20
0.0
 30
0.0
  3
$PAPER_SPACE
  1

  0
ENDBLK
  5
17
 67
     1
  8
0
  0
ENDSEC
  0
SECTION
  2
ENTITIES
  0
LINE
  5
24
  8
0
 62
     7
 10
131.23400000000001
 20
228.82300000000001
 30
0.0
 11
155.57599999999999
 21
228.82300000000001
 31
0.0
  0
TEXT
  5
25
  8
0
 62
     7
 10
32.682600000000001
 20
73.120900000000006
 30
0.0
 40
3.0923400000000001
  1
max.40
 50
90.0
 41
0.5
  0
TEXT
  5
26
  8
0
 62
     7
 10
32.614199999999997
 20
91.8192825
 30
0.0
 40
3.0923400000000001
  1
130
 50
90.0
 41
0.5
 72
     1
 11
32.614199999999997
 21
93.494299999999996
 31
0.0
  0
TEXT
  5
27
  8
0
 62
     7
 10
141.80699999999999
 20
92.035634999999985
 30
0.0
 40
3.0923400000000001
  1
125
 50
90.0
 41
0.5
 72
     1
 11
141.80699999999999
 21
93.839500000000001
 31
0.0
  0
TEXT
  5
28
  8
0
 62
     7
 10
81.920900000000003
 20
90.060834999999997
 30
0.0
 40
3.0923400000000001
  1
175
 50
90.0
 41
0.5
 72
     1
 11
81.920900000000003
 21
91.864699999999985
 31
0.0
  0
TEXT
  5
29
  8
0
 62
     7
 10
152.39713499999999
 20
77.670500000000004
 30
0.0
 40
3.0923400000000001
  1
195
 41
0.5
 72
     1
 11
154.20099999999999
 21
77.670500000000004
 31
0.0
  0
TEXT
  5
2A
  8
0
 62
     7
 10
30.494599999999998
 20
155.010525
 30
0.0
 40
3.0923400000000001
  1
35
 50
90.0
 41
0.5
 72
     1
 11
30.494599999999998
 21
156.29900000000001
 31
0.0
  0
TEXT
  5
2B
  8
0
 62
     7
 10
30.494599999999998
 20
191.25313499999999
 30
0.0
 40
3.0923400000000001
  1
125
 50
90.0
 41
0.5
 72
     1
 11
30.494599999999998
 21
193.05699999999999
 31
0.0
  0
TEXT
  5
2C
  8
0
 62
     7
 10
24.031400000000001
 20
174.83143999999999
 30
0.0
 40
3.0923400000000001
  1
465
 50
90.0
 41
0.5
 72
     1
 11
24.031400000000001
 21
176.893
 31
0.0
  0
TEXT
  5
2D
  8
0
 62
     7
 10
30.494599999999998
 20
169.78128749999999
 30
0.0
 40
3.0923400000000001
  1
305
 50
90.0
 41
0.5
 72
     1
 11
30.494599999999998
 21
171.714
 31
0.0
  0
TEXT
  5
2E
  8
0
 62
     7
 10
174.102
 20
177.95560999999989
 30
0.0
 40
3.0923400000000001
  1
C
 50
90.0
 41
0.5
 72
     1
 11
174.102
 21
178.471
 31
0.0
  0
TEXT
  5
2F
  8
0
 62
     7
 10
116.946
 20
203.626745
 30
0.0
 40
3.0923400000000001
  1
30
 50
90.0
 41
0.5
 72
     2
 11
116.946
 21
205.946
 31
0.0
  0
TEXT
  5
30
  8
0
 62
     7
 10
116.84
 20
179.90998250000001
 30
0.0
 40
3.0923400000000001
  1
310
 50
90.0
 41
0.5
 72
     1
 11
116.84
 21
181.58500000000001
 31
0.0
  0
TEXT
  5
31
  8
0
 62
     7
 10
110.10899999999999
 20
177.95560999999989
 30
0.0
 40
3.0923400000000001
  1
B
 50
90.0
 41
0.5
 72
     1
 11
110.10899999999999
 21
178.471
 31
0.0
  0
TEXT
  5
32
  8
0
 62
     7
 10
88.291799999999995
 20
196.12937249999999
 30
0.0
 40
3.0923400000000001
  1
60
 50
90.0
 41
0.5
 72
     1
 11
88.291799999999995
 21
197.28899999999999
 31
0.0
  0
TEXT
  5
33
  8
0
 62
     7
 10
133.64699999999999
 20
189.52813499999999
 30
0.0
 40
3.0923400000000001
  1
195
 50
90.0
 41
0.5
 72
     1
 11
133.64699999999999
 21
191.33199999999999
 31
0.0
  0
TEXT
  5
34
  8
0
 62
     7
 10
54.057299999999998
 20
189.52813499999999
 30
0.0
 40
3.0923400000000001
  1
195
 50
90.0
 41
0.5
 72
     1
 11
54.057299999999998
 21
191.33199999999999
 31
0.0
  0
TEXT
  5
35
  8
0
 62
     7
 10
74.030929999999998
 20
207.94499999999999
 30
0.0
 40
3.0923400000000001
  1
100
 41
0.5
 72
     1
 11
75.577100000000002
 21
207.94499999999999
 31
0.0
  0
TEXT
  5
36
  8
0
 62
     7
 10
143.94861
 20
150.11699999999999
 30
0.0
 40
3.0923400000000001
  1
A
 41
0.5
 72
     1
 11
144.464
 21
150.11699999999999
 31
0.0
  0
TEXT
  5
37
  8
0
 62
     7
 10
129.61500000000001
 20
221.48599999999999
 30
0.0
 40
3.0923400000000001
  1
注）A.B.C寸法は洗面器現品を
 41
0.5
  0
TEXT
  5
38
  8
0
 62
     7
 10
129.61500000000001
 20
217.62100000000001
 30
0.0
 40
3.0923400000000001
  1
　  測定して穴あけしてください。
 41
0.5
  0
TEXT
  5
39
  8
0
 62
     7
 10
135.41576000000001
 20
230.34
 30
0.0
 40
3.0923400000000001
  1
カウンター切込寸法
 41
0.5
 72
     1
 11
143.66200000000001
 21
230.34
 31
0.0
  0
TEXT
  5
3A
  8
0
 62
     7
 10
167.550646
 20
204.47499999999999
 30
0.0
 40
3.0923400000000001
  1
洗面器端面
 41
0.5
 72
     1
 11
171.983
 21
204.47499999999999
 31
0.0
  0
TEXT
  5
3B
  8
0
 62
     7
 10
142.6932875
 20
207.768
 30
0.0
 40
3.0923400000000001
  1
380
 41
0.5
 72
     1
 11
144.626
 21
207.768
 31
0.0
  0
TEXT
  5
3C
  8
0
 62
     7
 10
129.3782875
 20
171.13499999999999
 30
0.0
 40
3.0923400000000001
  1
R20
 41
0.5
 72
     1
 11
131.31100000000001
 21
171.13499999999999
 31
0.0
  0
TEXT
  5
3D
  8
0
 62
     7
 10
130.313625
 20
160.839
 30
0.0
 40
3.0923400000000001
  1
2-%%c10
 41
0.5
 72
     2
 11
136.756
 21
160.839
 31
0.0
  0
TEXT
  5
3E
  8
0
 62
     7
 10
68.450140000000005
 20
137.989
 30
0.0
 40
3.0923400000000001
  1
595
 41
0.5
 72
     1
 11
70.511700000000005
 21
137.989
 31
0.0
  0
TEXT
  5
3F
  8
0
 62
     7
 10
68.450140000000005
 20
145.255
 30
0.0
 40
3.0923400000000001
  1
525
 41
0.5
 72
     1
 11
70.511700000000005
 21
145.255
 31
0.0
  0
TEXT
  5
40
  8
0
 62
     7
 10
63.917429999999989
 20
207.94499999999999
 30
0.0
 40
3.0923400000000001
  1
100
 41
0.5
 72
     1
 11
65.463599999999985
 21
207.94499999999999
 31
0.0
  0
TEXT
  5
41
  8
0
 62
     7
 10
57.0229
 20
173.60599999999999
 30
0.0
 40
3.0923400000000001
  1
%%c46
 41
0.5
  0
TEXT
  5
42
  8
0
 62
     7
 10
85.587580000000003
 20
181.29599999999999
 30
0.0
 40
3.0923400000000001
  1
%%c35
 41
0.5
 72
     2
 11
89.710700000000003
 21
181.29599999999999
 31
0.0
  0
ARC
  5
43
  8
0
  6
AIGENLINE001
 62
     7
 10
124.178423
 20
91.312279000000004
 30
0.0
 40
1.0252099999999991
 50
192.11184700000001
 51
260.90115200000002
  0
ARC
  5
44
  8
0
  6
AIGENLINE001
 62
     7
 10
70.511818000000005
 20
97.400441999999984
 30
0.0
 40
1.2499750000000001
 50
269.99607200000003
 51
359.99604199999999
  0
ARC
  5
45
  8
0
  6
AIGENLINE001
 62
     7
 10
70.511645000000001
 20
97.400441000000001
 30
0.0
 40
1.249973999999999
 50
180.00395800000001
 51
270.0039680000001
  0
ARC
  5
46
  8
0
  6
AIGENLINE001
 62
     7
 10
70.511645999999985
 20
97.400268999999994
 30
0.0
 40
1.2499750000000001
 50
89.996052000000006
 51
179.99602200000001
  0
ARC
  5
47
  8
0
  6
AIGENLINE001
 62
     7
 10
70.511818000000005
 20
97.400268999999994
 30
0.0
 40
1.2499750000000001
 50
0.003958
 51
90.003928000000016
  0
LINE
  5
48
  8
0
  6
AIGENLINE001
 62
     7
 10
140.84299999999999
 20
87.900400000000005
 30
0.0
 11
148.84399999999999
 21
87.900400000000005
 31
0.0
  0
LINE
  5
49
  8
0
  6
AIGENLINE001
 62
     7
 10
151.78299999999999
 20
99.953500000000005
 30
0.0
 11
150.089
 21
89.163100000000014
 31
0.0
  0
ARC
  5
4A
  8
0
  6
AIGENLINE001
 62
     7
 10
148.586251
 20
89.400155999999996
 30
0.0
 40
1.521620999999999
 50
279.73468100000002
 51
351.03650099999999
  0
ARC
  5
4B
  8
0
  6
AIGENLINE001
 62
     7
 10
152.30954399999999
 20
99.866449000000003
 30
0.0
 40
0.5341260000000001
 50
91.612986000000006
 51
170.616737
  0
LINE
  5
4C
  8
0
  6
AIGENLINE001
 62
     7
 10
124.01600000000001
 20
90.299999999999983
 30
0.0
 11
140.84299999999999
 21
87.900400000000005
 31
0.0
  0
LINE
  5
4D
  8
0
  6
AIGENLINE001
 62
     7
 10
121.54000000000001
 20
99.399900000000017
 30
0.0
 11
123.176
 21
91.097200000000015
 31
0.0
  0
ARC
  5
4E
  8
0
  6
AIGENLINE001
 62
     7
 10
120.290828
 20
99.120863999999983
 30
0.0
 40
1.279906999999999
 50
12.592383999999999
 51
88.553720999999996
  0
ARC
  5
4F
  8
0
  6
AIGENLINE001
 62
     7
 10
148.61183299999999
 20
85.946961999999985
 30
0.0
 40
1.468466
 50
158.881135
 51
179.901939
  0
ARC
  5
50
  8
0
  6
AIGENLINE001
 62
     7
 10
149.31748899999999
 20
85.715199999999996
 30
0.0
 40
2.2105579999999998
 50
136.76723899999999
 51
159.86753300000001
  0
ARC
  5
51
  8
0
  6
AIGENLINE001
 62
     7
 10
149.48359199999999
 20
85.614718000000011
 30
0.0
 40
2.4007459999999989
 50
116.525678
 51
137.735411
  0
ARC
  5
52
  8
0
  6
AIGENLINE001
 62
     7
 10
149.12509499999999
 20
86.269995999999992
 30
0.0
 40
1.6545810000000001
 50
99.797691000000015
 51
115.552138
  0
LINE
  5
53
  8
0
  6
AIGENLINE001
 62
     7
 10
147.143
 20
85.9495
 30
0.0
 11
147.143
 21
82.900199999999998
 31
0.0
  0
ARC
  5
54
  8
0
  6
AIGENLINE001
 62
     7
 10
141.074986
 20
85.946961999999985
 30
0.0
 40
1.468466
 50
0.098042
 51
21.118845
  0
ARC
  5
55
  8
0
  6
AIGENLINE001
 62
     7
 10
140.36933099999999
 20
85.715199999999996
 30
0.0
 40
2.2105579999999998
 50
20.132446999999999
 51
43.232742000000002
  0
ARC
  5
56
  8
0
  6
AIGENLINE001
 62
     7
 10
140.203228
 20
85.614718000000011
 30
0.0
 40
2.4007459999999989
 50
42.264569000000002
 51
63.474301999999987
  0
ARC
  5
57
  8
0
  6
AIGENLINE001
 62
     7
 10
140.561724
 20
86.269995999999992
 30
0.0
 40
1.6545810000000001
 50
64.447841999999994
 51
80.202289000000007
  0
ARC
  5
58
  8
0
 62
     7
 10
149.28859800000001
 20
83.141234999999995
 30
0.0
 40
0.4454310000000001
 50
122.494236
 51
179.407814
  0
ARC
  5
59
  8
0
 62
     7
 10
149.34208599999999
 20
83.083213999999998
 30
0.0
 40
0.523288
 50
98.866759000000002
 51
124.021311
  0
ARC
  5
5A
  8
0
 62
     7
 10
142.32309699999999
 20
101.504561
 30
0.0
 40
15.792627
 50
255.651444
 51
261.62798800000007
  0
ARC
  5
5B
  8
0
 62
     7
 10
141.675241
 20
98.666556000000014
 30
0.0
 40
12.882821
 50
247.713008
 51
255.31490500000001
  0
ARC
  5
5C
  8
0
 62
     7
 10
143.92175700000001
 20
104.25058
 30
0.0
 40
18.901717000000001
 50
244.68830399999999
 51
247.83131299999999
  0
ARC
  5
5D
  8
0
 62
     7
 10
153.68671699999999
 20
125.218726
 30
0.0
 40
42.031981999999999
 50
244.12490099999991
 51
244.875463
  0
ARC
  5
5E
  8
0
 62
     7
 10
139.81286399999999
 20
84.870935000000003
 30
0.0
 40
1.031077
 50
1.4097660000000001
 51
78.201367000000005
  0
LINE
  5
5F
  8
0
 62
     7
 10
140.84399999999999
 20
82.900199999999998
 30
0.0
 11
140.84399999999999
 21
84.896299999999997
 31
0.0
  0
LINE
  5
60
  8
0
 62
     7
 10
164.34299999999999
 20
99.400599999999997
 30
0.0
 11
164.34299999999999
 21
87.400599999999983
 31
0.0
  0
ARC
  5
61
  8
0
 62
     7
 10
163.305048
 20
99.361936000000014
 30
0.0
 40
1.0391330000000001
 50
2.1318060000000001
 51
87.887923999999998
  0
ARC
  5
62
  8
0
 62
     7
 10
71.052020999999996
 20
114.900288
 30
0.0
 40
29.333995000000002
 50
278.38997799999999
 51
290.36914400000001
  0
ARC
  5
63
  8
0
 62
     7
 10
75.543177
 20
84.870760000000004
 30
0.0
 40
1.0312920000000001
 50
101.808061
 51
178.58076600000001
  0
LINE
  5
64
  8
0
 62
     7
 10
74.512200000000007
 20
82.900199999999998
 30
0.0
 11
74.512200000000007
 21
84.896299999999997
 31
0.0
  0
ARC
  5
65
  8
0
 62
     7
 10
69.972131000000005
 20
114.900288
 30
0.0
 40
29.333995000000002
 50
249.630876
 51
261.61004199999991
  0
ARC
  5
66
  8
0
 62
     7
 10
65.480975000000001
 20
84.870758999999978
 30
0.0
 40
1.0312920000000001
 50
1.419232
 51
78.191901999999999
  0
ARC
  5
67
  8
0
 62
     7
 10
95.262056999999999
 20
186.339416
 30
0.0
 40
1.500089999999999
 50
0.0033
 51
90.003269999999986
  0
ARC
  5
68
  8
0
 62
     7
 10
95.262056999999999
 20
158.83928499999999
 30
0.0
 40
1.500089999999999
 50
269.9967299999999
 51
359.99669999999998
  0
ARC
  5
69
  8
0
 62
     7
 10
98.261807000000005
 20
198.33936199999999
 30
0.0
 40
2.000062999999999
 50
0.00001
 51
89.999980000000008
  0
ARC
  5
6A
  8
0
 62
     7
 10
98.261807000000005
 20
155.83936299999999
 30
0.0
 40
2.000062999999999
 50
270.00002000000001
 51
359.99999000000003
  0
LINE
  5
6B
  8
0
 62
     7
 10
96.762100000000004
 20
186.34
 30
0.0
 11
96.762100000000004
 21
158.839
 31
0.0
  0
LINE
  5
6C
  8
0
 62
     7
 10
100.262
 20
198.339
 30
0.0
 11
100.262
 21
155.839
 31
0.0
  0
ARC
  5
6D
  8
0
 62
     7
 10
45.761321000000002
 20
186.33950200000001
 30
0.0
 40
1.5000039999999999
 50
90.0
 51
179.99996999999999
  0
ARC
  5
6E
  8
0
 62
     7
 10
45.761319999999998
 20
158.83919800000001
 30
0.0
 40
1.5000039999999999
 50
179.99996999999999
 51
270.00002000000001
  0
ARC
  5
6F
  8
0
 62
     7
 10
42.761485
 20
198.33936199999999
 30
0.0
 40
2.000062999999999
 50
90.0
 51
179.99996999999999
  0
ARC
  5
70
  8
0
 62
     7
 10
42.761484000000003
 20
155.83936199999999
 30
0.0
 40
2.0000619999999989
 50
179.99996999999999
 51
270.00002000000001
  0
ARC
  5
71
  8
0
 62
     7
 10
127.84287500000001
 20
168.33936700000001
 30
0.0
 40
1.9999759999999991
 50
179.99750299999999
 51
269.99755199999998
  0
ARC
  5
72
  8
0
 62
     7
 10
161.84359900000001
 20
168.33936800000001
 30
0.0
 40
1.9999769999999999
 50
270.00248699999997
 51
0.002457
  0
ARC
  5
73
  8
0
 62
     7
 10
127.842876
 20
195.33944
 30
0.0
 40
1.9999769999999999
 50
90.00246700000001
 51
180.002477
  0
LINE
  5
74
  8
0
 62
     7
 10
125.843
 20
195.339
 30
0.0
 11
125.843
 21
168.339
 31
0.0
  0
ARC
  5
75
  8
0
 62
     7
 10
161.84359900000001
 20
195.33944
 30
0.0
 40
1.9999769999999999
 50
359.99754300000001
 51
89.997512999999984
  0
LINE
  5
76
  8
0
 62
     7
 10
170.239
 20
203.21799999999999
 30
0.0
 11
171.90100000000001
 21
200.339
 31
0.0
  0
LINE
  5
77
  8
0
 62
     7
 10
171.90100000000001
 20
200.339
 30
0.0
 11
173.56299999999999
 21
203.21799999999999
 31
0.0
  0
LINE
  5
78
  8
0
 62
     7
 10
173.56299999999999
 20
203.21799999999999
 30
0.0
 11
170.239
 21
203.21799999999999
 31
0.0
  0
ARC
  5
79
  8
0
 62
     7
 10
164.57408899999999
 20
156.85844599999999
 30
0.0
 40
0.5197350000000001
 50
272.14903099999998
 51
357.87071900000001
  0
ARC
  5
7A
  8
0
 62
     7
 10
164.61289500000001
 20
156.858273
 30
0.0
 40
0.5195560000000001
 50
182.11097599999991
 51
267.86931299999998
  0
ARC
  5
7B
  8
0
 62
     7
 10
164.613067
 20
156.81982500000001
 30
0.0
 40
0.5197350000000001
 50
92.149011000000002
 51
177.870699
  0
ARC
  5
7C
  8
0
 62
     7
 10
164.57426100000001
 20
156.819998
 30
0.0
 40
0.5195560000000001
 50
2.1109740000000001
 51
87.869275999999999
  0
LINE
  5
7D
  8
0
 62
     7
 10
164.59399999999999
 20
148.21899999999999
 30
0.0
 11
164.59399999999999
 21
154.49600000000001
 31
0.0
  0
LINE
  5
7E
  8
0
 62
     7
 10
125.09399999999999
 20
148.21899999999999
 30
0.0
 11
125.09399999999999
 21
154.49600000000001
 31
0.0
  0
LINE
  5
7F
  8
0
  6
AIGENLINE002
 62
     7
 10
164.59399999999999
 20
155.02600000000001
 30
0.0
 11
164.59399999999999
 21
158.642
 31
0.0
  0
LINE
  5
80
  8
0
  6
AIGENLINE002
 62
     7
 10
162.839
 20
156.839
 30
0.0
 11
166.631
 21
156.839
 31
0.0
  0
ARC
  5
81
  8
0
 62
     7
 10
125.07409699999999
 20
156.85844599999999
 30
0.0
 40
0.5197350000000001
 50
272.14903099999998
 51
357.87071900000001
  0
ARC
  5
82
  8
0
 62
     7
 10
125.112903
 20
156.858273
 30
0.0
 40
0.5195560000000001
 50
182.11097599999991
 51
267.86931299999998
  0
ARC
  5
83
  8
0
 62
     7
 10
125.11307499999999
 20
156.81982500000001
 30
0.0
 40
0.5197350000000001
 50
92.149011000000002
 51
177.870699
  0
ARC
  5
84
  8
0
 62
     7
 10
125.074269
 20
156.819998
 30
0.0
 40
0.5195560000000001
 50
2.1109740000000001
 51
87.869275999999999
  0
LINE
  5
85
  8
0
 62
     7
 10
50.293199999999999
 20
83.200299999999999
 30
0.0
 11
51.7303
 21
83.200299999999999
 31
0.0
  0
LINE
  5
86
  8
0
 62
     7
 10
50.293199999999999
 20
83.200299999999999
 30
0.0
 11
50.293199999999999
 21
83.400400000000005
 31
0.0
  0
LINE
  5
87
  8
0
 62
     7
 10
51.7303
 20
83.400400000000005
 30
0.0
 11
51.7303
 21
83.200299999999999
 31
0.0
  0
LINE
  5
88
  8
0
 62
     7
 10
50.293199999999999
 20
83.400400000000005
 30
0.0
 11
51.01169999999999
 21
83.400400000000005
 31
0.0
  0
LINE
  5
89
  8
0
 62
     7
 10
51.588700000000003
 20
82.660099999999986
 30
0.0
 11
51.588700000000003
 21
83.200299999999999
 31
0.0
  0
LINE
  5
8A
  8
0
 62
     7
 10
50.434600000000003
 20
82.660099999999986
 30
0.0
 11
50.434600000000003
 21
83.200299999999999
 31
0.0
  0
LINE
  5
8B
  8
0
 62
     7
 10
50.434600000000003
 20
82.660099999999986
 30
0.0
 11
51.01169999999999
 21
82.660099999999986
 31
0.0
  0
LINE
  5
8C
  8
0
 62
     7
 10
51.01169999999999
 20
82.660099999999986
 30
0.0
 11
51.588700000000003
 21
82.660099999999986
 31
0.0
  0
LINE
  5
8D
  8
0
 62
     7
 10
51.01169999999999
 20
83.400400000000005
 30
0.0
 11
51.7303
 21
83.400400000000005
 31
0.0
  0
LINE
  5
8E
  8
0
 62
     7
 10
51.311700000000002
 20
83.200299999999999
 30
0.0
 11
51.311700000000002
 21
82.500200000000007
 31
0.0
  0
LINE
  5
8F
  8
0
 62
     7
 10
50.71159999999999
 20
83.200299999999999
 30
0.0
 11
50.71159999999999
 21
82.500200000000007
 31
0.0
  0
LINE
  5
90
  8
0
 62
     7
 10
51.311700000000002
 20
83.400400000000005
 30
0.0
 11
51.311700000000002
 21
87.400599999999983
 31
0.0
  0
LINE
  5
91
  8
0
 62
     7
 10
50.71159999999999
 20
83.400400000000005
 30
0.0
 11
50.71159999999999
 21
87.400599999999983
 31
0.0
  0
LINE
  5
92
  8
0
  6
AIGENLINE002
 62
     7
 10
144.84299999999999
 20
163.49000000000001
 30
0.0
 11
144.84299999999999
 21
199.24700000000001
 31
0.0
  0
LINE
  5
93
  8
0
  6
AIGENLINE002
 62
     7
 10
125.09399999999999
 20
155.02600000000001
 30
0.0
 11
125.09399999999999
 21
158.642
 31
0.0
  0
LINE
  5
94
  8
0
  6
AIGENLINE002
 62
     7
 10
51.01169999999999
 20
81.765699999999995
 30
0.0
 11
51.01169999999999
 21
89.394199999999998
 31
0.0
  0
LINE
  5
95
  8
0
 62
     7
 10
50.711799999999997
 20
82.500200000000007
 30
0.0
 11
51.311700000000002
 21
82.500200000000007
 31
0.0
  0
LINE
  5
96
  8
0
 62
     7
 10
34.1633
 20
81.189999999999984
 30
0.0
 11
33.571100000000001
 21
83.400400000000005
 31
0.0
  0
LINE
  5
97
  8
0
 62
     7
 10
33.571100000000001
 20
83.400400000000005
 30
0.0
 11
32.978700000000003
 21
81.189999999999984
 31
0.0
  0
LINE
  5
98
  8
0
 62
     7
 10
32.978700000000003
 20
81.189999999999984
 30
0.0
 11
34.1633
 21
81.189999999999984
 31
0.0
  0
LINE
  5
99
  8
0
 62
     7
 10
33.578400000000002
 20
83.400400000000005
 30
0.0
 11
33.578400000000002
 21
73.191500000000005
 31
0.0
  0
LINE
  5
9A
  8
0
 62
     7
 10
33.578400000000002
 20
83.400400000000005
 30
0.0
 11
33.578400000000002
 21
87.400599999999983
 31
0.0
  0
LINE
  5
9B
  8
0
 62
     7
 10
32.993400000000001
 20
89.610900000000001
 30
0.0
 11
33.585599999999999
 21
87.400599999999983
 31
0.0
  0
LINE
  5
9C
  8
0
 62
     7
 10
33.585599999999999
 20
87.400599999999983
 30
0.0
 11
34.178000000000011
 21
89.610900000000001
 31
0.0
  0
LINE
  5
9D
  8
0
 62
     7
 10
34.178000000000011
 20
89.610900000000001
 30
0.0
 11
32.993400000000001
 21
89.610900000000001
 31
0.0
  0
LINE
  5
9E
  8
0
 62
     7
 10
34.1633
 20
98.189999999999998
 30
0.0
 11
33.571100000000001
 21
100.40000000000001
 31
0.0
  0
LINE
  5
9F
  8
0
 62
     7
 10
33.571100000000001
 20
100.40000000000001
 30
0.0
 11
32.978700000000003
 21
98.189999999999998
 31
0.0
  0
LINE
  5
A0
  8
0
 62
     7
 10
32.978700000000003
 20
98.189999999999998
 30
0.0
 11
34.1633
 21
98.189999999999998
 31
0.0
  0
LINE
  5
A1
  8
0
 62
     7
 10
33.578400000000002
 20
87.400599999999983
 30
0.0
 11
33.578400000000002
 21
100.40000000000001
 31
0.0
  0
LINE
  5
A2
  8
0
 62
     7
 10
40.285699999999999
 20
100.40000000000001
 30
0.0
 11
33.05680000000001
 21
100.40000000000001
 31
0.0
  0
LINE
  5
A3
  8
0
 62
     7
 10
143.31200000000001
 20
98.190299999999993
 30
0.0
 11
142.71899999999999
 21
100.401
 31
0.0
  0
LINE
  5
A4
  8
0
 62
     7
 10
142.71899999999999
 20
100.401
 30
0.0
 11
142.12700000000001
 21
98.190299999999993
 31
0.0
  0
LINE
  5
A5
  8
0
 62
     7
 10
142.12700000000001
 20
98.190299999999993
 30
0.0
 11
143.31200000000001
 21
98.190299999999993
 31
0.0
  0
LINE
  5
A6
  8
0
 62
     7
 10
142.13499999999999
 20
90.111199999999997
 30
0.0
 11
142.727
 21
87.900800000000004
 31
0.0
  0
LINE
  5
A7
  8
0
 62
     7
 10
142.727
 20
87.900800000000004
 30
0.0
 11
143.31899999999999
 21
90.111199999999997
 31
0.0
  0
LINE
  5
A8
  8
0
 62
     7
 10
143.31899999999999
 20
90.111199999999997
 30
0.0
 11
142.13499999999999
 21
90.111199999999997
 31
0.0
  0
LINE
  5
A9
  8
0
 62
     7
 10
142.727
 20
100.401
 30
0.0
 11
142.727
 21
87.900800000000004
 31
0.0
  0
LINE
  5
AA
  8
0
 62
     7
 10
83.320899999999995
 20
98.190299999999993
 30
0.0
 11
82.728599999999986
 21
100.401
 31
0.0
  0
LINE
  5
AB
  8
0
 62
     7
 10
82.728599999999986
 20
100.401
 30
0.0
 11
82.136099999999999
 21
98.190299999999993
 31
0.0
  0
LINE
  5
AC
  8
0
 62
     7
 10
82.136099999999999
 20
98.190299999999993
 30
0.0
 11
83.320899999999995
 21
98.190299999999993
 31
0.0
  0
LINE
  5
AD
  8
0
 62
     7
 10
82.150899999999993
 20
85.110600000000005
 30
0.0
 11
82.743099999999984
 21
82.900199999999998
 31
0.0
  0
LINE
  5
AE
  8
0
 62
     7
 10
82.743099999999984
 20
82.900199999999998
 30
0.0
 11
83.335699999999989
 21
85.110600000000005
 31
0.0
  0
LINE
  5
AF
  8
0
 62
     7
 10
83.335699999999989
 20
85.110600000000005
 30
0.0
 11
82.150899999999993
 21
85.110600000000005
 31
0.0
  0
LINE
  5
B0
  8
0
 62
     7
 10
82.735900000000001
 20
100.401
 30
0.0
 11
82.735900000000001
 21
82.900199999999998
 31
0.0
  0
LINE
  5
B1
  8
0
 62
     7
 10
75.086799999999997
 20
82.900199999999998
 30
0.0
 11
83.619900000000001
 21
82.900199999999998
 31
0.0
  0
LINE
  5
B2
  8
0
 62
     7
 10
74.512200000000007
 20
82.900199999999998
 30
0.0
 11
66.512
 21
82.900199999999998
 31
0.0
  0
LINE
  5
B3
  8
0
 62
     7
 10
66.512
 20
82.900199999999998
 30
0.0
 11
66.512
 21
84.896299999999997
 31
0.0
  0
LINE
  5
B4
  8
0
 62
     7
 10
40.761799999999987
 20
87.400599999999983
 30
0.0
 11
100.262
 21
87.400599999999983
 31
0.0
  0
LINE
  5
B5
  8
0
  6
AIGENLINE003
 62
     7
 10
105.27500000000001
 20
83.400400000000005
 30
0.0
 11
29.799600000000002
 21
83.400400000000005
 31
0.0
  0
LINE
  5
B6
  8
0
  6
AIGENLINE003
 62
     7
 10
105.27500000000001
 20
87.400599999999983
 30
0.0
 11
29.799399999999999
 21
87.400599999999983
 31
0.0
  0
LINE
  5
B7
  8
0
  6
AIGENLINE002
 62
     7
 10
70.511700000000005
 20
76.071600000000004
 30
0.0
 11
70.511700000000005
 21
105.509
 31
0.0
  0
LINE
  5
B8
  8
0
 62
     7
 10
100.262
 20
99.400599999999997
 30
0.0
 11
100.262
 21
87.400599999999983
 31
0.0
  0
LINE
  5
B9
  8
0
 62
     7
 10
41.76169999999999
 20
100.40000000000001
 30
0.0
 11
99.261799999999994
 21
100.40000000000001
 31
0.0
  0
ARC
  5
BA
  8
0
 62
     7
 10
99.223455999999985
 20
99.361936000000014
 30
0.0
 40
1.0391330000000001
 50
2.1318060000000001
 51
87.887923999999998
  0
LINE
  5
BB
  8
0
 62
     7
 10
40.761799999999987
 20
99.400599999999997
 30
0.0
 11
40.761799999999987
 21
87.400599999999983
 31
0.0
  0
ARC
  5
BC
  8
0
 62
     7
 10
41.80033199999999
 20
99.361790999999997
 30
0.0
 40
1.03929
 50
92.12960099999998
 51
177.86049800000001
  0
LINE
  5
BD
  8
0
 62
     7
 10
121.562
 20
84.200400000000002
 30
0.0
 11
120.125
 21
84.200400000000002
 31
0.0
  0
LINE
  5
BE
  8
0
 62
     7
 10
121.562
 20
84.200400000000002
 30
0.0
 11
121.562
 21
84.400499999999994
 31
0.0
  0
LINE
  5
BF
  8
0
 62
     7
 10
120.125
 20
84.400499999999994
 30
0.0
 11
120.125
 21
84.200400000000002
 31
0.0
  0
LINE
  5
C0
  8
0
 62
     7
 10
121.562
 20
84.400499999999994
 30
0.0
 11
120.843
 21
84.400499999999994
 31
0.0
  0
LINE
  5
C1
  8
0
 62
     7
 10
120.26600000000001
 20
83.660200000000003
 30
0.0
 11
120.26600000000001
 21
84.200400000000002
 31
0.0
  0
LINE
  5
C2
  8
0
 62
     7
 10
121.42
 20
83.660200000000003
 30
0.0
 11
121.42
 21
84.200400000000002
 31
0.0
  0
LINE
  5
C3
  8
0
 62
     7
 10
121.42
 20
83.660200000000003
 30
0.0
 11
120.843
 21
83.660200000000003
 31
0.0
  0
LINE
  5
C4
  8
0
 62
     7
 10
120.843
 20
83.660200000000003
 30
0.0
 11
120.26600000000001
 21
83.660200000000003
 31
0.0
  0
LINE
  5
C5
  8
0
 62
     7
 10
120.843
 20
84.400499999999994
 30
0.0
 11
120.125
 21
84.400499999999994
 31
0.0
  0
LINE
  5
C6
  8
0
 62
     7
 10
120.54300000000001
 20
84.200400000000002
 30
0.0
 11
120.54300000000001
 21
83.500299999999996
 31
0.0
  0
LINE
  5
C7
  8
0
 62
     7
 10
121.143
 20
84.200400000000002
 30
0.0
 11
121.143
 21
83.500299999999996
 31
0.0
  0
LINE
  5
C8
  8
0
 62
     7
 10
120.54300000000001
 20
84.400499999999994
 30
0.0
 11
120.54300000000001
 21
87.400599999999983
 31
0.0
  0
LINE
  5
C9
  8
0
 62
     7
 10
121.143
 20
84.400499999999994
 30
0.0
 11
121.143
 21
87.400599999999983
 31
0.0
  0
LINE
  5
CA
  8
0
 62
     7
 10
116.67400000000001
 20
197.339
 30
0.0
 11
125.024
 21
197.339
 31
0.0
  0
LINE
  5
CB
  8
0
 62
     7
 10
127.843
 20
166.339
 30
0.0
 11
161.84399999999999
 21
166.339
 31
0.0
  0
LINE
  5
CC
  8
0
 62
     7
 10
127.843
 20
197.339
 30
0.0
 11
161.84399999999999
 21
197.339
 31
0.0
  0
LINE
  5
CD
  8
0
  6
AIGENLINE003
 62
     7
 10
109.91500000000001
 20
200.339
 30
0.0
 11
178.50700000000001
 21
200.339
 31
0.0
  0
LINE
  5
CE
  8
0
  6
AIGENLINE002
 62
     7
 10
120.843
 20
82.765799999999999
 30
0.0
 11
120.843
 21
89.394199999999998
 31
0.0
  0
LINE
  5
CF
  8
0
 62
     7
 10
121.143
 20
83.500299999999996
 30
0.0
 11
120.54300000000001
 21
83.500299999999996
 31
0.0
  0
LINE
  5
D0
  8
0
 62
     7
 10
91.230500000000006
 20
83.200299999999999
 30
0.0
 11
89.793499999999995
 21
83.200299999999999
 31
0.0
  0
LINE
  5
D1
  8
0
 62
     7
 10
91.230500000000006
 20
83.200299999999999
 30
0.0
 11
91.230500000000006
 21
83.400400000000005
 31
0.0
  0
LINE
  5
D2
  8
0
 62
     7
 10
89.793499999999995
 20
83.400400000000005
 30
0.0
 11
89.793499999999995
 21
83.200299999999999
 31
0.0
  0
LINE
  5
D3
  8
0
 62
     7
 10
91.230500000000006
 20
83.400400000000005
 30
0.0
 11
90.512200000000007
 21
83.400400000000005
 31
0.0
  0
LINE
  5
D4
  8
0
 62
     7
 10
89.935100000000006
 20
82.660099999999986
 30
0.0
 11
89.935100000000006
 21
83.200299999999999
 31
0.0
  0
LINE
  5
D5
  8
0
 62
     7
 10
91.089200000000005
 20
82.660099999999986
 30
0.0
 11
91.089200000000005
 21
83.200299999999999
 31
0.0
  0
LINE
  5
D6
  8
0
 62
     7
 10
91.089200000000005
 20
82.660099999999986
 30
0.0
 11
90.512200000000007
 21
82.660099999999986
 31
0.0
  0
LINE
  5
D7
  8
0
 62
     7
 10
90.512200000000007
 20
82.660099999999986
 30
0.0
 11
89.935100000000006
 21
82.660099999999986
 31
0.0
  0
LINE
  5
D8
  8
0
 62
     7
 10
90.512200000000007
 20
83.400400000000005
 30
0.0
 11
89.793499999999995
 21
83.400400000000005
 31
0.0
  0
LINE
  5
D9
  8
0
 62
     7
 10
90.212100000000007
 20
83.200299999999999
 30
0.0
 11
90.212100000000007
 21
82.500200000000007
 31
0.0
  0
LINE
  5
DA
  8
0
 62
     7
 10
90.811899999999994
 20
83.200299999999999
 30
0.0
 11
90.811899999999994
 21
82.500200000000007
 31
0.0
  0
LINE
  5
DB
  8
0
 62
     7
 10
90.212100000000007
 20
83.400400000000005
 30
0.0
 11
90.212100000000007
 21
87.400599999999983
 31
0.0
  0
LINE
  5
DC
  8
0
 62
     7
 10
90.811899999999994
 20
83.400400000000005
 30
0.0
 11
90.811899999999994
 21
87.400599999999983
 31
0.0
  0
LINE
  5
DD
  8
0
  6
AIGENLINE002
 62
     7
 10
90.512200000000007
 20
81.765699999999995
 30
0.0
 11
90.512200000000007
 21
89.394199999999998
 31
0.0
  0
LINE
  5
DE
  8
0
 62
     7
 10
90.811899999999994
 20
82.500200000000007
 30
0.0
 11
90.212100000000007
 21
82.500200000000007
 31
0.0
  0
LINE
  5
DF
  8
0
 62
     7
 10
118.843
 20
100.40000000000001
 30
0.0
 11
163.34299999999999
 21
100.40000000000001
 31
0.0
  0
LINE
  5
E0
  8
0
 62
     7
 10
148.84299999999999
 20
83.145799999999994
 30
0.0
 11
148.84299999999999
 21
82.900199999999998
 31
0.0
  0
ARC
  5
E1
  8
0
 62
     7
 10
148.81715399999999
 20
90.006177000000008
 30
0.0
 40
6.421314999999999
 50
273.96732400000002
 51
289.16591099999999
  0
ARC
  5
E2
  8
0
 62
     7
 10
149.20425399999999
 20
88.734995999999995
 30
0.0
 40
5.0937700000000001
 50
289.74735199999998
 51
310.12741399999999
  0
ARC
  5
E3
  8
0
 62
     7
 10
149.792618
 20
87.947862000000001
 30
0.0
 40
4.1131219999999988
 50
310.92742099999998
 51
340.22394000000003
  0
ARC
  5
E4
  8
0
 62
     7
 10
150.199468
 20
87.737157999999994
 30
0.0
 40
3.6594790000000001
 50
341.173115
 51
354.72245299999997
  0
LINE
  5
E5
  8
0
 62
     7
 10
162.13300000000001
 20
75.984800000000007
 30
0.0
 11
164.34299999999999
 21
76.576999999999998
 31
0.0
  0
LINE
  5
E6
  8
0
 62
     7
 10
164.34299999999999
 20
76.576999999999998
 30
0.0
 11
162.13300000000001
 21
77.169200000000004
 31
0.0
  0
LINE
  5
E7
  8
0
 62
     7
 10
162.13300000000001
 20
77.169200000000004
 30
0.0
 11
162.13300000000001
 21
75.984800000000007
 31
0.0
  0
LINE
  5
E8
  8
0
 62
     7
 10
147.054
 20
77.154799999999994
 30
0.0
 11
144.84299999999999
 21
76.562600000000003
 31
0.0
  0
LINE
  5
E9
  8
0
 62
     7
 10
144.84299999999999
 20
76.562600000000003
 30
0.0
 11
147.054
 21
75.969999999999999
 31
0.0
  0
LINE
  5
EA
  8
0
 62
     7
 10
147.054
 20
75.969999999999999
 30
0.0
 11
147.054
 21
77.154799999999994
 31
0.0
  0
LINE
  5
EB
  8
0
 62
     7
 10
164.34299999999999
 20
76.569800000000001
 30
0.0
 11
144.84299999999999
 21
76.569800000000001
 31
0.0
  0
LINE
  5
EC
  8
0
 62
     7
 10
144.84299999999999
 20
76.089200000000005
 30
0.0
 11
144.84299999999999
 21
80.018399999999986
 31
0.0
  0
LINE
  5
ED
  8
0
 62
     7
 10
164.34299999999999
 20
76.089200000000005
 30
0.0
 11
164.34299999999999
 21
86.305400000000006
 31
0.0
  0
LINE
  5
EE
  8
0
  6
AIGENLINE001
 62
     7
 10
142.54300000000001
 20
85.9495
 30
0.0
 11
142.54300000000001
 21
82.900199999999998
 31
0.0
  0
LINE
  5
EF
  8
0
  6
AIGENLINE002
 62
     7
 10
144.84299999999999
 20
101.789
 30
0.0
 11
144.84299999999999
 21
81.213499999999996
 31
0.0
  0
LINE
  5
F0
  8
0
 62
     7
 10
140.84399999999999
 20
82.900199999999998
 30
0.0
 11
148.84299999999999
 21
82.900199999999998
 31
0.0
  0
LINE
  5
F1
  8
0
  6
AIGENLINE002
 62
     7
 10
158.34299999999999
 20
103.264
 30
0.0
 11
158.34299999999999
 21
95.727799999999988
 31
0.0
  0
LINE
  5
F2
  8
0
 62
     7
 10
117.843
 20
87.400599999999983
 30
0.0
 11
164.34299999999999
 21
87.400599999999983
 31
0.0
  0
LINE
  5
F3
  8
0
 62
     7
 10
117.843
 20
99.400599999999997
 30
0.0
 11
117.843
 21
87.400599999999983
 31
0.0
  0
ARC
  5
F4
  8
0
 62
     7
 10
118.88172900000001
 20
99.361971000000011
 30
0.0
 40
1.0391099999999991
 50
92.129931000000013
 51
177.87003899999999
  0
LINE
  5
F5
  8
0
 62
     7
 10
62.7973
 20
172.90600000000001
 30
0.0
 11
57.0229
 21
172.90600000000001
 31
0.0
  0
LINE
  5
F6
  8
0
 62
     7
 10
67.999700000000004
 20
197.559
 30
0.0
 11
69.143999999999991
 21
195.577
 31
0.0
  0
LINE
  5
F7
  8
0
 62
     7
 10
69.143999999999991
 20
195.577
 30
0.0
 11
67.161999999999992
 21
196.721
 31
0.0
  0
LINE
  5
F8
  8
0
 62
     7
 10
67.161999999999992
 20
196.721
 30
0.0
 11
67.999700000000004
 21
197.559
 31
0.0
  0
LINE
  5
F9
  8
0
 62
     7
 10
73.386499999999998
 20
184.333
 30
0.0
 11
72.242199999999997
 21
182.351
 31
0.0
  0
LINE
  5
FA
  8
0
 62
     7
 10
72.242199999999997
 20
182.351
 30
0.0
 11
74.224199999999996
 21
183.495
 31
0.0
  0
LINE
  5
FB
  8
0
 62
     7
 10
74.224199999999996
 20
183.495
 30
0.0
 11
73.386499999999998
 21
184.333
 31
0.0
  0
LINE
  5
FC
  8
0
 62
     7
 10
72.825299999999999
 20
191.05799999999999
 30
0.0
 11
71.680999999999983
 21
193.03999999999999
 31
0.0
  0
LINE
  5
FD
  8
0
 62
     7
 10
71.680999999999983
 20
193.03999999999999
 30
0.0
 11
73.662999999999997
 21
191.89599999999999
 31
0.0
  0
LINE
  5
FE
  8
0
 62
     7
 10
73.662999999999997
 20
191.89599999999999
 30
0.0
 11
72.825299999999999
 21
191.05799999999999
 31
0.0
  0
LINE
  5
FF
  8
0
 62
     7
 10
67.855699999999985
 20
177.12700000000001
 30
0.0
 11
69.0
 21
179.10900000000001
 31
0.0
  0
LINE
  5
100
  8
0
 62
     7
 10
69.0
 20
179.10900000000001
 30
0.0
 11
67.018000000000001
 21
177.965
 31
0.0
  0
LINE
  5
101
  8
0
 62
     7
 10
67.018000000000001
 20
177.965
 30
0.0
 11
67.855699999999985
 21
177.12700000000001
 31
0.0
  0
LINE
  5
102
  8
0
 62
     7
 10
62.7973
 20
172.90600000000001
 30
0.0
 11
74.640500000000003
 21
184.749
 31
0.0
  0
LINE
  5
103
  8
0
 62
     7
 10
94.551199999999994
 20
143.83600000000001
 30
0.0
 11
96.762000000000015
 21
144.428
 31
0.0
  0
LINE
  5
104
  8
0
 62
     7
 10
96.762000000000015
 20
144.428
 30
0.0
 11
94.551199999999994
 21
145.02000000000001
 31
0.0
  0
LINE
  5
105
  8
0
 62
     7
 10
94.551199999999994
 20
145.02000000000001
 30
0.0
 11
94.551199999999994
 21
143.83600000000001
 31
0.0
  0
LINE
  5
106
  8
0
 62
     7
 10
46.471899999999998
 20
145.006
 30
0.0
 11
44.261499999999991
 21
144.41300000000001
 31
0.0
  0
LINE
  5
107
  8
0
 62
     7
 10
44.261499999999991
 20
144.41300000000001
 30
0.0
 11
46.471899999999998
 21
143.821
 31
0.0
  0
LINE
  5
108
  8
0
 62
     7
 10
46.471899999999998
 20
143.821
 30
0.0
 11
46.471899999999998
 21
145.006
 31
0.0
  0
LINE
  5
109
  8
0
 62
     7
 10
96.762000000000015
 20
144.42099999999999
 30
0.0
 11
44.261499999999991
 21
144.42099999999999
 31
0.0
  0
LINE
  5
10A
  8
0
 62
     7
 10
98.051500000000004
 20
136.41800000000001
 30
0.0
 11
100.262
 21
137.00999999999999
 31
0.0
  0
LINE
  5
10B
  8
0
 62
     7
 10
100.262
 20
137.00999999999999
 30
0.0
 11
98.051500000000004
 21
137.602
 31
0.0
  0
LINE
  5
10C
  8
0
 62
     7
 10
98.051500000000004
 20
137.602
 30
0.0
 11
98.051500000000004
 21
136.41800000000001
 31
0.0
  0
LINE
  5
10D
  8
0
 62
     7
 10
42.971799999999988
 20
137.58799999999999
 30
0.0
 11
40.761400000000002
 21
136.995
 31
0.0
  0
LINE
  5
10E
  8
0
 62
     7
 10
40.761400000000002
 20
136.995
 30
0.0
 11
42.971799999999988
 21
136.40299999999999
 31
0.0
  0
LINE
  5
10F
  8
0
 62
     7
 10
42.971799999999988
 20
136.40299999999999
 30
0.0
 11
42.971799999999988
 21
137.58799999999999
 31
0.0
  0
LINE
  5
110
  8
0
 62
     7
 10
100.262
 20
137.00299999999999
 30
0.0
 11
40.761400000000002
 21
137.00299999999999
 31
0.0
  0
LINE
  5
111
  8
0
 62
     7
 10
100.262
 20
136.48599999999999
 30
0.0
 11
100.262
 21
153.03899999999999
 31
0.0
  0
LINE
  5
112
  8
0
 62
     7
 10
96.761600000000016
 20
143.90700000000001
 30
0.0
 11
96.761600000000016
 21
153.03899999999999
 31
0.0
  0
LINE
  5
113
  8
0
 62
     7
 10
44.261299999999991
 20
143.81800000000001
 30
0.0
 11
44.261299999999991
 21
153.03899999999999
 31
0.0
  0
LINE
  5
114
  8
0
 62
     7
 10
40.761400000000002
 20
136.48599999999999
 30
0.0
 11
40.761400000000002
 21
153.03899999999999
 31
0.0
  0
LINE
  5
115
  8
0
 62
     7
 10
24.425899999999999
 20
153.839
 30
0.0
 11
39.951999999999998
 21
153.839
 31
0.0
  0
LINE
  5
116
  8
0
 62
     7
 10
24.425899999999999
 20
200.339
 30
0.0
 11
39.951999999999998
 21
200.339
 31
0.0
  0
LINE
  5
117
  8
0
 62
     7
 10
25.6401
 20
198.12899999999999
 30
0.0
 11
25.047899999999998
 21
200.339
 31
0.0
  0
LINE
  5
118
  8
0
 62
     7
 10
25.047899999999998
 20
200.339
 30
0.0
 11
24.455500000000001
 21
198.12899999999999
 31
0.0
  0
LINE
  5
119
  8
0
 62
     7
 10
24.455500000000001
 20
198.12899999999999
 30
0.0
 11
25.6401
 21
198.12899999999999
 31
0.0
  0
LINE
  5
11A
  8
0
 62
     7
 10
24.470199999999998
 20
156.05000000000001
 30
0.0
 11
25.0624
 21
153.839
 31
0.0
  0
LINE
  5
11B
  8
0
 62
     7
 10
25.0624
 20
153.839
 30
0.0
 11
25.654800000000002
 21
156.05000000000001
 31
0.0
  0
LINE
  5
11C
  8
0
 62
     7
 10
25.654800000000002
 20
156.05000000000001
 30
0.0
 11
24.470199999999998
 21
156.05000000000001
 31
0.0
  0
LINE
  5
11D
  8
0
 62
     7
 10
25.055099999999999
 20
200.339
 30
0.0
 11
25.055099999999999
 21
153.839
 31
0.0
  0
LINE
  5
11E
  8
0
 62
     7
 10
32.124200000000002
 20
151.62899999999999
 30
0.0
 11
31.532
 21
153.839
 31
0.0
  0
LINE
  5
11F
  8
0
 62
     7
 10
31.532
 20
153.839
 30
0.0
 11
30.939599999999999
 21
151.62899999999999
 31
0.0
  0
LINE
  5
120
  8
0
 62
     7
 10
30.939599999999999
 20
151.62899999999999
 30
0.0
 11
32.124200000000002
 21
151.62899999999999
 31
0.0
  0
LINE
  5
121
  8
0
 62
     7
 10
32.124200000000002
 20
185.62899999999999
 30
0.0
 11
31.532
 21
187.84
 31
0.0
  0
LINE
  5
122
  8
0
 62
     7
 10
31.532
 20
187.84
 30
0.0
 11
30.939599999999999
 21
185.62899999999999
 31
0.0
  0
LINE
  5
123
  8
0
 62
     7
 10
30.939599999999999
 20
185.62899999999999
 30
0.0
 11
32.124200000000002
 21
185.62899999999999
 31
0.0
  0
LINE
  5
124
  8
0
 62
     7
 10
30.9542
 20
159.55000000000001
 30
0.0
 11
31.546399999999998
 21
157.339
 31
0.0
  0
LINE
  5
125
  8
0
 62
     7
 10
31.546399999999998
 20
157.339
 30
0.0
 11
32.138800000000003
 21
159.55000000000001
 31
0.0
  0
LINE
  5
126
  8
0
 62
     7
 10
32.138800000000003
 20
159.55000000000001
 30
0.0
 11
30.9542
 21
159.55000000000001
 31
0.0
  0
LINE
  5
127
  8
0
 62
     7
 10
31.539200000000001
 20
187.84
 30
0.0
 11
31.539200000000001
 21
157.339
 31
0.0
  0
LINE
  5
128
  8
0
 62
     7
 10
31.539200000000001
 20
157.339
 30
0.0
 11
31.539200000000001
 21
150.12899999999999
 31
0.0
  0
LINE
  5
129
  8
0
 62
     7
 10
30.9649
 20
157.339
 30
0.0
 11
39.951999999999998
 21
157.339
 31
0.0
  0
LINE
  5
12A
  8
0
 62
     7
 10
30.893899999999999
 20
187.84
 30
0.0
 11
39.951999999999998
 21
187.84
 31
0.0
  0
LINE
  5
12B
  8
0
 62
     7
 10
30.9542
 20
190.05000000000001
 30
0.0
 11
31.546399999999998
 21
187.84
 31
0.0
  0
LINE
  5
12C
  8
0
 62
     7
 10
31.546399999999998
 20
187.84
 30
0.0
 11
32.138800000000003
 21
190.05000000000001
 31
0.0
  0
LINE
  5
12D
  8
0
 62
     7
 10
32.138800000000003
 20
190.05000000000001
 30
0.0
 11
30.9542
 21
190.05000000000001
 31
0.0
  0
LINE
  5
12E
  8
0
 62
     7
 10
32.124200000000002
 20
198.12899999999999
 30
0.0
 11
31.532
 21
200.339
 31
0.0
  0
LINE
  5
12F
  8
0
 62
     7
 10
31.532
 20
200.339
 30
0.0
 11
30.939599999999999
 21
198.12899999999999
 31
0.0
  0
LINE
  5
130
  8
0
 62
     7
 10
30.939599999999999
 20
198.12899999999999
 30
0.0
 11
32.124200000000002
 21
198.12899999999999
 31
0.0
  0
LINE
  5
131
  8
0
 62
     7
 10
31.539200000000001
 20
187.84
 30
0.0
 11
31.539200000000001
 21
200.339
 31
0.0
  0
LINE
  5
132
  8
0
 62
     7
 10
89.055400000000006
 20
196.55000000000001
 30
0.0
 11
89.647599999999997
 21
194.339
 31
0.0
  0
LINE
  5
133
  8
0
 62
     7
 10
89.647599999999997
 20
194.339
 30
0.0
 11
90.239900000000006
 21
196.55000000000001
 31
0.0
  0
LINE
  5
134
  8
0
 62
     7
 10
90.239900000000006
 20
196.55000000000001
 30
0.0
 11
89.055400000000006
 21
196.55000000000001
 31
0.0
  0
LINE
  5
135
  8
0
 62
     7
 10
90.225399999999993
 20
198.12899999999999
 30
0.0
 11
89.633200000000016
 21
200.339
 31
0.0
  0
LINE
  5
136
  8
0
 62
     7
 10
89.633200000000016
 20
200.339
 30
0.0
 11
89.040800000000004
 21
198.12899999999999
 31
0.0
  0
LINE
  5
137
  8
0
 62
     7
 10
89.040800000000004
 20
198.12899999999999
 30
0.0
 11
90.225399999999993
 21
198.12899999999999
 31
0.0
  0
LINE
  5
138
  8
0
 62
     7
 10
89.6404
 20
194.339
 30
0.0
 11
89.6404
 21
200.339
 31
0.0
  0
LINE
  5
139
  8
0
 62
     7
 10
89.924599999999984
 20
194.339
 30
0.0
 11
84.239500000000007
 21
194.339
 31
0.0
  0
LINE
  5
13A
  8
0
 62
     7
 10
84.125100000000003
 20
180.59599999999989
 30
0.0
 11
89.710700000000003
 21
180.59599999999989
 31
0.0
  0
LINE
  5
13B
  8
0
 62
     7
 10
84.125100000000003
 20
180.59599999999989
 30
0.0
 11
66.317800000000005
 21
198.40299999999999
 31
0.0
  0
LINE
  5
13C
  8
0
 62
     7
 10
78.301100000000005
 20
206.21899999999999
 30
0.0
 11
80.511700000000005
 21
206.81100000000001
 31
0.0
  0
LINE
  5
13D
  8
0
 62
     7
 10
80.511700000000005
 20
206.81100000000001
 30
0.0
 11
78.301100000000005
 21
207.40299999999999
 31
0.0
  0
LINE
  5
13E
  8
0
 62
     7
 10
78.301100000000005
 20
207.40299999999999
 30
0.0
 11
78.301100000000005
 21
206.21899999999999
 31
0.0
  0
LINE
  5
13F
  8
0
 62
     7
 10
72.721900000000005
 20
207.38900000000001
 30
0.0
 11
70.511600000000001
 21
206.79599999999999
 31
0.0
  0
LINE
  5
140
  8
0
 62
     7
 10
70.511600000000001
 20
206.79599999999999
 30
0.0
 11
72.721900000000005
 21
206.20400000000001
 31
0.0
  0
LINE
  5
141
  8
0
 62
     7
 10
72.721900000000005
 20
206.20400000000001
 30
0.0
 11
72.721900000000005
 21
207.38900000000001
 31
0.0
  0
LINE
  5
142
  8
0
 62
     7
 10
80.511700000000005
 20
206.803
 30
0.0
 11
70.511600000000001
 21
206.803
 31
0.0
  0
LINE
  5
143
  8
0
 62
     7
 10
68.301000000000002
 20
206.21899999999999
 30
0.0
 11
70.511600000000001
 21
206.81100000000001
 31
0.0
  0
LINE
  5
144
  8
0
 62
     7
 10
70.511600000000001
 20
206.81100000000001
 30
0.0
 11
68.301000000000002
 21
207.40299999999999
 31
0.0
  0
LINE
  5
145
  8
0
 62
     7
 10
68.301000000000002
 20
207.40299999999999
 30
0.0
 11
68.301000000000002
 21
206.21899999999999
 31
0.0
  0
LINE
  5
146
  8
0
 62
     7
 10
62.722000000000001
 20
207.38900000000001
 30
0.0
 11
60.511600000000001
 21
206.79599999999999
 31
0.0
  0
LINE
  5
147
  8
0
 62
     7
 10
60.511600000000001
 20
206.79599999999999
 30
0.0
 11
62.722000000000001
 21
206.20400000000001
 31
0.0
  0
LINE
  5
148
  8
0
 62
     7
 10
62.722000000000001
 20
206.20400000000001
 30
0.0
 11
62.722000000000001
 21
207.38900000000001
 31
0.0
  0
LINE
  5
149
  8
0
 62
     7
 10
70.511600000000001
 20
206.803
 30
0.0
 11
60.511600000000001
 21
206.803
 31
0.0
  0
LINE
  5
14A
  8
0
 62
     7
 10
70.511700000000005
 20
202.78999999999999
 30
0.0
 11
70.511700000000005
 21
207.25700000000001
 31
0.0
  0
LINE
  5
14B
  8
0
 62
     7
 10
80.511700000000005
 20
197.708
 30
0.0
 11
80.511700000000005
 21
207.25700000000001
 31
0.0
  0
LINE
  5
14C
  8
0
 62
     7
 10
60.511600000000001
 20
197.708
 30
0.0
 11
60.511600000000001
 21
207.25700000000001
 31
0.0
  0
LINE
  5
14D
  8
0
 62
     7
 10
135.15100000000001
 20
198.12899999999999
 30
0.0
 11
134.55799999999999
 21
200.339
 31
0.0
  0
LINE
  5
14E
  8
0
 62
     7
 10
134.55799999999999
 20
200.339
 30
0.0
 11
133.96600000000001
 21
198.12899999999999
 31
0.0
  0
LINE
  5
14F
  8
0
 62
     7
 10
133.96600000000001
 20
198.12899999999999
 30
0.0
 11
135.15100000000001
 21
198.12899999999999
 31
0.0
  0
LINE
  5
150
  8
0
 62
     7
 10
133.98099999999999
 20
183.05000000000001
 30
0.0
 11
134.572
 21
180.839
 31
0.0
  0
LINE
  5
151
  8
0
 62
     7
 10
134.572
 20
180.839
 30
0.0
 11
135.16499999999999
 21
183.05000000000001
 31
0.0
  0
LINE
  5
152
  8
0
 62
     7
 10
135.16499999999999
 20
183.05000000000001
 30
0.0
 11
133.98099999999999
 21
183.05000000000001
 31
0.0
  0
LINE
  5
153
  8
0
 62
     7
 10
134.566
 20
200.339
 30
0.0
 11
134.566
 21
180.839
 31
0.0
  0
LINE
  5
154
  8
0
 62
     7
 10
55.560600000000001
 20
198.12899999999999
 30
0.0
 11
54.968400000000003
 21
200.339
 31
0.0
  0
LINE
  5
155
  8
0
 62
     7
 10
54.968400000000003
 20
200.339
 30
0.0
 11
54.375999999999998
 21
198.12899999999999
 31
0.0
  0
LINE
  5
156
  8
0
 62
     7
 10
54.375999999999998
 20
198.12899999999999
 30
0.0
 11
55.560600000000001
 21
198.12899999999999
 31
0.0
  0
LINE
  5
157
  8
0
 62
     7
 10
54.390700000000002
 20
183.05000000000001
 30
0.0
 11
54.982900000000001
 21
180.839
 31
0.0
  0
LINE
  5
158
  8
0
 62
     7
 10
54.982900000000001
 20
180.839
 30
0.0
 11
55.575299999999991
 21
183.05000000000001
 31
0.0
  0
LINE
  5
159
  8
0
 62
     7
 10
55.575299999999991
 20
183.05000000000001
 30
0.0
 11
54.390700000000002
 21
183.05000000000001
 31
0.0
  0
LINE
  5
15A
  8
0
 62
     7
 10
54.9756
 20
200.339
 30
0.0
 11
54.9756
 21
180.839
 31
0.0
  0
LINE
  5
15B
  8
0
 62
     7
 10
138.50700000000001
 20
180.839
 30
0.0
 11
134.15100000000001
 21
180.839
 31
0.0
  0
LINE
  5
15C
  8
0
 62
     7
 10
64.175299999999993
 20
180.839
 30
0.0
 11
54.561000000000007
 21
180.839
 31
0.0
  0
LINE
  5
15D
  8
0
  6
AIGENLINE002
 62
     7
 10
80.511700000000005
 20
191.494
 30
0.0
 11
80.511700000000005
 21
197.13099999999989
 31
0.0
  0
LINE
  5
15E
  8
0
  6
AIGENLINE002
 62
     7
 10
57.589799999999997
 20
194.339
 30
0.0
 11
83.739400000000003
 21
194.339
 31
0.0
  0
ARC
  5
15F
  8
0
  6
AIGENLINE001
 62
     7
 10
80.511615000000006
 20
194.339495
 30
0.0
 40
1.7500340000000001
 50
359.99718999999999
 51
89.997159999999994
  0
ARC
  5
160
  8
0
  6
AIGENLINE001
 62
     7
 10
80.511701999999985
 20
194.33940899999999
 30
0.0
 40
1.7501199999999999
 50
90.0
 51
179.99996999999999
  0
ARC
  5
161
  8
0
  6
AIGENLINE001
 62
     7
 10
80.578934000000004
 20
194.40664200000001
 30
0.0
 40
1.818595
 50
182.11868999999999
 51
267.88134000000002
  0
ARC
  5
162
  8
0
  6
AIGENLINE001
 62
     7
 10
80.444081999999995
 20
194.40684999999999
 30
0.0
 40
1.818816999999999
 50
272.13062500000001
 51
357.875024
  0
LINE
  5
163
  8
0
  6
AIGENLINE002
 62
     7
 10
60.511600000000001
 20
191.494
 30
0.0
 11
60.511600000000001
 21
197.13099999999989
 31
0.0
  0
ARC
  5
164
  8
0
  6
AIGENLINE001
 62
     7
 10
60.511504000000002
 20
194.339495
 30
0.0
 40
1.7500340000000001
 50
359.99718999999999
 51
89.997159999999994
  0
ARC
  5
165
  8
0
  6
AIGENLINE001
 62
     7
 10
60.511590000000012
 20
194.33940899999999
 30
0.0
 40
1.7501199999999999
 50
90.0
 51
179.99996999999999
  0
ARC
  5
166
  8
0
  6
AIGENLINE001
 62
     7
 10
60.578821999999988
 20
194.40664200000001
 30
0.0
 40
1.818595
 50
182.11868999999999
 51
267.88134000000002
  0
ARC
  5
167
  8
0
  6
AIGENLINE001
 62
     7
 10
60.443970999999998
 20
194.40684999999999
 30
0.0
 40
1.818816999999999
 50
272.13062500000001
 51
357.875024
  0
ARC
  5
168
  8
0
 62
     7
 10
70.511558999999991
 20
194.33940899999999
 30
0.0
 40
1.7501199999999999
 50
0.00001
 51
89.999980000000008
  0
ARC
  5
169
  8
0
 62
     7
 10
70.511645999999985
 20
194.339495
 30
0.0
 40
1.7500340000000001
 50
90.002820000000014
 51
180.00282999999999
  0
ARC
  5
16A
  8
0
 62
     7
 10
70.578958999999998
 20
194.40663000000001
 30
0.0
 40
1.818589
 50
182.118313
 51
267.87607700000001
  0
ARC
  5
16B
  8
0
 62
     7
 10
70.443944999999999
 20
194.40702400000001
 30
0.0
 40
1.8189919999999991
 50
272.13028000000003
 51
357.86972900000001
  0
LINE
  5
16C
  8
0
 62
     7
 10
45.761299999999999
 20
157.339
 30
0.0
 11
95.262000000000015
 21
157.339
 31
0.0
  0
LINE
  5
16D
  8
0
 62
     7
 10
45.761299999999999
 20
187.84
 30
0.0
 11
95.262000000000015
 21
187.84
 31
0.0
  0
LINE
  5
16E
  8
0
  6
AIGENLINE002
 62
     7
 10
70.511700000000005
 20
151.48599999999999
 30
0.0
 11
70.511700000000005
 21
202.0
 31
0.0
  0
LINE
  5
16F
  8
0
 62
     7
 10
117.148
 20
202.55000000000001
 30
0.0
 11
117.73999999999999
 21
200.339
 31
0.0
  0
LINE
  5
170
  8
0
 62
     7
 10
117.73999999999999
 20
200.339
 30
0.0
 11
118.33199999999999
 21
202.55000000000001
 31
0.0
  0
LINE
  5
171
  8
0
 62
     7
 10
118.33199999999999
 20
202.55000000000001
 30
0.0
 11
117.148
 21
202.55000000000001
 31
0.0
  0
LINE
  5
172
  8
0
 62
     7
 10
128.286
 20
168.20699999999999
 30
0.0
 11
126.304
 21
167.06299999999999
 31
0.0
  0
LINE
  5
173
  8
0
 62
     7
 10
126.304
 20
167.06299999999999
 30
0.0
 11
127.44799999999999
 21
169.04400000000001
 31
0.0
  0
LINE
  5
174
  8
0
 62
     7
 10
127.44799999999999
 20
169.04400000000001
 30
0.0
 11
128.286
 21
168.20699999999999
 31
0.0
  0
LINE
  5
175
  8
0
 62
     7
 10
126.304
 20
167.06299999999999
 30
0.0
 11
129.63999999999999
 21
170.398
 31
0.0
  0
LINE
  5
176
  8
0
 62
     7
 10
126.592
 20
159.17500000000001
 30
0.0
 11
125.447
 21
157.19300000000001
 31
0.0
  0
LINE
  5
177
  8
0
 62
     7
 10
125.447
 20
157.19300000000001
 30
0.0
 11
127.429
 21
158.33699999999999
 31
0.0
  0
LINE
  5
178
  8
0
 62
     7
 10
127.429
 20
158.33699999999999
 30
0.0
 11
126.592
 21
159.17500000000001
 31
0.0
  0
LINE
  5
179
  8
0
 62
     7
 10
125.447
 20
157.19300000000001
 30
0.0
 11
128.393
 21
160.13900000000001
 31
0.0
  0
LINE
  5
17A
  8
0
 62
     7
 10
174.56999999999999
 20
159.05000000000001
 30
0.0
 11
175.16300000000001
 21
156.839
 31
0.0
  0
LINE
  5
17B
  8
0
 62
     7
 10
175.16300000000001
 20
156.839
 30
0.0
 11
175.755
 21
159.05000000000001
 31
0.0
  0
LINE
  5
17C
  8
0
 62
     7
 10
175.755
 20
159.05000000000001
 30
0.0
 11
174.56999999999999
 21
159.05000000000001
 31
0.0
  0
LINE
  5
17D
  8
0
 62
     7
 10
175.74000000000001
 20
198.12899999999999
 30
0.0
 11
175.148
 21
200.339
 31
0.0
  0
LINE
  5
17E
  8
0
 62
     7
 10
175.148
 20
200.339
 30
0.0
 11
174.55600000000001
 21
198.12899999999999
 31
0.0
  0
LINE
  5
17F
  8
0
 62
     7
 10
174.55600000000001
 20
198.12899999999999
 30
0.0
 11
175.74000000000001
 21
198.12899999999999
 31
0.0
  0
LINE
  5
180
  8
0
 62
     7
 10
175.155
 20
156.839
 30
0.0
 11
175.155
 21
200.339
 31
0.0
  0
LINE
  5
181
  8
0
 62
     7
 10
167.29499999999999
 20
156.839
 30
0.0
 11
176.31200000000001
 21
156.839
 31
0.0
  0
LINE
  5
182
  8
0
 62
     7
 10
110.381
 20
159.05000000000001
 30
0.0
 11
110.973
 21
156.839
 31
0.0
  0
LINE
  5
183
  8
0
 62
     7
 10
110.973
 20
156.839
 30
0.0
 11
111.566
 21
159.05000000000001
 31
0.0
  0
LINE
  5
184
  8
0
 62
     7
 10
111.566
 20
159.05000000000001
 30
0.0
 11
110.381
 21
159.05000000000001
 31
0.0
  0
LINE
  5
185
  8
0
 62
     7
 10
111.551
 20
198.12899999999999
 30
0.0
 11
110.959
 21
200.339
 31
0.0
  0
LINE
  5
186
  8
0
 62
     7
 10
110.959
 20
200.339
 30
0.0
 11
110.367
 21
198.12899999999999
 31
0.0
  0
LINE
  5
187
  8
0
 62
     7
 10
110.367
 20
198.12899999999999
 30
0.0
 11
111.551
 21
198.12899999999999
 31
0.0
  0
LINE
  5
188
  8
0
 62
     7
 10
110.96599999999999
 20
156.839
 30
0.0
 11
110.96599999999999
 21
200.339
 31
0.0
  0
LINE
  5
189
  8
0
 62
     7
 10
117.148
 20
168.55000000000001
 30
0.0
 11
117.73999999999999
 21
166.339
 31
0.0
  0
LINE
  5
18A
  8
0
 62
     7
 10
117.73999999999999
 20
166.339
 30
0.0
 11
118.33199999999999
 21
168.55000000000001
 31
0.0
  0
LINE
  5
18B
  8
0
 62
     7
 10
118.33199999999999
 20
168.55000000000001
 30
0.0
 11
117.148
 21
168.55000000000001
 31
0.0
  0
LINE
  5
18C
  8
0
 62
     7
 10
118.318
 20
195.12899999999999
 30
0.0
 11
117.726
 21
197.339
 31
0.0
  0
LINE
  5
18D
  8
0
 62
     7
 10
117.726
 20
197.339
 30
0.0
 11
117.133
 21
195.12899999999999
 31
0.0
  0
LINE
  5
18E
  8
0
 62
     7
 10
117.133
 20
195.12899999999999
 30
0.0
 11
118.318
 21
195.12899999999999
 31
0.0
  0
LINE
  5
18F
  8
0
 62
     7
 10
117.733
 20
166.339
 30
0.0
 11
117.733
 21
206.065
 31
0.0
  0
LINE
  5
190
  8
0
 62
     7
 10
128.054
 20
207.40899999999999
 30
0.0
 11
125.843
 21
206.81700000000001
 31
0.0
  0
LINE
  5
191
  8
0
 62
     7
 10
125.843
 20
206.81700000000001
 30
0.0
 11
128.054
 21
206.22499999999999
 31
0.0
  0
LINE
  5
192
  8
0
 62
     7
 10
128.054
 20
206.22499999999999
 30
0.0
 11
128.054
 21
207.40899999999999
 31
0.0
  0
LINE
  5
193
  8
0
 62
     7
 10
161.63300000000001
 20
206.239
 30
0.0
 11
163.84399999999999
 21
206.83199999999999
 31
0.0
  0
LINE
  5
194
  8
0
 62
     7
 10
163.84399999999999
 20
206.83199999999999
 30
0.0
 11
161.63300000000001
 21
207.42400000000001
 31
0.0
  0
LINE
  5
195
  8
0
 62
     7
 10
161.63300000000001
 20
207.42400000000001
 30
0.0
 11
161.63300000000001
 21
206.239
 31
0.0
  0
LINE
  5
196
  8
0
 62
     7
 10
125.843
 20
206.82400000000001
 30
0.0
 11
163.84399999999999
 21
206.82400000000001
 31
0.0
  0
LINE
  5
197
  8
0
 62
     7
 10
127.304
 20
149.74199999999999
 30
0.0
 11
125.09399999999999
 21
149.149
 31
0.0
  0
LINE
  5
198
  8
0
 62
     7
 10
125.09399999999999
 20
149.149
 30
0.0
 11
127.304
 21
148.55699999999999
 31
0.0
  0
LINE
  5
199
  8
0
 62
     7
 10
127.304
 20
148.55699999999999
 30
0.0
 11
127.304
 21
149.74199999999999
 31
0.0
  0
LINE
  5
19A
  8
0
 62
     7
 10
162.38300000000001
 20
148.572
 30
0.0
 11
164.59399999999999
 21
149.16399999999999
 31
0.0
  0
LINE
  5
19B
  8
0
 62
     7
 10
164.59399999999999
 20
149.16399999999999
 30
0.0
 11
162.38300000000001
 21
149.756
 31
0.0
  0
LINE
  5
19C
  8
0
 62
     7
 10
162.38300000000001
 20
149.756
 30
0.0
 11
162.38300000000001
 21
148.572
 31
0.0
  0
LINE
  5
19D
  8
0
 62
     7
 10
125.09399999999999
 20
149.15700000000001
 30
0.0
 11
164.59399999999999
 21
149.15700000000001
 31
0.0
  0
LINE
  5
19E
  8
0
 62
     7
 10
128.393
 20
160.13900000000001
 30
0.0
 11
136.756
 21
160.13900000000001
 31
0.0
  0
LINE
  5
19F
  8
0
 62
     7
 10
116.91
 20
166.339
 30
0.0
 11
124.47
 21
166.339
 31
0.0
  0
LINE
  5
1A0
  8
0
 62
     7
 10
110.033
 20
156.839
 30
0.0
 11
122.589
 21
156.839
 31
0.0
  0
LINE
  5
1A1
  8
0
  6
AIGENLINE002
 62
     7
 10
123.339
 20
156.839
 30
0.0
 11
127.131
 21
156.839
 31
0.0
  0
LINE
  5
1A2
  8
0
  6
AIGENLINE002
 62
     7
 10
139.059
 20
180.839
 30
0.0
 11
151.066
 21
180.839
 31
0.0
  0
LINE
  5
1A3
  8
0
  6
AIGENLINE002
 62
     7
 10
64.727599999999995
 20
180.839
 30
0.0
 11
76.733800000000002
 21
180.839
 31
0.0
  0
ARC
  5
1A4
  8
0
  6
AIGENLINE001
 62
     7
 10
144.84340900000001
 20
180.839372
 30
0.0
 40
2.2999610000000001
 50
0.00001
 51
89.999980000000008
  0
ARC
  5
1A5
  8
0
  6
AIGENLINE001
 62
     7
 10
144.84341000000001
 20
180.839372
 30
0.0
 40
2.2999610000000001
 50
90.0
 51
179.99996999999999
  0
ARC
  5
1A6
  8
0
  6
AIGENLINE001
 62
     7
 10
144.84340900000001
 20
180.839372
 30
0.0
 40
2.29996
 50
179.99996999999999
 51
270.00002000000001
  0
ARC
  5
1A7
  8
0
  6
AIGENLINE001
 62
     7
 10
144.84340900000001
 20
180.83937299999999
 30
0.0
 40
2.2999610000000001
 50
270.00002000000001
 51
359.99999000000003
  0
ARC
  5
1A8
  8
0
  6
AIGENLINE001
 62
     7
 10
144.84340900000001
 20
180.839372
 30
0.0
 40
4.000125999999999
 50
0.00001
 51
89.999980000000008
  0
ARC
  5
1A9
  8
0
  6
AIGENLINE001
 62
     7
 10
144.84341000000001
 20
180.839372
 30
0.0
 40
4.000125999999999
 50
90.0
 51
179.99996999999999
  0
ARC
  5
1AA
  8
0
  6
AIGENLINE001
 62
     7
 10
144.84340900000001
 20
180.839372
 30
0.0
 40
4.0001249999999988
 50
179.99996999999999
 51
270.00002000000001
  0
ARC
  5
1AB
  8
0
  6
AIGENLINE001
 62
     7
 10
144.84340900000001
 20
180.83937399999991
 30
0.0
 40
4.000125999999999
 50
270.00002000000001
 51
359.99999000000003
  0
ARC
  5
1AC
  8
0
 62
     7
 10
70.511558999999991
 20
180.839372
 30
0.0
 40
2.2999610000000001
 50
0.00001
 51
89.999980000000008
  0
ARC
  5
1AD
  8
0
 62
     7
 10
70.511560000000003
 20
180.839372
 30
0.0
 40
2.2999610000000001
 50
90.0
 51
179.99996999999999
  0
ARC
  5
1AE
  8
0
 62
     7
 10
70.511558999999991
 20
180.839372
 30
0.0
 40
2.29996
 50
179.99996999999999
 51
270.00002000000001
  0
ARC
  5
1AF
  8
0
 62
     7
 10
70.511558999999991
 20
180.83937299999999
 30
0.0
 40
2.2999610000000001
 50
270.00002000000001
 51
359.99999000000003
  0
ARC
  5
1B0
  8
0
 62
     7
 10
70.511558999999991
 20
180.839372
 30
0.0
 40
4.000125999999999
 50
0.00001
 51
89.999980000000008
  0
ARC
  5
1B1
  8
0
 62
     7
 10
70.511645999999985
 20
180.83945800000001
 30
0.0
 40
4.0000400000000003
 50
90.001234000000011
 51
180.00124400000001
  0
ARC
  5
1B2
  8
0
 62
     7
 10
70.511645000000001
 20
180.83928599999999
 30
0.0
 40
4.0000390000000001
 50
179.99873700000001
 51
269.998786
  0
ARC
  5
1B3
  8
0
 62
     7
 10
70.511558999999991
 20
180.83937399999991
 30
0.0
 40
4.000125999999999
 50
270.00002000000001
 51
359.99999000000003
  0
LINE
  5
1B4
  8
0
 62
     7
 10
163.84399999999999
 20
207.755
 30
0.0
 11
163.84399999999999
 21
197.20400000000001
 31
0.0
  0
LINE
  5
1B5
  8
0
 62
     7
 10
125.843
 20
207.755
 30
0.0
 11
125.843
 21
197.49799999999999
 31
0.0
  0
LINE
  5
1B6
  8
0
 62
     7
 10
163.84399999999999
 20
195.339
 30
0.0
 11
163.84399999999999
 21
168.339
 31
0.0
  0
LINE
  5
1B7
  8
0
 62
     7
 10
44.261299999999991
 20
186.34
 30
0.0
 11
44.261299999999991
 21
158.839
 31
0.0
  0
LINE
  5
1B8
  8
0
 62
     7
 10
42.761499999999998
 20
153.839
 30
0.0
 11
98.261799999999994
 21
153.839
 31
0.0
  0
LINE
  5
1B9
  8
0
 62
     7
 10
40.761400000000002
 20
198.339
 30
0.0
 11
40.761400000000002
 21
155.839
 31
0.0
  0
LINE
  5
1BA
  8
0
 62
     7
 10
42.761499999999998
 20
200.339
 30
0.0
 11
98.261799999999994
 21
200.339
 31
0.0
  0
LINE
  5
1BB
  8
_________2
 62
     7
 10
205.30099999999999
 20
127.411
 30
0.0
 11
183.55000000000001
 21
127.411
 31
0.0
  0
LINE
  5
1BC
  8
_________2
 62
     7
 10
100.3
 20
-4.0910799999999998
 30
0.0
 11
100.3
 21
-21.071400000000001
 31
0.0
  0
LINE
  5
1BD
  8
_________2
 62
     7
 10
100.3
 20
275.93099999999998
 30
0.0
 11
100.3
 21
258.911
 31
0.0
  0
LINE
  5
1BE
  8
_________2
 62
     7
 10
17.049499999999998
 20
127.411
 30
0.0
 11
-4.70052
 21
127.411
 31
0.0
  0
LINE
  5
1BF
  8
_________2
 62
     7
 10
76.741
 20
29.8047
 30
0.0
 11
74.554699999999997
 21
29.8047
 31
0.0
  0
LINE
  5
1C0
  8
_________2
 62
     7
 10
77.233699999999999
 20
29.8047
 30
0.0
 11
76.981499999999997
 21
29.8047
 31
0.0
  0
LINE
  5
1C1
  8
_________2
 62
     7
 10
77.726299999999995
 20
29.8047
 30
0.0
 11
80.651200000000003
 21
29.8047
 31
0.0
  0
LINE
  5
1C2
  8
_________2
 62
     7
 10
77.233699999999999
 20
29.8047
 30
0.0
 11
77.485500000000002
 21
29.8047
 31
0.0
  0
LINE
  5
1C3
  8
_________2
 62
     7
 10
70.837100000000007
 20
29.8047
 30
0.0
 11
68.650499999999994
 21
29.8047
 31
0.0
  0
LINE
  5
1C4
  8
_________2
 62
     7
 10
71.329400000000007
 20
29.8047
 30
0.0
 11
71.077600000000004
 21
29.8047
 31
0.0
  0
LINE
  5
1C5
  8
_________2
 62
     7
 10
71.329400000000007
 20
30.2974
 30
0.0
 11
71.329400000000007
 21
32.484400000000001
 31
0.0
  0
LINE
  5
1C6
  8
_________2
 62
     7
 10
71.329400000000007
 20
29.8047
 30
0.0
 11
71.329400000000007
 21
30.056899999999999
 31
0.0
  0
LINE
  5
1C7
  8
_________2
 62
     7
 10
71.822100000000006
 20
29.8047
 30
0.0
 11
74.009
 21
29.8047
 31
0.0
  0
LINE
  5
1C8
  8
_________2
 62
     7
 10
71.329400000000007
 20
29.8047
 30
0.0
 11
71.581599999999995
 21
29.8047
 31
0.0
  0
LINE
  5
1C9
  8
_________2
 62
     7
 10
71.329400000000007
 20
29.312799999999999
 30
0.0
 11
71.329400000000007
 21
27.125800000000002
 31
0.0
  0
LINE
  5
1CA
  8
_________2
 62
     7
 10
71.329400000000007
 20
29.8047
 30
0.0
 11
71.329400000000007
 21
29.5532
 31
0.0
  0
LINE
  5
1CB
  8
_________2
 62
     7
 10
75.040499999999994
 20
28.5852
 30
0.0
 11
80.218500000000006
 21
27.720400000000001
 31
0.0
  0
LINE
  5
1CC
  8
_________2
 62
     7
 10
75.040499999999994
 20
31.0243
 30
0.0
 11
80.218500000000006
 21
31.889700000000001
 31
0.0
  0
LINE
  5
1CD
  8
_________2
 62
     7
 10
80.218500000000006
 20
27.720400000000001
 30
0.0
 11
80.218500000000006
 21
31.889700000000001
 31
0.0
  0
LINE
  5
1CE
  8
_________2
 62
     7
 10
75.040499999999994
 20
28.5852
 30
0.0
 11
75.040499999999994
 21
31.0243
 31
0.0
  0
ARC
  5
1CF
  8
_________2
 62
     7
 10
71.28285600000001
 20
29.757811
 30
0.0
 40
1.2673589999999999
 50
2.122214
 51
87.893958999999995
  0
ARC
  5
1D0
  8
_________2
 62
     7
 10
71.375959999999992
 20
29.758213000000001
 30
0.0
 40
1.2669559999999991
 50
92.104701000000006
 51
177.89526900000001
  0
ARC
  5
1D1
  8
_________2
 62
     7
 10
71.376357999999996
 20
29.851671
 30
0.0
 40
1.2673680000000001
 50
182.12203600000001
 51
267.877993
  0
ARC
  5
1D2
  8
_________2
 62
     7
 10
71.282531999999989
 20
29.851998999999999
 30
0.0
 40
1.267695999999999
 50
272.12015300000002
 51
357.863674
  0
ARC
  5
1D3
  8
_________2
 62
     7
 10
71.329430000000002
 20
29.804742999999998
 30
0.0
 40
2.0849849999999992
 50
0.00001
 51
89.999980000000008
  0
ARC
  5
1D4
  8
_________2
 62
     7
 10
71.329603000000006
 20
29.804915000000001
 30
0.0
 40
2.084813
 50
90.004733999999999
 51
180.00474399999999
  0
ARC
  5
1D5
  8
_________2
 62
     7
 10
71.409106000000008
 20
29.884775999999999
 30
0.0
 40
2.1657950000000001
 50
182.11776599999999
 51
267.89173399999999
  0
ARC
  5
1D6
  8
_________2
 62
     7
 10
71.249459000000002
 20
29.885429999999999
 30
0.0
 40
2.1664590000000001
 50
272.11546800000002
 51
357.86560400000002
  0
TEXT
  5
1D7
  8
_________2
 62
     7
 10
104.605
 20
1.6794899999999999
 30
0.0
 40
3.0923400000000001
  1
図番
 41
0.5
  0
LINE
  5
1D8
  8
_________2
 62
     7
 10
103.55
 20
5.9087199999999989
 30
0.0
 11
183.55099999999999
 21
5.9087199999999989
 31
0.0
  0
TEXT
  5
1D9
  8
_________2
 62
     7
 10
104.605
 20
11.6793
 30
0.0
 40
3.0923400000000001
  1
品番
 41
0.5
  0
TEXT
  5
1DA
  8
_________2
 62
     7
 10
104.605
 20
31.818100000000001
 30
0.0
 40
3.0923400000000001
  1
名称
 41
0.5
  0
TEXT
  5
1DB
  8
_________2
 62
     7
 10
91.845058333333341
 20
26.821999999999999
 30
0.0
 40
3.6545800000000002
  1
mm
 41
0.5
 72
     1
 11
93.367800000000003
 21
26.821999999999999
 31
0.0
  0
TEXT
  5
1DC
  8
_________2
 62
     7
 10
85.643199999999993
 20
31.818100000000001
 30
0.0
 40
3.0923400000000001
  1
単位
 41
0.5
  0
TEXT
  5
1DD
  8
_________2
 62
     7
 10
85.643199999999993
 20
19.410799999999998
 30
0.0
 40
3.0923400000000001
  1
尺度
 41
0.5
  0
TEXT
  5
1DE
  8
_________2
 62
     7
 10
90.09193616666667
 20
13.2179
 30
0.0
 40
3.6545800000000002
  1
1 ： 10
 41
0.5
 72
     1
 11
93.959699999999998
 21
13.2179
 31
0.0
  0
TEXT
  5
1DF
  8
_________2
 62
     7
 10
133.38277500000001
 20
9.1078600000000005
 30
0.0
 40
3.9357000000000002
  1
DV045260-00
 41
0.5
 72
     1
 11
143.55000000000001
 21
9.1078600000000005
 31
0.0
  0
TEXT
  5
1E0
  8
_________2
 62
     7
 10
136.006575
 20
-0.8926299999999999
 30
0.0
 40
3.9357000000000002
  1
DV045260
 41
0.5
 72
     1
 11
143.55000000000001
 21
-0.8926299999999999
 31
0.0
  0
TEXT
  5
1E1
  8
_________2
 62
     7
 10
24.5868
 20
0.407557
 30
0.0
 40
3.9357000000000002
  1
実容量：10.5L、重量：18.6kg、オーバーフロー付
 41
0.5
  0
TEXT
  5
1E2
  8
_________2
 62
     7
 10
109.179
 20
24.2257
 30
0.0
 40
3.9357000000000002
  1
ヴェーロ　洗面器
 41
0.5
  0
TEXT
  5
1E3
  8
_________2
 62
     7
 10
39.425300333333333
 20
13.603
 30
0.0
 40
3.6545800000000002
  1
早川
 41
0.5
 72
     1
 11
41.313499999999998
 21
13.603
 31
0.0
  0
TEXT
  5
1E4
  8
_________2
 62
     7
 10
20.790090666666661
 20
13.603
 30
0.0
 40
3.6545800000000002
  1
石原
 41
0.5
 72
     1
 11
22.7392
 21
13.603
 31
0.0
  0
TEXT
  5
1E5
  8
_________2
 62
     7
 10
67.785399999999996
 20
13.2179
 30
0.0
 40
3.6545800000000002
  1
15.10.16
 41
0.5
  0
TEXT
  5
1E6
  8
_________2
 62
     7
 10
66.593100000000007
 20
19.410799999999998
 30
0.0
 40
3.0923400000000001
  1
日付
 41
0.5
  0
TEXT
  5
1E7
  8
_________2
 62
     7
 10
29.639399999999998
 20
19.410799999999998
 30
0.0
 40
3.0923400000000001
  1
検図
 41
0.5
  0
TEXT
  5
1E8
  8
_________2
 62
     7
 10
18.021100000000001
 20
5.21143
 30
0.0
 40
3.0923400000000001
  1
備考
 41
0.5
  0
TEXT
  5
1E9
  8
_________2
 62
     7
 10
18.021100000000001
 20
19.410799999999998
 30
0.0
 40
3.0923400000000001
  1
製図
 41
0.5
  0
TEXT
  5
1EA
  8
_________2
 62
     7
 10
23.788465333333338
 20
27.936800000000002
 30
0.0
 40
4.4979399999999989
  1
セラトレーディング株式会社
 41
0.5
 72
     1
 11
41.180500000000002
 21
27.936800000000002
 31
0.0
  0
LINE
  5
1EB
  8
_________2
 62
     7
 10
183.55099999999999
 20
-4.0910799999999998
 30
0.0
 11
17.049499999999998
 21
-4.0910799999999998
 31
0.0
  0
LINE
  5
1EC
  8
_________2
 62
     7
 10
17.049499999999998
 20
-4.0910799999999998
 30
0.0
 11
17.049499999999998
 21
258.911
 31
0.0
  0
LINE
  5
1ED
  8
_________2
 62
     7
 10
17.049499999999998
 20
258.911
 30
0.0
 11
183.55099999999999
 21
258.911
 31
0.0
  0
LINE
  5
1EE
  8
_________2
 62
     7
 10
183.55099999999999
 20
258.911
 30
0.0
 11
183.55099999999999
 21
-4.0910799999999998
 31
0.0
  0
LINE
  5
1EF
  8
_________2
 62
     7
 10
65.549599999999998
 20
9.4089600000000004
 30
0.0
 11
65.549599999999998
 21
35.908799999999999
 31
0.0
  0
LINE
  5
1F0
  8
_________2
 62
     7
 10
84.549700000000016
 20
9.4089600000000004
 30
0.0
 11
84.549700000000016
 21
35.908799999999999
 31
0.0
  0
LINE
  5
1F1
  8
_________2
 62
     7
 10
103.55
 20
-4.0910799999999998
 30
0.0
 11
103.55
 21
35.908799999999999
 31
0.0
  0
LINE
  5
1F2
  8
_________2
 62
     7
 10
28.549299999999999
 20
9.4089600000000004
 30
0.0
 11
28.549299999999999
 21
23.409199999999998
 31
0.0
  0
LINE
  5
1F3
  8
_________2
 62
     7
 10
17.049499999999998
 20
9.4089600000000004
 30
0.0
 11
103.55
 21
9.4089600000000004
 31
0.0
  0
LINE
  5
1F4
  8
_________2
 62
     7
 10
17.049499999999998
 20
23.409199999999998
 30
0.0
 11
103.55
 21
23.409199999999998
 31
0.0
  0
LINE
  5
1F5
  8
_________2
 62
     7
 10
103.55
 20
15.9085
 30
0.0
 11
183.55099999999999
 21
15.9085
 31
0.0
  0
LINE
  5
1F6
  8
_________2
 62
     7
 10
17.049499999999998
 20
35.908799999999999
 30
0.0
 11
183.55099999999999
 21
35.908799999999999
 31
0.0
  0
ENDSEC
  0
EOF
