  0
SECTION
  2
HEADER
  9
$ACADVER
  1
AC1009
  9
$INSBASE
 10
0.0
 20
0.0
 30
0.0
  9
$EXTMIN
 10
-4.70052
 20
-21.071400000000001
 30
0.0
  9
$EXTMAX
 10
205.30099999999999
 20
275.93099999999998
 30
0.0
  9
$LIMMIN
 10
0.0
 20
0.0
  9
$LIMMAX
 10
12.0
 20
9.0
  9
$ORTHOMODE
 70
     0
  9
$REGENMODE
 70
     1
  9
$FILLMODE
 70
     1
  9
$QTEXTMODE
 70
     0
  9
$MIRRTEXT
 70
     1
  9
$DRAGMODE
 70
     2
  9
$LTSCALE
 40
1.0
  9
$OSMODE
 70
    37
  9
$ATTMODE
 70
     1
  9
$TEXTSIZE
 40
0.0
  9
$TRACEWID
 40
0.05
  9
$TEXTSTYLE
  7
STANDARD
  9
$CLAYER
  8
0
  9
$CELTYPE
  6
CONTINUOUS
  9
$CECOLOR
 62
   256
  9
$DIMSCALE
 40
1.0
  9
$DIMASZ
 40
0.18
  9
$DIMEXO
 40
0.0625
  9
$DIMDLI
 40
0.38
  9
$DIMRND
 40
0.0
  9
$DIMDLE
 40
0.0
  9
$DIMEXE
 40
0.18
  9
$DIMTP
 40
0.0
  9
$DIMTM
 40
0.0
  9
$DIMTXT
 40
0.18
  9
$DIMCEN
 40
0.09
  9
$DIMTSZ
 40
0.0
  9
$DIMTOL
 70
     0
  9
$DIMLIM
 70
     0
  9
$DIMTIH
 70
     1
  9
$DIMTOH
 70
     1
  9
$DIMSE1
 70
     0
  9
$DIMSE2
 70
     0
  9
$DIMTAD
 70
     0
  9
$DIMZIN
 70
     0
  9
$DIMBLK
  1

  9
$DIMASO
 70
     1
  9
$DIMSHO
 70
     1
  9
$DIMPOST
  1

  9
$DIMAPOST
  1

  9
$DIMALT
 70
     0
  9
$DIMALTD
 70
     2
  9
$DIMALTF
 40
25.399999999999999
  9
$DIMLFAC
 40
1.0
  9
$DIMTOFL
 70
     0
  9
$DIMTVP
 40
0.0
  9
$DIMTIX
 70
     0
  9
$DIMSOXD
 70
     0
  9
$DIMSAH
 70
     0
  9
$DIMBLK1
  1

  9
$DIMBLK2
  1

  9
$DIMSTYLE
  2
STANDARD
  9
$DIMCLRD
 70
     0
  9
$DIMCLRE
 70
     0
  9
$DIMCLRT
 70
     0
  9
$DIMTFAC
 40
1.0
  9
$DIMGAP
 40
0.09
  9
$LUNITS
 70
     2
  9
$LUPREC
 70
     4
  9
$SKETCHINC
 40
0.1
  9
$FILLETRAD
 40
0.0
  9
$AUNITS
 70
     0
  9
$AUPREC
 70
     0
  9
$MENU
  1
.
  9
$ELEVATION
 40
0.0
  9
$PELEVATION
 40
0.0
  9
$THICKNESS
 40
0.0
  9
$LIMCHECK
 70
     0
  9
$BLIPMODE
 70
     0
  9
$CHAMFERA
 40
0.0
  9
$CHAMFERB
 40
0.0
  9
$SKPOLY
 70
     0
  9
$TDCREATE
 40
2444972.375
  9
$TDUPDATE
 40
2457540.2469069562
  9
$TDINDWG
 40
0.0000359028
  9
$TDUSRTIMER
 40
0.0000359028
  9
$USRTIMER
 70
     1
  9
$ANGBASE
 50
0.0
  9
$ANGDIR
 70
     0
  9
$PDMODE
 70
     0
  9
$PDSIZE
 40
0.0
  9
$PLINEWID
 40
0.0
  9
$COORDS
 70
     1
  9
$SPLFRAME
 70
     0
  9
$SPLINETYPE
 70
     6
  9
$SPLINESEGS
 70
     8
  9
$ATTDIA
 70
     1
  9
$ATTREQ
 70
     1
  9
$HANDLING
 70
     1
  9
$HANDSEED
  5
28B
  9
$SURFTAB1
 70
     6
  9
$SURFTAB2
 70
     6
  9
$SURFTYPE
 70
     6
  9
$SURFU
 70
     6
  9
$SURFV
 70
     6
  9
$UCSNAME
  2

  9
$UCSORG
 10
0.0
 20
0.0
 30
0.0
  9
$UCSXDIR
 10
1.0
 20
0.0
 30
0.0
  9
$UCSYDIR
 10
0.0
 20
1.0
 30
0.0
  9
$PUCSNAME
  2

  9
$PUCSORG
 10
0.0
 20
0.0
 30
0.0
  9
$PUCSXDIR
 10
1.0
 20
0.0
 30
0.0
  9
$PUCSYDIR
 10
0.0
 20
1.0
 30
0.0
  9
$USERI1
 70
     0
  9
$USERI2
 70
     0
  9
$USERI3
 70
     0
  9
$USERI4
 70
     0
  9
$USERI5
 70
     0
  9
$USERR1
 40
0.0
  9
$USERR2
 40
0.0
  9
$USERR3
 40
0.0
  9
$USERR4
 40
0.0
  9
$USERR5
 40
0.0
  9
$WORLDVIEW
 70
     1
  9
$SHADEDGE
 70
     3
  9
$SHADEDIF
 70
    70
  9
$TILEMODE
 70
     1
  9
$MAXACTVP
 70
    48
  9
$PLIMCHECK
 70
     0
  9
$PEXTMIN
 10
1.0000000000000000E+020
 20
1.0000000000000000E+020
 30
1.0000000000000000E+020
  9
$PEXTMAX
 10
-1.0000000000000000E+020
 20
-1.0000000000000000E+020
 30
-1.0000000000000000E+020
  9
$PLIMMIN
 10
0.0
 20
0.0
  9
$PLIMMAX
 10
12.0
 20
9.0
  9
$UNITMODE
 70
     0
  9
$VISRETAIN
 70
     1
  9
$PLINEGEN
 70
     0
  9
$PSLTSCALE
 70
     1
  0
ENDSEC
  0
SECTION
  2
TABLES
  0
TABLE
  2
VPORT
 70
     1
  0
VPORT
  2
*ACTIVE
 70
     0
 10
0.0
 20
0.0
 11
1.0
 21
1.0
 12
156.29059996312719
 22
127.4298
 13
0.0
 23
0.0
 14
1.0
 24
1.0
 15
0.0
 25
0.0
 16
0.0
 26
0.0
 36
1.0
 17
0.0
 27
0.0
 37
0.0
 40
282.89992383679322
 41
2.0381526104417671
 42
50.0
 43
0.0
 44
0.0
 50
0.0
 51
0.0
 71
     0
 72
   100
 73
     1
 74
     1
 75
     0
 76
     0
 77
     0
 78
     0
  0
ENDTAB
  0
TABLE
  2
LTYPE
 70
     3
  0
LTYPE
  2
CONTINUOUS
 70
     0
  3
Solid line
 72
    65
 73
     0
 40
0.0
  0
LTYPE
  2
AIGENLINE001
 70
     0
  3
generate AI->DXF Converter
 72
    65
 73
     4
 40
5.8561449999999988
 49
3.5278
 49
-0.776115
 49
0.776115
 49
-0.776115
  0
LTYPE
  2
AIGENLINE002
 70
     0
  3
generate AI->DXF Converter
 72
    65
 73
     6
 40
7.4083750000000004
 49
3.5278
 49
-0.776115
 49
0.776115
 49
-0.776115
 49
0.776115
 49
-0.776115
  0
ENDTAB
  0
TABLE
  2
LAYER
 70
     2
  0
LAYER
  2
0
 70
     0
 62
     7
  6
CONTINUOUS
  0
LAYER
  2
_________2
 70
     0
 62
     7
  6
CONTINUOUS
  0
ENDTAB
  0
TABLE
  2
STYLE
 70
     1
  0
STYLE
  2
STANDARD
 70
     0
 40
0.0
 41
0.0
 50
0.0
 71
     0
 42
0.0
  3
TXT
  4
EXTFONT.SHX
  0
ENDTAB
  0
TABLE
  2
VIEW
 70
     0
  0
ENDTAB
  0
TABLE
  2
UCS
 70
     0
  0
ENDTAB
  0
TABLE
  2
APPID
 70
     3
  0
APPID
  2
ACAD
 70
     0
  0
APPID
  2
ACAD_NAV_VCDISPLAY
 70
     0
  0
APPID
  2
ACAD_MLEADERVER
 70
     0
  0
ENDTAB
  0
TABLE
  2
DIMSTYLE
 70
     1
  0
DIMSTYLE
  2
STANDARD
 70
     0
  3

  4

  5

  6

  7

 40
1.0
 41
0.18
 42
0.0625
 43
0.38
 44
0.18
 45
0.0
 46
0.0
 47
0.0
 48
0.0
140
0.18
141
0.09
142
0.0
143
25.399999999999999
144
1.0
145
0.0
146
1.0
147
0.09
 71
     0
 72
     0
 73
     1
 74
     1
 75
     0
 76
     0
 77
     0
 78
     0
170
     0
171
     2
172
     0
173
     0
174
     0
175
     0
176
     0
177
     0
178
     0
  0
ENDTAB
  0
ENDSEC
  0
SECTION
  2
BLOCKS
  0
BLOCK
  8
0
  2
$MODEL_SPACE
 70
     0
 10
0.0
 20
0.0
 30
0.0
  3
$MODEL_SPACE
  1

  0
ENDBLK
  5
1A
  8
0
  0
BLOCK
 67
     1
  8
0
  2
$PAPER_SPACE
 70
     0
 10
0.0
 20
0.0
 30
0.0
  3
$PAPER_SPACE
  1

  0
ENDBLK
  5
17
 67
     1
  8
0
  0
ENDSEC
  0
SECTION
  2
ENTITIES
  0
LINE
  5
23
  8
0
 62
     7
 10
125.96599999999999
 20
229.078
 30
0.0
 11
150.54499999999999
 21
229.078
 31
0.0
  0
TEXT
  5
24
  8
0
 62
     7
 10
175.92500000000001
 20
180.51660999999999
 30
0.0
 40
3.0923400000000001
  1
C
 50
90.0
 41
0.5
 72
     1
 11
175.92500000000001
 21
181.03200000000001
 31
0.0
  0
TEXT
  5
25
  8
0
 62
     7
 10
164.916
 20
181.81713500000001
 30
0.0
 40
3.0923400000000001
  1
215
 50
90.0
 41
0.5
 72
     1
 11
164.916
 21
183.62100000000001
 31
0.0
  0
TEXT
  5
26
  8
0
 62
     7
 10
164.816
 20
199.63037249999999
 30
0.0
 40
3.0923400000000001
  1
20
 50
90.0
 41
0.5
 72
     1
 11
164.816
 21
200.78999999999999
 31
0.0
  0
TEXT
  5
27
  8
0
 62
     7
 10
116.80500000000001
 20
178.26660999999999
 30
0.0
 40
3.0923400000000001
  1
B
 50
90.0
 41
0.5
 72
     1
 11
116.80500000000001
 21
178.78200000000001
 31
0.0
  0
TEXT
  5
28
  8
0
 62
     7
 10
145.19128749999999
 20
202.27199999999999
 30
0.0
 40
3.0923400000000001
  1
230
 41
0.5
 72
     1
 11
147.124
 21
202.27199999999999
 31
0.0
  0
TEXT
  5
29
  8
0
 62
     7
 10
146.78861000000001
 20
154.60400000000001
 30
0.0
 40
3.0923400000000001
  1
A
 41
0.5
 72
     1
 11
147.304
 21
154.60400000000001
 31
0.0
  0
TEXT
  5
2A
  8
0
 62
     7
 10
122.03100000000001
 20
221.74100000000001
 30
0.0
 40
3.0923400000000001
  1
注）A.B.C寸法は洗面器現品を
 41
0.5
  0
TEXT
  5
2B
  8
0
 62
     7
 10
122.03100000000001
 20
217.875
 30
0.0
 40
3.0923400000000001
  1
　  測定して穴あけしてください。
 41
0.5
  0
TEXT
  5
2C
  8
0
 62
     7
 10
130.11575999999999
 20
230.29400000000001
 30
0.0
 40
3.0923400000000001
  1
カウンター開口寸法
 41
0.5
 72
     1
 11
138.36199999999999
 21
230.29400000000001
 31
0.0
  0
TEXT
  5
2D
  8
0
 62
     7
 10
119.443646
 20
200.41800000000001
 30
0.0
 40
3.0923400000000001
  1
洗面器端面
 41
0.5
 72
     1
 11
123.876
 21
200.41800000000001
 31
0.0
  0
TEXT
  5
2E
  8
0
 62
     7
 10
140.6620390621992
 20
178.34803906219921
 30
0.0
 40
3.0923400000000001
  1
R115
 50
45.0
 41
0.5
 72
     1
 11
142.30199999999999
 21
179.988
 31
0.0
  0
TEXT
  5
2F
  8
0
 62
     7
 10
133.82481250000001
 20
166.65899999999999
 30
0.0
 40
3.0923400000000001
  1
2-%%c10
 41
0.5
 72
     1
 11
137.04599999999999
 21
166.65899999999999
 31
0.0
  0
TEXT
  5
30
  8
0
 62
     7
 10
165.941
 20
96.255182500000004
 30
0.0
 40
3.0923400000000001
  1
130
 50
90.0
 41
0.5
 72
     1
 11
165.941
 21
97.930199999999999
 31
0.0
  0
TEXT
  5
31
  8
0
 62
     7
 10
172.148
 20
95.255082499999986
 30
0.0
 40
3.0923400000000001
  1
150
 50
90.0
 41
0.5
 72
     1
 11
172.148
 21
96.93010000000001
 31
0.0
  0
TEXT
  5
32
  8
0
 62
     7
 10
32.2286
 20
77.683222499999999
 30
0.0
 40
3.0923400000000001
  1
max.30
 50
90.0
 41
0.5
 72
     1
 11
32.2286
 21
81.419799999999995
 31
0.0
  0
TEXT
  5
33
  8
0
 62
     7
 10
31.9283
 20
96.120182499999999
 30
0.0
 40
3.0923400000000001
  1
130
 50
90.0
 41
0.5
 72
     1
 11
31.9283
 21
97.795199999999994
 31
0.0
  0
TEXT
  5
34
  8
0
 62
     7
 10
59.320399999999999
 20
187.79283000000001
 30
0.0
 40
3.0923400000000001
  1
100
 50
90.0
 41
0.5
 72
     1
 11
59.320399999999999
 21
189.339
 31
0.0
  0
TEXT
  5
35
  8
0
 62
     7
 10
34.291699999999999
 20
152.55652499999999
 30
0.0
 40
3.0923400000000001
  1
35
 50
90.0
 41
0.5
 72
     1
 11
34.291699999999999
 21
153.845
 31
0.0
  0
TEXT
  5
36
  8
0
 62
     7
 10
34.291699999999999
 20
199.789525
 30
0.0
 40
3.0923400000000001
  1
35
 50
90.0
 41
0.5
 72
     1
 11
34.291699999999999
 21
201.078
 31
0.0
  0
TEXT
  5
37
  8
0
 62
     7
 10
26.6099
 20
175.0212875
 30
0.0
 40
3.0923400000000001
  1
380
 50
90.0
 41
0.5
 72
     1
 11
26.6099
 21
176.95400000000001
 31
0.0
  0
TEXT
  5
38
  8
0
 62
     7
 10
34.291699999999999
 20
175.27898250000001
 30
0.0
 40
3.0923400000000001
  1
310
 50
90.0
 41
0.5
 72
     1
 11
34.291699999999999
 21
176.95400000000001
 31
0.0
  0
TEXT
  5
39
  8
0
 62
     7
 10
56.24013999999999
 20
178.64400000000001
 30
0.0
 40
3.0923400000000001
  1
%%c46
 41
0.5
 72
     1
 11
58.30169999999999
 21
178.64400000000001
 31
0.0
  0
TEXT
  5
3A
  8
0
 62
     7
 10
153.88482999999999
 20
83.157899999999984
 30
0.0
 40
3.0923400000000001
  1
100
 41
0.5
 72
     1
 11
155.43100000000001
 21
83.157899999999984
 31
0.0
  0
TEXT
  5
3B
  8
0
 62
     7
 10
139.89028749999991
 20
116.068
 30
0.0
 40
3.0923400000000001
  1
380
 41
0.5
 72
     1
 11
141.82300000000001
 21
116.068
 31
0.0
  0
TEXT
  5
3C
  8
0
 62
     7
 10
37.293725000000002
 20
152.024
 30
0.0
 40
3.0923400000000001
  1
35
 41
0.5
 72
     1
 11
38.5822
 21
152.024
 31
0.0
  0
TEXT
  5
3D
  8
0
 62
     7
 10
105.495525
 20
152.024
 30
0.0
 40
3.0923400000000001
  1
35
 41
0.5
 72
     1
 11
106.78400000000001
 21
152.024
 31
0.0
  0
TEXT
  5
3E
  8
0
 62
     7
 10
70.147435000000002
 20
145.35599999999999
 30
0.0
 40
3.0923400000000001
  1
600
 41
0.5
 72
     1
 11
71.951300000000003
 21
145.35599999999999
 31
0.0
  0
TEXT
  5
3F
  8
0
 62
     7
 10
70.01858750000001
 20
152.024
 30
0.0
 40
3.0923400000000001
  1
530
 41
0.5
 72
     1
 11
71.951300000000003
 21
152.024
 31
0.0
  0
ARC
  5
40
  8
0
 62
     7
 10
155.80404999999999
 20
191.28169500000001
 30
0.0
 40
3.000008999999999
 50
0.00001
 51
89.999980000000008
  0
ARC
  5
41
  8
0
 62
     7
 10
138.803775
 20
191.28169500000001
 30
0.0
 40
3.000008999999999
 50
90.0
 51
179.99996999999999
  0
LINE
  5
42
  8
0
 62
     7
 10
138.01400000000001
 20
202.08099999999999
 30
0.0
 11
135.804
 21
201.489
 31
0.0
  0
LINE
  5
43
  8
0
 62
     7
 10
135.804
 20
201.489
 30
0.0
 11
138.01400000000001
 21
200.89599999999999
 31
0.0
  0
LINE
  5
44
  8
0
 62
     7
 10
138.01400000000001
 20
200.89599999999999
 30
0.0
 11
138.01400000000001
 21
202.08099999999999
 31
0.0
  0
LINE
  5
45
  8
0
 62
     7
 10
156.5929999999999
 20
200.911
 30
0.0
 11
158.804
 21
201.50299999999999
 31
0.0
  0
LINE
  5
46
  8
0
 62
     7
 10
158.804
 20
201.50299999999999
 30
0.0
 11
156.5929999999999
 21
202.096
 31
0.0
  0
LINE
  5
47
  8
0
 62
     7
 10
156.5929999999999
 20
202.096
 30
0.0
 11
156.5929999999999
 21
200.911
 31
0.0
  0
LINE
  5
48
  8
0
 62
     7
 10
135.804
 20
201.49600000000001
 30
0.0
 11
158.804
 21
201.49600000000001
 31
0.0
  0
ARC
  5
49
  8
0
 62
     7
 10
147.30391
 20
184.281736
 30
0.0
 40
11.500147999999999
 50
270.00002000000001
 51
359.99999000000003
  0
ARC
  5
4A
  8
0
 62
     7
 10
147.30391
 20
184.28173200000001
 30
0.0
 40
11.500144000000001
 50
179.99996999999999
 51
270.00002000000001
  0
LINE
  5
4B
  8
0
 62
     7
 10
122.13200000000001
 20
199.161
 30
0.0
 11
123.794
 21
196.28200000000001
 31
0.0
  0
LINE
  5
4C
  8
0
 62
     7
 10
123.794
 20
196.28200000000001
 30
0.0
 11
125.456
 21
199.161
 31
0.0
  0
LINE
  5
4D
  8
0
 62
     7
 10
125.456
 20
199.161
 30
0.0
 11
122.13200000000001
 21
199.161
 31
0.0
  0
ARC
  5
4E
  8
0
 62
     7
 10
167.284707
 20
161.30092500000001
 30
0.0
 40
0.5197350000000001
 50
272.14903099999998
 51
357.87071900000001
  0
ARC
  5
4F
  8
0
 62
     7
 10
167.32351299999999
 20
161.30075199999999
 30
0.0
 40
0.5195560000000001
 50
182.11097599999991
 51
267.86931299999998
  0
ARC
  5
50
  8
0
 62
     7
 10
167.32368600000001
 20
161.262304
 30
0.0
 40
0.5197350000000001
 50
92.149011000000002
 51
177.870699
  0
ARC
  5
51
  8
0
 62
     7
 10
167.28487899999999
 20
161.26247699999999
 30
0.0
 40
0.5195560000000001
 50
2.1109740000000001
 51
87.869275999999999
  0
LINE
  5
52
  8
0
 62
     7
 10
167.304
 20
153.07300000000001
 30
0.0
 11
167.304
 21
158.93899999999999
 31
0.0
  0
LINE
  5
53
  8
0
 62
     7
 10
127.304
 20
153.07300000000001
 30
0.0
 11
127.304
 21
158.93899999999999
 31
0.0
  0
LINE
  5
54
  8
0
  6
AIGENLINE001
 62
     7
 10
167.304
 20
159.46799999999999
 30
0.0
 11
167.304
 21
163.084
 31
0.0
  0
LINE
  5
55
  8
0
  6
AIGENLINE001
 62
     7
 10
165.55000000000001
 20
161.28200000000001
 30
0.0
 11
169.34200000000001
 21
161.28200000000001
 31
0.0
  0
ARC
  5
56
  8
0
 62
     7
 10
127.28448400000001
 20
161.30092500000001
 30
0.0
 40
0.5197350000000001
 50
272.14903099999998
 51
357.87071900000001
  0
ARC
  5
57
  8
0
 62
     7
 10
127.32329
 20
161.30075199999999
 30
0.0
 40
0.5195560000000001
 50
182.11097599999991
 51
267.86931299999998
  0
ARC
  5
58
  8
0
 62
     7
 10
127.323463
 20
161.262304
 30
0.0
 40
0.5197350000000001
 50
92.149011000000002
 51
177.870699
  0
ARC
  5
59
  8
0
 62
     7
 10
127.284656
 20
161.26247699999999
 30
0.0
 40
0.5195560000000001
 50
2.1109740000000001
 51
87.869275999999999
  0
LINE
  5
5A
  8
0
  6
AIGENLINE001
 62
     7
 10
147.304
 20
170.68700000000001
 30
0.0
 11
147.304
 21
197.61500000000001
 31
0.0
  0
LINE
  5
5B
  8
0
  6
AIGENLINE001
 62
     7
 10
127.304
 20
159.46799999999999
 30
0.0
 11
127.304
 21
163.084
 31
0.0
  0
LINE
  5
5C
  8
0
  6
AIGENLINE002
 62
     7
 10
116.411
 20
196.28200000000001
 30
0.0
 11
177.51599999999999
 21
196.28200000000001
 31
0.0
  0
LINE
  5
5D
  8
0
 62
     7
 10
128.80199999999999
 20
163.61699999999999
 30
0.0
 11
127.657
 21
161.63499999999999
 31
0.0
  0
LINE
  5
5E
  8
0
 62
     7
 10
127.657
 20
161.63499999999999
 30
0.0
 11
129.63900000000001
 21
162.78
 31
0.0
  0
LINE
  5
5F
  8
0
 62
     7
 10
129.63900000000001
 20
162.78
 30
0.0
 11
128.80199999999999
 21
163.61699999999999
 31
0.0
  0
LINE
  5
60
  8
0
 62
     7
 10
127.657
 20
161.63499999999999
 30
0.0
 11
131.46100000000001
 21
165.43899999999999
 31
0.0
  0
LINE
  5
61
  8
0
 62
     7
 10
176.11600000000001
 20
163.49199999999999
 30
0.0
 11
176.708
 21
161.28200000000001
 31
0.0
  0
LINE
  5
62
  8
0
 62
     7
 10
176.708
 20
161.28200000000001
 30
0.0
 11
177.30099999999999
 21
163.49199999999999
 31
0.0
  0
LINE
  5
63
  8
0
 62
     7
 10
177.30099999999999
 20
163.49199999999999
 30
0.0
 11
176.11600000000001
 21
163.49199999999999
 31
0.0
  0
LINE
  5
64
  8
0
 62
     7
 10
177.28599999999989
 20
194.071
 30
0.0
 11
176.69399999999999
 21
196.28200000000001
 31
0.0
  0
LINE
  5
65
  8
0
 62
     7
 10
176.69399999999999
 20
196.28200000000001
 30
0.0
 11
176.102
 21
194.071
 31
0.0
  0
LINE
  5
66
  8
0
 62
     7
 10
176.102
 20
194.071
 30
0.0
 11
177.28599999999989
 21
194.071
 31
0.0
  0
LINE
  5
67
  8
0
 62
     7
 10
176.70099999999999
 20
161.28200000000001
 30
0.0
 11
176.70099999999999
 21
196.28200000000001
 31
0.0
  0
LINE
  5
68
  8
0
 62
     7
 10
177.6329999999999
 20
161.28200000000001
 30
0.0
 11
169.89599999999999
 21
161.28200000000001
 31
0.0
  0
LINE
  5
69
  8
0
 62
     7
 10
116.877
 20
163.49199999999999
 30
0.0
 11
117.46899999999999
 21
161.28200000000001
 31
0.0
  0
LINE
  5
6A
  8
0
 62
     7
 10
117.46899999999999
 20
161.28200000000001
 30
0.0
 11
118.06100000000001
 21
163.49199999999999
 31
0.0
  0
LINE
  5
6B
  8
0
 62
     7
 10
118.06100000000001
 20
163.49199999999999
 30
0.0
 11
116.877
 21
163.49199999999999
 31
0.0
  0
LINE
  5
6C
  8
0
 62
     7
 10
118.047
 20
194.071
 30
0.0
 11
117.45399999999999
 21
196.28200000000001
 31
0.0
  0
LINE
  5
6D
  8
0
 62
     7
 10
117.45399999999999
 20
196.28200000000001
 30
0.0
 11
116.86199999999999
 21
194.071
 31
0.0
  0
LINE
  5
6E
  8
0
 62
     7
 10
116.86199999999999
 20
194.071
 30
0.0
 11
118.047
 21
194.071
 31
0.0
  0
LINE
  5
6F
  8
0
 62
     7
 10
117.462
 20
161.28200000000001
 30
0.0
 11
117.462
 21
196.28200000000001
 31
0.0
  0
LINE
  5
70
  8
0
 62
     7
 10
165.03399999999999
 20
174.99199999999999
 30
0.0
 11
165.626
 21
172.78200000000001
 31
0.0
  0
LINE
  5
71
  8
0
 62
     7
 10
165.626
 20
172.78200000000001
 30
0.0
 11
166.21799999999999
 21
174.99199999999999
 31
0.0
  0
LINE
  5
72
  8
0
 62
     7
 10
166.21799999999999
 20
174.99199999999999
 30
0.0
 11
165.03399999999999
 21
174.99199999999999
 31
0.0
  0
LINE
  5
73
  8
0
 62
     7
 10
165.03399999999999
 20
198.49199999999999
 30
0.0
 11
165.626
 21
196.28200000000001
 31
0.0
  0
LINE
  5
74
  8
0
 62
     7
 10
165.626
 20
196.28200000000001
 30
0.0
 11
166.21799999999999
 21
198.49199999999999
 31
0.0
  0
LINE
  5
75
  8
0
 62
     7
 10
166.21799999999999
 20
198.49199999999999
 30
0.0
 11
165.03399999999999
 21
198.49199999999999
 31
0.0
  0
LINE
  5
76
  8
0
 62
     7
 10
166.20400000000001
 20
192.071
 30
0.0
 11
165.61199999999999
 21
194.28200000000001
 31
0.0
  0
LINE
  5
77
  8
0
 62
     7
 10
165.61199999999999
 20
194.28200000000001
 30
0.0
 11
165.01900000000001
 21
192.071
 31
0.0
  0
LINE
  5
78
  8
0
 62
     7
 10
165.01900000000001
 20
192.071
 30
0.0
 11
166.20400000000001
 21
192.071
 31
0.0
  0
LINE
  5
79
  8
0
 62
     7
 10
165.619
 20
172.78200000000001
 30
0.0
 11
165.619
 21
202.715
 31
0.0
  0
LINE
  5
7A
  8
0
 62
     7
 10
129.51499999999999
 20
154.596
 30
0.0
 11
127.304
 21
154.00399999999999
 31
0.0
  0
LINE
  5
7B
  8
0
 62
     7
 10
127.304
 20
154.00399999999999
 30
0.0
 11
129.51499999999999
 21
153.411
 31
0.0
  0
LINE
  5
7C
  8
0
 62
     7
 10
129.51499999999999
 20
153.411
 30
0.0
 11
129.51499999999999
 21
154.596
 31
0.0
  0
LINE
  5
7D
  8
0
 62
     7
 10
165.09299999999999
 20
153.42599999999999
 30
0.0
 11
167.304
 21
154.018
 31
0.0
  0
LINE
  5
7E
  8
0
 62
     7
 10
167.304
 20
154.018
 30
0.0
 11
165.09299999999999
 21
154.61000000000001
 31
0.0
  0
LINE
  5
7F
  8
0
 62
     7
 10
165.09299999999999
 20
154.61000000000001
 30
0.0
 11
165.09299999999999
 21
153.42599999999999
 31
0.0
  0
LINE
  5
80
  8
0
 62
     7
 10
127.304
 20
154.011
 30
0.0
 11
167.304
 21
154.011
 31
0.0
  0
LINE
  5
81
  8
0
 62
     7
 10
131.46100000000001
 20
165.43899999999999
 30
0.0
 11
142.047
 21
165.43899999999999
 31
0.0
  0
LINE
  5
82
  8
0
 62
     7
 10
157.87299999999999
 20
194.28200000000001
 30
0.0
 11
166.453
 21
194.28200000000001
 31
0.0
  0
LINE
  5
83
  8
0
 62
     7
 10
140.49100000000001
 20
177.94399999999999
 30
0.0
 11
139.40199999999999
 21
175.93100000000001
 31
0.0
  0
LINE
  5
84
  8
0
 62
     7
 10
139.40199999999999
 20
175.93100000000001
 30
0.0
 11
141.351
 21
177.12899999999999
 31
0.0
  0
LINE
  5
85
  8
0
 62
     7
 10
141.351
 20
177.12899999999999
 30
0.0
 11
140.49100000000001
 21
177.94399999999999
 31
0.0
  0
LINE
  5
86
  8
0
 62
     7
 10
147.304
 20
184.28200000000001
 30
0.0
 11
139.40199999999999
 21
175.93100000000001
 31
0.0
  0
LINE
  5
87
  8
0
  6
AIGENLINE001
 62
     7
 10
134.233
 20
184.28200000000001
 30
0.0
 11
160.50800000000001
 21
184.28200000000001
 31
0.0
  0
LINE
  5
88
  8
0
 62
     7
 10
151.41999999999999
 20
172.78200000000001
 30
0.0
 11
166.512
 21
172.78200000000001
 31
0.0
  0
LINE
  5
89
  8
0
 62
     7
 10
138.804
 20
194.28200000000001
 30
0.0
 11
155.804
 21
194.28200000000001
 31
0.0
  0
LINE
  5
8A
  8
0
 62
     7
 10
116.52800000000001
 20
161.28200000000001
 30
0.0
 11
124.79900000000001
 21
161.28200000000001
 31
0.0
  0
LINE
  5
8B
  8
0
  6
AIGENLINE001
 62
     7
 10
125.54900000000001
 20
161.28200000000001
 30
0.0
 11
129.34200000000001
 21
161.28200000000001
 31
0.0
  0
LINE
  5
8C
  8
0
 62
     7
 10
150.70599999999999
 20
87.731999999999999
 30
0.0
 11
150.70599999999999
 21
81.740200000000002
 31
0.0
  0
LINE
  5
8D
  8
0
 62
     7
 10
155.81200000000001
 20
92.852800000000002
 30
0.0
 11
157.21899999999999
 21
103.901
 31
0.0
  0
LINE
  5
8E
  8
0
 62
     7
 10
155.26599999999999
 20
92.185800000000015
 30
0.0
 11
154.66900000000001
 21
91.982600000000005
 31
0.0
  0
ARC
  5
8F
  8
0
 62
     7
 10
154.98794799999999
 20
92.970272999999992
 30
0.0
 40
0.832357
 50
289.53454099999999
 51
351.88665400000002
  0
LINE
  5
90
  8
0
 62
     7
 10
159.94399999999999
 20
92.879699999999985
 30
0.0
 11
159.94399999999999
 21
103.012
 31
0.0
  0
LINE
  5
91
  8
0
 62
     7
 10
159.679
 20
92.615799999999993
 30
0.0
 11
157.83600000000001
 21
92.615799999999993
 31
0.0
  0
ARC
  5
92
  8
0
 62
     7
 10
159.66938400000001
 20
92.890467000000001
 30
0.0
 40
0.274875
 50
272.10124200000001
 51
357.74936500000001
  0
LINE
  5
93
  8
0
 62
     7
 10
156.839
 20
92.529599999999988
 30
0.0
 11
157.471
 21
92.596500000000006
 31
0.0
  0
ARC
  5
94
  8
0
 62
     7
 10
157.83425299999999
 20
89.189098999999999
 30
0.0
 40
3.426677999999999
 50
89.976865000000004
 51
96.082797000000014
  0
LINE
  5
95
  8
0
 62
     7
 10
156.619
 20
92.753600000000006
 30
0.0
 11
157.92699999999999
 21
103.01900000000001
 31
0.0
  0
ARC
  5
96
  8
0
 62
     7
 10
156.82606899999999
 20
92.735523999999984
 30
0.0
 40
0.208034
 50
175.02039300000001
 51
260.50886800000001
  0
LINE
  5
97
  8
0
 62
     7
 10
156.792
 20
92.530299999999997
 30
0.0
 11
156.839
 21
92.529599999999988
 31
0.0
  0
ARC
  5
98
  8
0
 62
     7
 10
157.85968600000001
 20
103.778437
 30
0.0
 40
0.6522680000000002
 50
91.568038999999985
 51
169.20514600000001
  0
LINE
  5
99
  8
0
 62
     7
 10
159.327
 20
103.628
 30
0.0
 11
158.643
 21
103.628
 31
0.0
  0
ARC
  5
9A
  8
0
 62
     7
 10
158.663129
 20
102.87889
 30
0.0
 40
0.749814
 50
91.525215000000003
 51
169.20383000000001
  0
ARC
  5
9B
  8
0
 62
     7
 10
159.30349100000001
 20
102.987882
 30
0.0
 40
0.6410020000000002
 50
2.1350669999999989
 51
87.864923000000005
  0
LINE
  5
9C
  8
0
 62
     7
 10
148.34
 20
91.027600000000007
 30
0.0
 11
153.154
 21
91.027600000000007
 31
0.0
  0
LINE
  5
9D
  8
0
 62
     7
 10
153.19900000000001
 20
91.060699999999997
 30
0.0
 11
154.47900000000001
 21
91.890199999999993
 31
0.0
  0
LINE
  5
9E
  8
0
 62
     7
 10
153.006
 20
89.430400000000006
 30
0.0
 11
153.006
 21
90.705799999999996
 31
0.0
  0
ARC
  5
9F
  8
0
 62
     7
 10
153.43378000000001
 20
90.702866000000014
 30
0.0
 40
0.428208
 50
123.328101
 51
179.60695899999999
  0
ARC
  5
A0
  8
0
 62
     7
 10
154.94798499999999
 20
91.165687000000005
 30
0.0
 40
0.863241
 50
108.86367199999999
 51
122.93012
  0
LINE
  5
A1
  8
0
  6
AIGENLINE001
 62
     7
 10
125.705
 20
93.208999999999989
 30
0.0
 11
125.705
 21
86.056299999999993
 31
0.0
  0
LINE
  5
A2
  8
0
 62
     7
 10
127.492
 20
93.101500000000001
 30
0.0
 11
127.352
 21
92.875500000000017
 31
0.0
  0
LINE
  5
A3
  8
0
 62
     7
 10
125.34699999999999
 20
92.481399999999994
 30
0.0
 11
126.64700000000001
 21
92.481399999999994
 31
0.0
  0
ARC
  5
A4
  8
0
 62
     7
 10
126.637424
 20
93.325901999999999
 30
0.0
 40
0.8445389999999999
 50
270.64894099999998
 51
327.77365700000001
  0
LINE
  5
A5
  8
0
 62
     7
 10
125.066
 20
92.3643
 30
0.0
 11
125.17700000000001
 21
92.433199999999999
 31
0.0
  0
ARC
  5
A6
  8
0
 62
     7
 10
125.34719800000001
 20
92.158073999999999
 30
0.0
 40
0.323343
 50
90.070168999999993
 51
121.697515
  0
LINE
  5
A7
  8
0
 62
     7
 10
123.729
 20
92.311899999999994
 30
0.0
 11
124.883
 21
92.311899999999994
 31
0.0
  0
ARC
  5
A8
  8
0
 62
     7
 10
124.88243300000001
 20
92.658722999999995
 30
0.0
 40
0.346807
 50
270.10850799999997
 51
301.89649200000002
  0
LINE
  5
A9
  8
0
 62
     7
 10
123.467
 20
92.573699999999988
 30
0.0
 11
123.467
 21
103.012
 31
0.0
  0
ARC
  5
AA
  8
0
 62
     7
 10
123.73900999999999
 20
92.583780999999988
 30
0.0
 40
0.272049
 50
182.113876
 51
267.88615399999998
  0
LINE
  5
AB
  8
0
 62
     7
 10
125.88800000000001
 20
91.663499999999985
 30
0.0
 11
127.298
 21
91.663499999999985
 31
0.0
  0
LINE
  5
AC
  8
0
 62
     7
 10
125.68899999999999
 20
91.430000000000007
 30
0.0
 11
125.75
 21
91.572599999999994
 31
0.0
  0
ARC
  5
AD
  8
0
 62
     7
 10
125.889852
 20
91.510390000000001
 30
0.0
 40
0.153172
 50
90.810622999999993
 51
156.038972
  0
LINE
  5
AE
  8
0
 62
     7
 10
128.071
 20
92.410399999999996
 30
0.0
 11
127.864
 21
92.008099999999999
 31
0.0
  0
ARC
  5
AF
  8
0
 62
     7
 10
127.28993199999999
 20
92.313670999999985
 30
0.0
 40
0.650176
 50
270.72126600000001
 51
331.96269700000011
  0
LINE
  5
B0
  8
0
 62
     7
 10
128.96799999999999
 20
92.894099999999995
 30
0.0
 11
146.13999999999999
 21
91.091000000000008
 31
0.0
  0
ARC
  5
B1
  8
0
 62
     7
 10
128.88536300000001
 20
91.974083999999976
 30
0.0
 40
0.923727
 50
84.891052999999999
 51
151.81018299999999
  0
LINE
  5
B2
  8
0
 62
     7
 10
127.771
 20
93.3613
 30
0.0
 11
128.059
 21
93.512200000000007
 31
0.0
  0
ARC
  5
B3
  8
0
 62
     7
 10
128.099524
 20
92.728375999999997
 30
0.0
 40
0.713204
 50
117.447112
 51
148.45158900000001
  0
LINE
  5
B4
  8
0
 62
     7
 10
128.06399999999999
 20
94.139899999999997
 30
0.0
 11
127.836
 21
94.263199999999998
 31
0.0
  0
ARC
  5
B5
  8
0
 62
     7
 10
127.8869
 20
93.832886000000002
 30
0.0
 40
0.364182
 50
298.288006
 51
359.08643999999998
  0
ARC
  5
B6
  8
0
 62
     7
 10
127.88854499999999
 20
93.822840999999997
 30
0.0
 40
0.362515
 50
0.6699130000000001
 51
60.99741199999999
  0
LINE
  5
B7
  8
0
 62
     7
 10
126.64100000000001
 20
95.942400000000006
 30
0.0
 11
125.485
 21
103.01900000000001
 31
0.0
  0
ARC
  5
B8
  8
0
 62
     7
 10
128.98048600000001
 20
96.342026000000004
 30
0.0
 40
2.3729049999999989
 50
189.69598899999991
 51
241.17007100000001
  0
LINE
  5
B9
  8
0
 62
     7
 10
128.488
 20
94.733800000000002
 30
0.0
 11
146.74199999999999
 21
91.856499999999997
 31
0.0
  0
LINE
  5
BA
  8
0
 62
     7
 10
127.536
 20
95.681200000000004
 30
0.0
 11
126.19199999999999
 21
103.901
 31
0.0
  0
ARC
  5
BB
  8
0
 62
     7
 10
128.69394700000001
 20
95.893167000000005
 30
0.0
 40
1.177471999999999
 50
190.40288199999989
 51
259.929778
  0
LINE
  5
BC
  8
0
 62
     7
 10
125.569
 20
104.43000000000001
 30
0.0
 11
160.20599999999999
 21
104.43000000000001
 31
0.0
  0
LINE
  5
BD
  8
0
 62
     7
 10
123.205
 20
104.43000000000001
 30
0.0
 11
125.569
 21
104.43000000000001
 31
0.0
  0
ARC
  5
BE
  8
0
 62
     7
 10
125.55038
 20
103.77708699999999
 30
0.0
 40
0.6536310000000001
 50
10.892607
 51
88.396688999999995
  0
LINE
  5
BF
  8
0
 62
     7
 10
124.084
 20
103.628
 30
0.0
 11
124.768
 21
103.628
 31
0.0
  0
ARC
  5
C0
  8
0
 62
     7
 10
124.7468149999999
 20
102.87742
 30
0.0
 40
0.7513180000000002
 50
10.88841
 51
88.382506000000006
  0
ARC
  5
C1
  8
0
 62
     7
 10
124.107703
 20
102.987882
 30
0.0
 40
0.6410020000000002
 50
92.135057000000003
 51
177.864913
  0
LINE
  5
C2
  8
0
 62
     7
 10
122.705
 20
91.430000000000007
 30
0.0
 11
142.9129999999999
 21
91.430000000000007
 31
0.0
  0
LINE
  5
C3
  8
0
 62
     7
 10
159.036
 20
91.491299999999995
 30
0.0
 11
159.036
 21
91.430000000000007
 31
0.0
  0
LINE
  5
C4
  8
0
 62
     7
 10
158.96299999999999
 20
91.575999999999993
 30
0.0
 11
158.69800000000001
 21
91.613200000000006
 31
0.0
  0
ARC
  5
C5
  8
0
 62
     7
 10
158.94730799999999
 20
91.488776000000001
 30
0.0
 40
0.088642
 50
1.6254169999999999
 51
79.883352000000002
  0
LINE
  5
C6
  8
0
 62
     7
 10
156.04300000000001
 20
91.462400000000002
 30
0.0
 11
157.32300000000001
 21
91.623599999999996
 31
0.0
  0
ARC
  5
C7
  8
0
 62
     7
 10
157.97179299999999
 20
86.496555999999998
 30
0.0
 40
5.1679139999999988
 50
81.926354999999987
 51
97.212051000000002
  0
LINE
  5
C8
  8
0
 62
     7
 10
154.88
 20
90.887000000000015
 30
0.0
 11
155.58000000000001
 21
91.303200000000004
 31
0.0
  0
ARC
  5
C9
  8
0
 62
     7
 10
156.197664
 20
90.258756000000005
 30
0.0
 40
1.2135180000000001
 50
97.331997000000001
 51
120.608795
  0
LINE
  5
CA
  8
0
 62
     7
 10
154.70500000000001
 20
90.578999999999994
 30
0.0
 11
154.70500000000001
 21
89.579899999999995
 31
0.0
  0
ARC
  5
CB
  8
0
 62
     7
 10
155.07233500000001
 20
90.574241000000001
 30
0.0
 40
0.366964
 50
121.533429
 51
179.253232
  0
LINE
  5
CC
  8
0
 62
     7
 10
160.70500000000001
 20
91.430000000000007
 30
0.0
 11
155.87899999999999
 21
91.430000000000007
 31
0.0
  0
LINE
  5
CD
  8
0
 62
     7
 10
146.70500000000001
 20
89.579899999999995
 30
0.0
 11
146.70500000000001
 21
90.463300000000004
 31
0.0
  0
ARC
  5
CE
  8
0
 62
     7
 10
146.05211399999999
 20
90.443593000000007
 30
0.0
 40
0.653334
 50
1.725652
 51
82.255713
  0
LINE
  5
CF
  8
0
 62
     7
 10
148.40600000000001
 20
89.429699999999997
 30
0.0
 11
148.40600000000001
 21
90.841499999999996
 31
0.0
  0
LINE
  5
D0
  8
0
 62
     7
 10
147.02799999999999
 20
91.760000000000005
 30
0.0
 11
148.249
 21
91.104099999999988
 31
0.0
  0
ARC
  5
D1
  8
0
 62
     7
 10
148.101451
 20
90.837758999999991
 30
0.0
 40
0.304234
 50
0.712371
 51
61.082352000000007
  0
ARC
  5
D2
  8
0
 62
     7
 10
146.60440500000001
 20
90.974513999999999
 30
0.0
 40
0.892576
 50
61.646160000000002
 51
81.153693000000004
  0
LINE
  5
D3
  8
0
 62
     7
 10
158.495
 20
81.739500000000007
 30
0.0
 11
160.70500000000001
 21
82.331800000000001
 31
0.0
  0
LINE
  5
D4
  8
0
 62
     7
 10
160.70500000000001
 20
82.331800000000001
 30
0.0
 11
158.495
 21
82.923999999999978
 31
0.0
  0
LINE
  5
D5
  8
0
 62
     7
 10
158.495
 20
82.923999999999978
 30
0.0
 11
158.495
 21
81.739500000000007
 31
0.0
  0
LINE
  5
D6
  8
0
 62
     7
 10
152.916
 20
82.909499999999994
 30
0.0
 11
150.70599999999999
 21
82.317300000000003
 31
0.0
  0
LINE
  5
D7
  8
0
 62
     7
 10
150.70599999999999
 20
82.317300000000003
 30
0.0
 11
152.916
 21
81.725099999999998
 31
0.0
  0
LINE
  5
D8
  8
0
 62
     7
 10
152.916
 20
81.725099999999998
 30
0.0
 11
152.916
 21
82.909499999999994
 31
0.0
  0
LINE
  5
D9
  8
0
 62
     7
 10
160.70500000000001
 20
82.3245
 30
0.0
 11
150.70599999999999
 21
82.3245
 31
0.0
  0
LINE
  5
DA
  8
0
 62
     7
 10
160.70500000000001
 20
81.749200000000002
 30
0.0
 11
160.70500000000001
 21
90.982799999999997
 31
0.0
  0
LINE
  5
DB
  8
0
 62
     7
 10
173.696
 20
102.21899999999999
 30
0.0
 11
173.10400000000001
 21
104.43000000000001
 31
0.0
  0
LINE
  5
DC
  8
0
 62
     7
 10
173.10400000000001
 20
104.43000000000001
 30
0.0
 11
172.512
 21
102.21899999999999
 31
0.0
  0
LINE
  5
DD
  8
0
 62
     7
 10
172.512
 20
102.21899999999999
 30
0.0
 11
173.696
 21
102.21899999999999
 31
0.0
  0
LINE
  5
DE
  8
0
 62
     7
 10
172.52600000000001
 20
91.640500000000003
 30
0.0
 11
173.119
 21
89.429699999999997
 31
0.0
  0
LINE
  5
DF
  8
0
 62
     7
 10
173.119
 20
89.429699999999997
 30
0.0
 11
173.71100000000001
 21
91.640500000000003
 31
0.0
  0
LINE
  5
E0
  8
0
 62
     7
 10
173.71100000000001
 20
91.640500000000003
 30
0.0
 11
172.52600000000001
 21
91.640500000000003
 31
0.0
  0
LINE
  5
E1
  8
0
 62
     7
 10
173.11099999999999
 20
104.43000000000001
 30
0.0
 11
173.11099999999999
 21
89.429699999999997
 31
0.0
  0
LINE
  5
E2
  8
0
 62
     7
 10
167.179
 20
102.21899999999999
 30
0.0
 11
166.58699999999999
 21
104.43000000000001
 31
0.0
  0
LINE
  5
E3
  8
0
 62
     7
 10
166.58699999999999
 20
104.43000000000001
 30
0.0
 11
165.995
 21
102.21899999999999
 31
0.0
  0
LINE
  5
E4
  8
0
 62
     7
 10
165.995
 20
102.21899999999999
 30
0.0
 11
167.179
 21
102.21899999999999
 31
0.0
  0
LINE
  5
E5
  8
0
 62
     7
 10
166.00999999999999
 20
93.640699999999995
 30
0.0
 11
166.602
 21
91.430000000000007
 31
0.0
  0
LINE
  5
E6
  8
0
 62
     7
 10
166.602
 20
91.430000000000007
 30
0.0
 11
167.19399999999999
 21
93.640699999999995
 31
0.0
  0
LINE
  5
E7
  8
0
 62
     7
 10
167.19399999999999
 20
93.640699999999995
 30
0.0
 11
166.00999999999999
 21
93.640699999999995
 31
0.0
  0
LINE
  5
E8
  8
0
 62
     7
 10
166.595
 20
104.43000000000001
 30
0.0
 11
166.595
 21
91.430000000000007
 31
0.0
  0
LINE
  5
E9
  8
0
 62
     7
 10
173.72099999999989
 20
104.43000000000001
 30
0.0
 11
161.40600000000001
 21
104.43000000000001
 31
0.0
  0
LINE
  5
EA
  8
0
 62
     7
 10
161.40600000000001
 20
91.430000000000007
 30
0.0
 11
167.351
 21
91.430000000000007
 31
0.0
  0
LINE
  5
EB
  8
0
 62
     7
 10
155.35400000000001
 20
89.429699999999997
 30
0.0
 11
173.78399999999999
 21
89.429699999999997
 31
0.0
  0
LINE
  5
EC
  8
0
 62
     7
 10
158.495
 20
114.431
 30
0.0
 11
160.70500000000001
 21
115.023
 31
0.0
  0
LINE
  5
ED
  8
0
 62
     7
 10
160.70500000000001
 20
115.023
 30
0.0
 11
158.495
 21
115.61499999999999
 31
0.0
  0
LINE
  5
EE
  8
0
 62
     7
 10
158.495
 20
115.61499999999999
 30
0.0
 11
158.495
 21
114.431
 31
0.0
  0
LINE
  5
EF
  8
0
 62
     7
 10
124.916
 20
115.601
 30
0.0
 11
122.705
 21
115.009
 31
0.0
  0
LINE
  5
F0
  8
0
 62
     7
 10
122.705
 20
115.009
 30
0.0
 11
124.916
 21
114.416
 31
0.0
  0
LINE
  5
F1
  8
0
 62
     7
 10
124.916
 20
114.416
 30
0.0
 11
124.916
 21
115.601
 31
0.0
  0
LINE
  5
F2
  8
0
 62
     7
 10
160.70500000000001
 20
115.01600000000001
 30
0.0
 11
122.705
 21
115.01600000000001
 31
0.0
  0
LINE
  5
F3
  8
0
 62
     7
 10
160.70500000000001
 20
105.301
 30
0.0
 11
160.70500000000001
 21
115.68899999999999
 31
0.0
  0
LINE
  5
F4
  8
0
 62
     7
 10
122.705
 20
105.301
 30
0.0
 11
122.705
 21
115.68899999999999
 31
0.0
  0
LINE
  5
F5
  8
0
 62
     7
 10
125.405
 20
87.430199999999985
 30
0.0
 11
126.006
 21
87.430199999999985
 31
0.0
  0
LINE
  5
F6
  8
0
 62
     7
 10
124.955
 20
88.230099999999993
 30
0.0
 11
124.955
 21
87.729900000000001
 31
0.0
  0
LINE
  5
F7
  8
0
 62
     7
 10
126.455
 20
88.230099999999993
 30
0.0
 11
126.455
 21
87.729900000000001
 31
0.0
  0
LINE
  5
F8
  8
0
 62
     7
 10
124.955
 20
87.729900000000001
 30
0.0
 11
126.455
 21
87.729900000000001
 31
0.0
  0
LINE
  5
F9
  8
0
 62
     7
 10
124.80500000000001
 20
88.230099999999993
 30
0.0
 11
126.60599999999999
 21
88.230099999999993
 31
0.0
  0
LINE
  5
FA
  8
0
 62
     7
 10
124.80500000000001
 20
88.430000000000007
 30
0.0
 11
124.80500000000001
 21
88.230099999999993
 31
0.0
  0
LINE
  5
FB
  8
0
 62
     7
 10
126.60599999999999
 20
88.430000000000007
 30
0.0
 11
126.60599999999999
 21
88.230099999999993
 31
0.0
  0
LINE
  5
FC
  8
0
 62
     7
 10
124.80500000000001
 20
88.430000000000007
 30
0.0
 11
126.60599999999999
 21
88.430000000000007
 31
0.0
  0
LINE
  5
FD
  8
0
 62
     7
 10
125.405
 20
88.230099999999993
 30
0.0
 11
125.405
 21
87.430199999999985
 31
0.0
  0
LINE
  5
FE
  8
0
 62
     7
 10
125.405
 20
91.430000000000007
 30
0.0
 11
125.405
 21
88.430000000000007
 31
0.0
  0
LINE
  5
FF
  8
0
 62
     7
 10
126.006
 20
88.230099999999993
 30
0.0
 11
126.006
 21
87.430199999999985
 31
0.0
  0
LINE
  5
100
  8
0
 62
     7
 10
126.006
 20
91.430000000000007
 30
0.0
 11
126.006
 21
88.430000000000007
 31
0.0
  0
LINE
  5
101
  8
0
 62
     7
 10
150.70599999999999
 20
89.429699999999997
 30
0.0
 11
154.55500000000001
 21
89.429699999999997
 31
0.0
  0
ARC
  5
102
  8
0
 62
     7
 10
154.549556
 20
89.585577999999984
 30
0.0
 40
0.155948
 50
272.07218699999999
 51
357.92782199999999
  0
LINE
  5
103
  8
0
 62
     7
 10
146.85499999999999
 20
89.429699999999997
 30
0.0
 11
150.70599999999999
 21
89.429699999999997
 31
0.0
  0
ARC
  5
104
  8
0
 62
     7
 10
146.86101099999999
 20
89.585592000000005
 30
0.0
 40
0.155962
 50
182.0771739999999
 51
267.92285600000002
  0
LINE
  5
105
  8
0
  6
AIGENLINE001
 62
     7
 10
150.70599999999999
 20
88.220500000000001
 30
0.0
 11
150.70599999999999
 21
95.787999999999997
 31
0.0
  0
LINE
  5
106
  8
0
 62
     7
 10
75.825299999999999
 20
91.430000000000007
 30
0.0
 11
75.825299999999999
 21
89.579899999999995
 31
0.0
  0
LINE
  5
107
  8
0
 62
     7
 10
71.825400000000002
 20
89.429699999999997
 30
0.0
 11
75.675399999999996
 21
89.429699999999997
 31
0.0
  0
ARC
  5
108
  8
0
 62
     7
 10
75.669783999999993
 20
89.585243999999989
 30
0.0
 40
0.155615
 50
272.08526000000001
 51
358.046313
  0
LINE
  5
109
  8
0
 62
     7
 10
67.975300000000004
 20
89.429699999999997
 30
0.0
 11
71.825400000000002
 21
89.429699999999997
 31
0.0
  0
LINE
  5
10A
  8
0
 62
     7
 10
67.825400000000002
 20
89.579899999999995
 30
0.0
 11
67.825400000000002
 21
91.430000000000007
 31
0.0
  0
ARC
  5
10B
  8
0
 62
     7
 10
67.981251
 20
89.585568000000009
 30
0.0
 40
0.155951
 50
182.06837899999999
 51
267.80008800000002
  0
LINE
  5
10C
  8
0
 62
     7
 10
146.43899999999999
 20
91.904700000000005
 30
0.0
 11
154.501
 21
91.904700000000005
 31
0.0
  0
ARC
  5
10D
  8
0
 62
     7
 10
160.185889
 20
103.91095900000001
 30
0.0
 40
0.519887
 50
2.124349
 51
87.796666999999985
  0
LINE
  5
10E
  8
0
 62
     7
 10
160.70500000000001
 20
91.430000000000007
 30
0.0
 11
160.70500000000001
 21
103.93000000000001
 31
0.0
  0
LINE
  5
10F
  8
0
 62
     7
 10
122.705
 20
91.430000000000007
 30
0.0
 11
122.705
 21
103.93000000000001
 31
0.0
  0
ARC
  5
110
  8
0
 62
     7
 10
123.20531699999999
 20
103.93022999999999
 30
0.0
 40
0.5002310000000002
 50
90.0
 51
179.99996999999999
  0
LINE
  5
111
  8
0
 62
     7
 10
41.009599999999992
 20
91.430000000000007
 30
0.0
 11
32.293300000000002
 21
91.430000000000007
 31
0.0
  0
LINE
  5
112
  8
0
 62
     7
 10
32.350999999999999
 20
93.640699999999995
 30
0.0
 11
32.943199999999997
 21
91.430000000000007
 31
0.0
  0
LINE
  5
113
  8
0
 62
     7
 10
32.943199999999997
 20
91.430000000000007
 30
0.0
 11
33.535600000000002
 21
93.640699999999995
 31
0.0
  0
LINE
  5
114
  8
0
 62
     7
 10
33.535600000000002
 20
93.640699999999995
 30
0.0
 11
32.350999999999999
 21
93.640699999999995
 31
0.0
  0
LINE
  5
115
  8
0
 62
     7
 10
33.521000000000001
 20
86.219599999999986
 30
0.0
 11
32.928800000000003
 21
88.430000000000007
 31
0.0
  0
LINE
  5
116
  8
0
 62
     7
 10
32.928800000000003
 20
88.430000000000007
 30
0.0
 11
32.336399999999998
 21
86.219599999999986
 31
0.0
  0
LINE
  5
117
  8
0
 62
     7
 10
32.336399999999998
 20
86.219599999999986
 30
0.0
 11
33.521000000000001
 21
86.219599999999986
 31
0.0
  0
LINE
  5
118
  8
0
 62
     7
 10
33.521000000000001
 20
102.22
 30
0.0
 11
32.928800000000003
 21
104.43000000000001
 31
0.0
  0
LINE
  5
119
  8
0
 62
     7
 10
32.928800000000003
 20
104.43000000000001
 30
0.0
 11
32.336399999999998
 21
102.22
 31
0.0
  0
LINE
  5
11A
  8
0
 62
     7
 10
32.336399999999998
 20
102.22
 30
0.0
 11
33.521000000000001
 21
102.22
 31
0.0
  0
LINE
  5
11B
  8
0
 62
     7
 10
32.936
 20
76.733800000000002
 30
0.0
 11
32.936
 21
104.43000000000001
 31
0.0
  0
LINE
  5
11C
  8
0
 62
     7
 10
91.525400000000005
 20
87.430199999999985
 30
0.0
 11
92.125500000000002
 21
87.430199999999985
 31
0.0
  0
LINE
  5
11D
  8
0
 62
     7
 10
91.075500000000005
 20
88.230099999999993
 30
0.0
 11
91.075500000000005
 21
87.729900000000001
 31
0.0
  0
LINE
  5
11E
  8
0
 62
     7
 10
92.575500000000005
 20
88.230099999999993
 30
0.0
 11
92.575500000000005
 21
87.729900000000001
 31
0.0
  0
LINE
  5
11F
  8
0
 62
     7
 10
91.075500000000005
 20
87.729900000000001
 30
0.0
 11
92.575500000000005
 21
87.729900000000001
 31
0.0
  0
LINE
  5
120
  8
0
 62
     7
 10
90.925600000000003
 20
88.230099999999993
 30
0.0
 11
92.725699999999989
 21
88.230099999999993
 31
0.0
  0
LINE
  5
121
  8
0
 62
     7
 10
90.925600000000003
 20
88.430000000000007
 30
0.0
 11
90.925600000000003
 21
88.230099999999993
 31
0.0
  0
LINE
  5
122
  8
0
 62
     7
 10
92.725699999999989
 20
88.430000000000007
 30
0.0
 11
92.725699999999989
 21
88.230099999999993
 31
0.0
  0
LINE
  5
123
  8
0
 62
     7
 10
90.925600000000003
 20
88.430000000000007
 30
0.0
 11
92.725699999999989
 21
88.430000000000007
 31
0.0
  0
LINE
  5
124
  8
0
 62
     7
 10
91.525400000000005
 20
88.230099999999993
 30
0.0
 11
91.525400000000005
 21
87.430199999999985
 31
0.0
  0
LINE
  5
125
  8
0
 62
     7
 10
91.525400000000005
 20
91.430000000000007
 30
0.0
 11
91.525400000000005
 21
88.430000000000007
 31
0.0
  0
LINE
  5
126
  8
0
 62
     7
 10
92.125500000000002
 20
88.230099999999993
 30
0.0
 11
92.125500000000002
 21
87.430199999999985
 31
0.0
  0
LINE
  5
127
  8
0
 62
     7
 10
92.125500000000002
 20
91.430000000000007
 30
0.0
 11
92.125500000000002
 21
88.430000000000007
 31
0.0
  0
LINE
  5
128
  8
0
  6
AIGENLINE001
 62
     7
 10
91.825500000000005
 20
92.599900000000005
 30
0.0
 11
91.825500000000005
 21
86.282999999999987
 31
0.0
  0
LINE
  5
129
  8
0
 62
     7
 10
101.82599999999999
 20
91.430000000000007
 30
0.0
 11
101.82599999999999
 21
103.93000000000001
 31
0.0
  0
ARC
  5
12A
  8
0
 62
     7
 10
101.306068
 20
103.91093499999999
 30
0.0
 40
0.519898
 50
2.1269830000000001
 51
87.833532999999989
  0
LINE
  5
12B
  8
0
 62
     7
 10
41.174100000000003
 20
104.43000000000001
 30
0.0
 11
31.998100000000001
 21
104.43000000000001
 31
0.0
  0
LINE
  5
12C
  8
0
  6
AIGENLINE001
 62
     7
 10
71.825400000000002
 20
84.847000000000008
 30
0.0
 11
71.825400000000002
 21
107.042
 31
0.0
  0
LINE
  5
12D
  8
0
 62
     7
 10
52.125300000000003
 20
87.430199999999985
 30
0.0
 11
51.525199999999991
 21
87.430199999999985
 31
0.0
  0
LINE
  5
12E
  8
0
 62
     7
 10
52.575200000000002
 20
88.230099999999993
 30
0.0
 11
52.575200000000002
 21
87.729900000000001
 31
0.0
  0
LINE
  5
12F
  8
0
 62
     7
 10
51.075200000000002
 20
88.230099999999993
 30
0.0
 11
51.075200000000002
 21
87.729900000000001
 31
0.0
  0
LINE
  5
130
  8
0
 62
     7
 10
52.575200000000002
 20
87.729900000000001
 30
0.0
 11
51.075200000000002
 21
87.729900000000001
 31
0.0
  0
LINE
  5
131
  8
0
 62
     7
 10
52.72529999999999
 20
88.230099999999993
 30
0.0
 11
50.925199999999997
 21
88.230099999999993
 31
0.0
  0
LINE
  5
132
  8
0
 62
     7
 10
52.72529999999999
 20
88.430000000000007
 30
0.0
 11
52.72529999999999
 21
88.230099999999993
 31
0.0
  0
LINE
  5
133
  8
0
 62
     7
 10
50.925199999999997
 20
88.430000000000007
 30
0.0
 11
50.925199999999997
 21
88.230099999999993
 31
0.0
  0
LINE
  5
134
  8
0
 62
     7
 10
52.72529999999999
 20
88.430000000000007
 30
0.0
 11
50.925199999999997
 21
88.430000000000007
 31
0.0
  0
LINE
  5
135
  8
0
 62
     7
 10
52.125300000000003
 20
88.230099999999993
 30
0.0
 11
52.125300000000003
 21
87.430199999999985
 31
0.0
  0
LINE
  5
136
  8
0
 62
     7
 10
52.125300000000003
 20
91.430000000000007
 30
0.0
 11
52.125300000000003
 21
88.430000000000007
 31
0.0
  0
LINE
  5
137
  8
0
 62
     7
 10
51.525199999999991
 20
88.230099999999993
 30
0.0
 11
51.525199999999991
 21
87.430199999999985
 31
0.0
  0
LINE
  5
138
  8
0
 62
     7
 10
51.525199999999991
 20
91.430000000000007
 30
0.0
 11
51.525199999999991
 21
88.430000000000007
 31
0.0
  0
LINE
  5
139
  8
0
  6
AIGENLINE001
 62
     7
 10
51.825200000000002
 20
92.599900000000005
 30
0.0
 11
51.825200000000002
 21
86.282999999999987
 31
0.0
  0
LINE
  5
13A
  8
0
  6
AIGENLINE002
 62
     7
 10
32.194600000000001
 20
88.430000000000007
 30
0.0
 11
104.24299999999999
 21
88.430000000000007
 31
0.0
  0
LINE
  5
13B
  8
0
 62
     7
 10
42.325200000000002
 20
104.43000000000001
 30
0.0
 11
101.32599999999999
 21
104.43000000000001
 31
0.0
  0
LINE
  5
13C
  8
0
 62
     7
 10
41.825099999999992
 20
91.430000000000007
 30
0.0
 11
41.825099999999992
 21
103.93000000000001
 31
0.0
  0
ARC
  5
13D
  8
0
 62
     7
 10
42.32524699999999
 20
103.930317
 30
0.0
 40
0.500145
 50
90.009867000000014
 51
180.00987699999999
  0
LINE
  5
13E
  8
0
 62
     7
 10
41.825099999999992
 20
91.430000000000007
 30
0.0
 11
101.82599999999999
 21
91.430000000000007
 31
0.0
  0
LINE
  5
13F
  8
0
 62
     7
 10
69.0548
 20
182.673
 30
0.0
 11
70.199100000000001
 21
184.655
 31
0.0
  0
LINE
  5
140
  8
0
 62
     7
 10
70.199100000000001
 20
184.655
 30
0.0
 11
68.217100000000002
 21
183.511
 31
0.0
  0
LINE
  5
141
  8
0
 62
     7
 10
68.217100000000002
 20
183.511
 30
0.0
 11
69.0548
 21
182.673
 31
0.0
  0
LINE
  5
142
  8
0
 62
     7
 10
74.596100000000007
 20
189.88999999999999
 30
0.0
 11
73.451800000000006
 21
187.90799999999999
 31
0.0
  0
LINE
  5
143
  8
0
 62
     7
 10
73.451800000000006
 20
187.90799999999999
 30
0.0
 11
75.433800000000005
 21
189.05199999999999
 31
0.0
  0
LINE
  5
144
  8
0
 62
     7
 10
75.433800000000005
 20
189.05199999999999
 30
0.0
 11
74.596100000000007
 21
189.88999999999999
 31
0.0
  0
LINE
  5
145
  8
0
 62
     7
 10
76.166700000000006
 20
190.62299999999999
 30
0.0
 11
62.616700000000002
 21
177.07300000000001
 31
0.0
  0
LINE
  5
146
  8
0
 62
     7
 10
61.148600000000002
 20
194.071
 30
0.0
 11
60.556399999999996
 21
196.28200000000001
 31
0.0
  0
LINE
  5
147
  8
0
 62
     7
 10
60.556399999999996
 20
196.28200000000001
 30
0.0
 11
59.963999999999999
 21
194.071
 31
0.0
  0
LINE
  5
148
  8
0
 62
     7
 10
59.963999999999999
 20
194.071
 30
0.0
 11
61.148600000000002
 21
194.071
 31
0.0
  0
LINE
  5
149
  8
0
 62
     7
 10
59.9786
 20
188.49199999999999
 30
0.0
 11
60.570799999999998
 21
186.28200000000001
 31
0.0
  0
LINE
  5
14A
  8
0
 62
     7
 10
60.570799999999998
 20
186.28200000000001
 30
0.0
 11
61.163200000000003
 21
188.49199999999999
 31
0.0
  0
LINE
  5
14B
  8
0
 62
     7
 10
61.163200000000003
 20
188.49199999999999
 30
0.0
 11
59.9786
 21
188.49199999999999
 31
0.0
  0
LINE
  5
14C
  8
0
 62
     7
 10
60.563600000000001
 20
196.28200000000001
 30
0.0
 11
60.563600000000001
 21
186.28200000000001
 31
0.0
  0
LINE
  5
14D
  8
0
 62
     7
 10
62.616700000000002
 20
177.07300000000001
 30
0.0
 11
54.718800000000002
 21
177.07300000000001
 31
0.0
  0
LINE
  5
14E
  8
0
 62
     7
 10
65.351299999999995
 20
186.28200000000001
 30
0.0
 11
59.868600000000001
 21
186.28200000000001
 31
0.0
  0
LINE
  5
14F
  8
0
 62
     7
 10
44.035699999999999
 20
144.90199999999999
 30
0.0
 11
41.825299999999991
 21
144.31
 31
0.0
  0
LINE
  5
150
  8
0
 62
     7
 10
41.825299999999991
 20
144.31
 30
0.0
 11
44.035699999999999
 21
143.71700000000001
 31
0.0
  0
LINE
  5
151
  8
0
 62
     7
 10
44.035699999999999
 20
143.71700000000001
 30
0.0
 11
44.035699999999999
 21
144.90199999999999
 31
0.0
  0
LINE
  5
152
  8
0
 62
     7
 10
99.614900000000006
 20
143.732
 30
0.0
 11
101.82599999999999
 21
144.32400000000001
 31
0.0
  0
LINE
  5
153
  8
0
 62
     7
 10
101.82599999999999
 20
144.32400000000001
 30
0.0
 11
99.614900000000006
 21
144.917
 31
0.0
  0
LINE
  5
154
  8
0
 62
     7
 10
99.614900000000006
 20
144.917
 30
0.0
 11
99.614900000000006
 21
143.732
 31
0.0
  0
LINE
  5
155
  8
0
 62
     7
 10
41.825099999999992
 20
144.31700000000001
 30
0.0
 11
101.82599999999999
 21
144.31700000000001
 31
0.0
  0
LINE
  5
156
  8
0
 62
     7
 10
104.036
 20
151.60400000000001
 30
0.0
 11
101.82599999999999
 21
151.011
 31
0.0
  0
LINE
  5
157
  8
0
 62
     7
 10
101.82599999999999
 20
151.011
 30
0.0
 11
104.036
 21
150.41900000000001
 31
0.0
  0
LINE
  5
158
  8
0
 62
     7
 10
104.036
 20
150.41900000000001
 30
0.0
 11
104.036
 21
151.60400000000001
 31
0.0
  0
LINE
  5
159
  8
0
 62
     7
 10
47.535600000000002
 20
151.60400000000001
 30
0.0
 11
45.325200000000002
 21
151.011
 31
0.0
  0
LINE
  5
15A
  8
0
 62
     7
 10
45.325200000000002
 20
151.011
 30
0.0
 11
47.535600000000002
 21
150.41900000000001
 31
0.0
  0
LINE
  5
15B
  8
0
 62
     7
 10
47.535600000000002
 20
150.41900000000001
 30
0.0
 11
47.535600000000002
 21
151.60400000000001
 31
0.0
  0
LINE
  5
15C
  8
0
 62
     7
 10
39.61440000000001
 20
150.434
 30
0.0
 11
41.825099999999992
 21
151.02600000000001
 31
0.0
  0
LINE
  5
15D
  8
0
 62
     7
 10
41.825099999999992
 20
151.02600000000001
 30
0.0
 11
39.61440000000001
 21
151.61799999999999
 31
0.0
  0
LINE
  5
15E
  8
0
 62
     7
 10
39.61440000000001
 20
151.61799999999999
 30
0.0
 11
39.61440000000001
 21
150.434
 31
0.0
  0
LINE
  5
15F
  8
0
 62
     7
 10
96.11460000000001
 20
150.434
 30
0.0
 11
98.325400000000016
 21
151.02600000000001
 31
0.0
  0
LINE
  5
160
  8
0
 62
     7
 10
98.325400000000016
 20
151.02600000000001
 30
0.0
 11
96.11460000000001
 21
151.61799999999999
 31
0.0
  0
LINE
  5
161
  8
0
 62
     7
 10
96.11460000000001
 20
151.61799999999999
 30
0.0
 11
96.11460000000001
 21
150.434
 31
0.0
  0
LINE
  5
162
  8
0
 62
     7
 10
36.808999999999997
 20
151.01900000000001
 30
0.0
 11
109.093
 21
151.01900000000001
 31
0.0
  0
LINE
  5
163
  8
0
 62
     7
 10
98.325400000000016
 20
161.28200000000001
 30
0.0
 11
98.325400000000016
 21
150.327
 31
0.0
  0
LINE
  5
164
  8
0
 62
     7
 10
45.325200000000002
 20
150.24000000000001
 30
0.0
 11
45.325200000000002
 21
161.20699999999999
 31
0.0
  0
LINE
  5
165
  8
0
 62
     7
 10
41.825099999999992
 20
143.53800000000001
 30
0.0
 11
41.825099999999992
 21
159.15000000000001
 31
0.0
  0
LINE
  5
166
  8
0
 62
     7
 10
101.82599999999999
 20
159.26400000000001
 30
0.0
 11
101.82599999999999
 21
143.53800000000001
 31
0.0
  0
LINE
  5
167
  8
0
 62
     7
 10
27.057400000000001
 20
160.49199999999999
 30
0.0
 11
27.6496
 21
158.28200000000001
 31
0.0
  0
LINE
  5
168
  8
0
 62
     7
 10
27.6496
 20
158.28200000000001
 30
0.0
 11
28.242000000000001
 21
160.49199999999999
 31
0.0
  0
LINE
  5
169
  8
0
 62
     7
 10
28.242000000000001
 20
160.49199999999999
 30
0.0
 11
27.057400000000001
 21
160.49199999999999
 31
0.0
  0
LINE
  5
16A
  8
0
 62
     7
 10
28.227399999999999
 20
194.071
 30
0.0
 11
27.635200000000001
 21
196.28200000000001
 31
0.0
  0
LINE
  5
16B
  8
0
 62
     7
 10
27.635200000000001
 20
196.28200000000001
 30
0.0
 11
27.0428
 21
194.071
 31
0.0
  0
LINE
  5
16C
  8
0
 62
     7
 10
27.0428
 20
194.071
 30
0.0
 11
28.227399999999999
 21
194.071
 31
0.0
  0
LINE
  5
16D
  8
0
 62
     7
 10
27.642399999999999
 20
158.28200000000001
 30
0.0
 11
27.642399999999999
 21
196.28200000000001
 31
0.0
  0
LINE
  5
16E
  8
0
 62
     7
 10
34.567799999999998
 20
198.49199999999999
 30
0.0
 11
35.159999999999997
 21
196.28200000000001
 31
0.0
  0
LINE
  5
16F
  8
0
 62
     7
 10
35.159999999999997
 20
196.28200000000001
 30
0.0
 11
35.752400000000002
 21
198.49199999999999
 31
0.0
  0
LINE
  5
170
  8
0
 62
     7
 10
35.752400000000002
 20
198.49199999999999
 30
0.0
 11
34.567799999999998
 21
198.49199999999999
 31
0.0
  0
LINE
  5
171
  8
0
 62
     7
 10
34.567799999999998
 20
163.99199999999999
 30
0.0
 11
35.159999999999997
 21
161.78200000000001
 31
0.0
  0
LINE
  5
172
  8
0
 62
     7
 10
35.159999999999997
 20
161.78200000000001
 30
0.0
 11
35.752400000000002
 21
163.99199999999999
 31
0.0
  0
LINE
  5
173
  8
0
 62
     7
 10
35.752400000000002
 20
163.99199999999999
 30
0.0
 11
34.567799999999998
 21
163.99199999999999
 31
0.0
  0
LINE
  5
174
  8
0
 62
     7
 10
35.7378
 20
156.071
 30
0.0
 11
35.145499999999998
 21
158.28200000000001
 31
0.0
  0
LINE
  5
175
  8
0
 62
     7
 10
35.145499999999998
 20
158.28200000000001
 30
0.0
 11
34.553100000000001
 21
156.071
 31
0.0
  0
LINE
  5
176
  8
0
 62
     7
 10
34.553100000000001
 20
156.071
 30
0.0
 11
35.7378
 21
156.071
 31
0.0
  0
LINE
  5
177
  8
0
 62
     7
 10
35.7378
 20
190.571
 30
0.0
 11
35.145499999999998
 21
192.78200000000001
 31
0.0
  0
LINE
  5
178
  8
0
 62
     7
 10
35.145499999999998
 20
192.78200000000001
 30
0.0
 11
34.553100000000001
 21
190.571
 31
0.0
  0
LINE
  5
179
  8
0
 62
     7
 10
34.553100000000001
 20
190.571
 30
0.0
 11
35.7378
 21
190.571
 31
0.0
  0
LINE
  5
17A
  8
0
 62
     7
 10
35.152799999999999
 20
151.40799999999999
 30
0.0
 11
35.152799999999999
 21
203.77099999999999
 31
0.0
  0
LINE
  5
17B
  8
0
 62
     7
 10
44.66149999999999
 20
161.78200000000001
 30
0.0
 11
34.091500000000003
 21
161.78200000000001
 31
0.0
  0
LINE
  5
17C
  8
0
 62
     7
 10
34.015900000000009
 20
192.78200000000001
 30
0.0
 11
44.376399999999997
 21
192.78200000000001
 31
0.0
  0
LINE
  5
17D
  8
0
 62
     7
 10
42.094700000000003
 20
158.28200000000001
 30
0.0
 11
26.6797
 21
158.28200000000001
 31
0.0
  0
LINE
  5
17E
  8
0
 62
     7
 10
26.6797
 20
196.28200000000001
 30
0.0
 11
41.999599999999987
 21
196.28200000000001
 31
0.0
  0
LINE
  5
17F
  8
0
 62
     7
 10
98.325400000000016
 20
191.78200000000001
 30
0.0
 11
98.325400000000016
 21
162.78200000000001
 31
0.0
  0
LINE
  5
180
  8
0
 62
     7
 10
97.325599999999994
 20
161.78200000000001
 30
0.0
 11
46.325299999999999
 21
161.78200000000001
 31
0.0
  0
ARC
  5
181
  8
0
 62
     7
 10
97.28694200000001
 20
162.81991500000001
 30
0.0
 40
1.0391330000000001
 50
272.13181600000001
 51
357.88793399999997
  0
LINE
  5
182
  8
0
 62
     7
 10
46.325299999999999
 20
192.78200000000001
 30
0.0
 11
97.325599999999994
 21
192.78200000000001
 31
0.0
  0
ARC
  5
183
  8
0
 62
     7
 10
97.286792000000005
 20
191.74312900000001
 30
0.0
 40
1.0392950000000001
 50
2.1298840000000001
 51
87.860235000000003
  0
LINE
  5
184
  8
0
 62
     7
 10
45.325200000000002
 20
162.78200000000001
 30
0.0
 11
45.325200000000002
 21
191.78200000000001
 31
0.0
  0
ARC
  5
185
  8
0
 62
     7
 10
46.325200000000002
 20
191.781668
 30
0.0
 40
1.000032
 50
89.995064999999997
 51
179.995036
  0
ARC
  5
186
  8
0
 62
     7
 10
46.325285999999991
 20
162.78161800000001
 30
0.0
 40
1.000116999999999
 50
179.99996999999999
 51
270.00002000000001
  0
LINE
  5
187
  8
0
  6
AIGENLINE001
 62
     7
 10
66.030000000000001
 20
186.28200000000001
 30
0.0
 11
77.431100000000001
 21
186.28200000000001
 31
0.0
  0
LINE
  5
188
  8
0
  6
AIGENLINE001
 62
     7
 10
71.825400000000002
 20
156.874
 30
0.0
 11
71.825400000000002
 21
198.46899999999999
 31
0.0
  0
ARC
  5
189
  8
0
 62
     7
 10
71.825355000000002
 20
186.28162399999999
 30
0.0
 40
2.3001330000000002
 50
0.00001
 51
89.999980000000008
  0
ARC
  5
18A
  8
0
 62
     7
 10
71.82544200000001
 20
186.28171
 30
0.0
 40
2.3000470000000002
 50
90.002145999999996
 51
180.00215499999999
  0
ARC
  5
18B
  8
0
 62
     7
 10
71.825355000000002
 20
186.28162399999999
 30
0.0
 40
2.29996
 50
179.99996999999999
 51
270.00002000000001
  0
ARC
  5
18C
  8
0
 62
     7
 10
71.825440999999998
 20
186.281711
 30
0.0
 40
2.3000470000000002
 50
269.99787400000002
 51
359.99784499999998
  0
ARC
  5
18D
  8
0
 62
     7
 10
71.825354000000004
 20
186.28162399999999
 30
0.0
 40
3.7501829999999998
 50
0.00001
 51
89.999980000000008
  0
ARC
  5
18E
  8
0
 62
     7
 10
71.82544200000001
 20
186.28171
 30
0.0
 40
3.7500969999999998
 50
90.001315999999989
 51
180.00132600000001
  0
ARC
  5
18F
  8
0
 62
     7
 10
71.825354000000004
 20
186.28162399999999
 30
0.0
 40
3.750008999999999
 50
179.99996999999999
 51
270.00002000000001
  0
ARC
  5
190
  8
0
 62
     7
 10
71.825440999999998
 20
186.281711
 30
0.0
 40
3.7500969999999998
 50
269.99870399999998
 51
359.99867399999999
  0
ARC
  5
191
  8
0
 62
     7
 10
98.824819999999988
 20
193.280978
 30
0.0
 40
3.0007890000000002
 50
0.014905
 51
89.985085000000012
  0
ARC
  5
192
  8
0
 62
     7
 10
98.806098000000006
 20
161.32744199999999
 30
0.0
 40
3.0458979999999989
 50
270.36686700000001
 51
314.66130399999997
  0
ARC
  5
193
  8
0
 62
     7
 10
98.790959999999998
 20
161.29695799999999
 30
0.0
 40
3.035026999999999
 50
315.26909999999998
 51
359.72985999999997
  0
ARC
  5
194
  8
0
 62
     7
 10
44.940616999999989
 20
161.397122
 30
0.0
 40
3.1176560000000002
 50
182.12328199999999
 51
267.87674800000002
  0
ARC
  5
195
  8
0
 62
     7
 10
44.825436999999987
 20
193.28160299999999
 30
0.0
 40
3.0001630000000001
 50
90.002956000000026
 51
179.997015
  0
LINE
  5
196
  8
0
 62
     7
 10
41.825099999999992
 20
161.28200000000001
 30
0.0
 11
41.825099999999992
 21
193.28200000000001
 31
0.0
  0
LINE
  5
197
  8
0
 62
     7
 10
98.825599999999994
 20
158.28200000000001
 30
0.0
 11
44.825299999999991
 21
158.28200000000001
 31
0.0
  0
LINE
  5
198
  8
0
 62
     7
 10
158.804
 20
202.297
 30
0.0
 11
158.804
 21
193.54599999999999
 31
0.0
  0
LINE
  5
199
  8
0
 62
     7
 10
135.804
 20
202.297
 30
0.0
 11
135.804
 21
195.68799999999999
 31
0.0
  0
LINE
  5
19A
  8
0
 62
     7
 10
158.804
 20
191.28200000000001
 30
0.0
 11
158.804
 21
184.28200000000001
 31
0.0
  0
LINE
  5
19B
  8
0
 62
     7
 10
135.804
 20
191.28200000000001
 30
0.0
 11
135.804
 21
184.28200000000001
 31
0.0
  0
LINE
  5
19C
  8
0
 62
     7
 10
101.82599999999999
 20
193.28200000000001
 30
0.0
 11
101.82599999999999
 21
161.28200000000001
 31
0.0
  0
LINE
  5
19D
  8
0
 62
     7
 10
44.825299999999991
 20
196.28200000000001
 30
0.0
 11
98.825599999999994
 21
196.28200000000001
 31
0.0
  0
LINE
  5
19E
  8
_________2
 62
     7
 10
205.30099999999999
 20
127.411
 30
0.0
 11
183.55000000000001
 21
127.411
 31
0.0
  0
LINE
  5
19F
  8
_________2
 62
     7
 10
100.3
 20
-4.0910799999999998
 30
0.0
 11
100.3
 21
-21.071400000000001
 31
0.0
  0
LINE
  5
1A0
  8
_________2
 62
     7
 10
100.3
 20
275.93099999999998
 30
0.0
 11
100.3
 21
258.911
 31
0.0
  0
LINE
  5
1A1
  8
_________2
 62
     7
 10
17.049499999999998
 20
127.411
 30
0.0
 11
-4.70052
 21
127.411
 31
0.0
  0
LINE
  5
1A2
  8
_________2
 62
     7
 10
76.741
 20
29.8047
 30
0.0
 11
74.554699999999997
 21
29.8047
 31
0.0
  0
LINE
  5
1A3
  8
_________2
 62
     7
 10
77.233699999999999
 20
29.8047
 30
0.0
 11
76.981499999999997
 21
29.8047
 31
0.0
  0
LINE
  5
1A4
  8
_________2
 62
     7
 10
77.726299999999995
 20
29.8047
 30
0.0
 11
80.651200000000003
 21
29.8047
 31
0.0
  0
LINE
  5
1A5
  8
_________2
 62
     7
 10
77.233699999999999
 20
29.8047
 30
0.0
 11
77.485500000000002
 21
29.8047
 31
0.0
  0
LINE
  5
1A6
  8
_________2
 62
     7
 10
70.837100000000007
 20
29.8047
 30
0.0
 11
68.650499999999994
 21
29.8047
 31
0.0
  0
LINE
  5
1A7
  8
_________2
 62
     7
 10
71.329400000000007
 20
29.8047
 30
0.0
 11
71.077600000000004
 21
29.8047
 31
0.0
  0
LINE
  5
1A8
  8
_________2
 62
     7
 10
71.329400000000007
 20
30.2974
 30
0.0
 11
71.329400000000007
 21
32.484400000000001
 31
0.0
  0
LINE
  5
1A9
  8
_________2
 62
     7
 10
71.329400000000007
 20
29.8047
 30
0.0
 11
71.329400000000007
 21
30.056899999999999
 31
0.0
  0
LINE
  5
1AA
  8
_________2
 62
     7
 10
71.822100000000006
 20
29.8047
 30
0.0
 11
74.009
 21
29.8047
 31
0.0
  0
LINE
  5
1AB
  8
_________2
 62
     7
 10
71.329400000000007
 20
29.8047
 30
0.0
 11
71.581599999999995
 21
29.8047
 31
0.0
  0
LINE
  5
1AC
  8
_________2
 62
     7
 10
71.329400000000007
 20
29.312799999999999
 30
0.0
 11
71.329400000000007
 21
27.125800000000002
 31
0.0
  0
LINE
  5
1AD
  8
_________2
 62
     7
 10
71.329400000000007
 20
29.8047
 30
0.0
 11
71.329400000000007
 21
29.5532
 31
0.0
  0
LINE
  5
1AE
  8
_________2
 62
     7
 10
75.040499999999994
 20
28.5852
 30
0.0
 11
80.218500000000006
 21
27.720400000000001
 31
0.0
  0
LINE
  5
1AF
  8
_________2
 62
     7
 10
75.040499999999994
 20
31.0243
 30
0.0
 11
80.218500000000006
 21
31.889700000000001
 31
0.0
  0
LINE
  5
1B0
  8
_________2
 62
     7
 10
80.218500000000006
 20
27.720400000000001
 30
0.0
 11
80.218500000000006
 21
31.889700000000001
 31
0.0
  0
LINE
  5
1B1
  8
_________2
 62
     7
 10
75.040499999999994
 20
28.5852
 30
0.0
 11
75.040499999999994
 21
31.0243
 31
0.0
  0
ARC
  5
1B2
  8
_________2
 62
     7
 10
71.28285600000001
 20
29.757811
 30
0.0
 40
1.2673589999999999
 50
2.122214
 51
87.893958999999995
  0
ARC
  5
1B3
  8
_________2
 62
     7
 10
71.375959999999992
 20
29.758213000000001
 30
0.0
 40
1.2669559999999991
 50
92.104701000000006
 51
177.89526900000001
  0
ARC
  5
1B4
  8
_________2
 62
     7
 10
71.376357999999996
 20
29.851671
 30
0.0
 40
1.2673680000000001
 50
182.12203600000001
 51
267.877993
  0
ARC
  5
1B5
  8
_________2
 62
     7
 10
71.282531999999989
 20
29.851998999999999
 30
0.0
 40
1.267695999999999
 50
272.12015300000002
 51
357.863674
  0
ARC
  5
1B6
  8
_________2
 62
     7
 10
71.329430000000002
 20
29.804742999999998
 30
0.0
 40
2.0849849999999992
 50
0.00001
 51
89.999980000000008
  0
ARC
  5
1B7
  8
_________2
 62
     7
 10
71.329603000000006
 20
29.804915000000001
 30
0.0
 40
2.084813
 50
90.004733999999999
 51
180.00474399999999
  0
ARC
  5
1B8
  8
_________2
 62
     7
 10
71.409106000000008
 20
29.884775999999999
 30
0.0
 40
2.1657950000000001
 50
182.11776599999999
 51
267.89173399999999
  0
ARC
  5
1B9
  8
_________2
 62
     7
 10
71.249459000000002
 20
29.885429999999999
 30
0.0
 40
2.1664590000000001
 50
272.11546800000002
 51
357.86560400000002
  0
TEXT
  5
1BA
  8
_________2
 62
     7
 10
104.605
 20
1.6794899999999999
 30
0.0
 40
3.0923400000000001
  1
図番
 41
0.5
  0
LINE
  5
1BB
  8
_________2
 62
     7
 10
103.55
 20
5.9087199999999989
 30
0.0
 11
183.55099999999999
 21
5.9087199999999989
 31
0.0
  0
TEXT
  5
1BC
  8
_________2
 62
     7
 10
104.605
 20
11.6793
 30
0.0
 40
3.0923400000000001
  1
品番
 41
0.5
  0
TEXT
  5
1BD
  8
_________2
 62
     7
 10
104.605
 20
31.818100000000001
 30
0.0
 40
3.0923400000000001
  1
名称
 41
0.5
  0
TEXT
  5
1BE
  8
_________2
 62
     7
 10
91.845058333333341
 20
26.821999999999999
 30
0.0
 40
3.6545800000000002
  1
mm
 41
0.5
 72
     1
 11
93.367800000000003
 21
26.821999999999999
 31
0.0
  0
TEXT
  5
1BF
  8
_________2
 62
     7
 10
85.643199999999993
 20
31.818100000000001
 30
0.0
 40
3.0923400000000001
  1
単位
 41
0.5
  0
TEXT
  5
1C0
  8
_________2
 62
     7
 10
85.643199999999993
 20
19.410799999999998
 30
0.0
 40
3.0923400000000001
  1
尺度
 41
0.5
  0
TEXT
  5
1C1
  8
_________2
 62
     7
 10
90.09193616666667
 20
13.2179
 30
0.0
 40
3.6545800000000002
  1
1 ： 10
 41
0.5
 72
     1
 11
93.959699999999998
 21
13.2179
 31
0.0
  0
TEXT
  5
1C2
  8
_________2
 62
     7
 10
132.39885000000001
 20
9.1078600000000005
 30
0.0
 40
3.9357000000000002
  1
DV045560R-00
 41
0.5
 72
     1
 11
143.55000000000001
 21
9.1078600000000005
 31
0.0
  0
TEXT
  5
1C3
  8
_________2
 62
     7
 10
135.02265
 20
-0.8926299999999999
 30
0.0
 40
3.9357000000000002
  1
DV045560R
 41
0.5
 72
     1
 11
143.55000000000001
 21
-0.8926299999999999
 31
0.0
  0
TEXT
  5
1C4
  8
_________2
 62
     7
 10
24.5868
 20
0.707283
 30
0.0
 40
3.9357000000000002
  1
重量：14.2kg、オーバーフローなし
 41
0.5
  0
TEXT
  5
1C5
  8
_________2
 62
     7
 10
109.179
 20
24.2257
 30
0.0
 40
3.9357000000000002
  1
ヴェーロ　手洗器
 41
0.5
  0
TEXT
  5
1C6
  8
_________2
 62
     7
 10
39.425300333333333
 20
13.603
 30
0.0
 40
3.6545800000000002
  1
早川
 41
0.5
 72
     1
 11
41.313499999999998
 21
13.603
 31
0.0
  0
TEXT
  5
1C7
  8
_________2
 62
     7
 10
20.790090666666661
 20
13.603
 30
0.0
 40
3.6545800000000002
  1
石原
 41
0.5
 72
     1
 11
22.7392
 21
13.603
 31
0.0
  0
TEXT
  5
1C8
  8
_________2
 62
     7
 10
67.785399999999996
 20
13.2179
 30
0.0
 40
3.6545800000000002
  1
15.11.02
 41
0.5
  0
TEXT
  5
1C9
  8
_________2
 62
     7
 10
66.593100000000007
 20
19.410799999999998
 30
0.0
 40
3.0923400000000001
  1
日付
 41
0.5
  0
TEXT
  5
1CA
  8
_________2
 62
     7
 10
29.639399999999998
 20
19.410799999999998
 30
0.0
 40
3.0923400000000001
  1
検図
 41
0.5
  0
TEXT
  5
1CB
  8
_________2
 62
     7
 10
18.021100000000001
 20
5.21143
 30
0.0
 40
3.0923400000000001
  1
備考
 41
0.5
  0
TEXT
  5
1CC
  8
_________2
 62
     7
 10
18.021100000000001
 20
19.410799999999998
 30
0.0
 40
3.0923400000000001
  1
製図
 41
0.5
  0
TEXT
  5
1CD
  8
_________2
 62
     7
 10
23.788465333333338
 20
27.936800000000002
 30
0.0
 40
4.4979399999999989
  1
セラトレーディング株式会社
 41
0.5
 72
     1
 11
41.180500000000002
 21
27.936800000000002
 31
0.0
  0
LINE
  5
1CE
  8
_________2
 62
     7
 10
183.55099999999999
 20
-4.0910799999999998
 30
0.0
 11
17.049499999999998
 21
-4.0910799999999998
 31
0.0
  0
LINE
  5
1CF
  8
_________2
 62
     7
 10
17.049499999999998
 20
-4.0910799999999998
 30
0.0
 11
17.049499999999998
 21
258.911
 31
0.0
  0
LINE
  5
1D0
  8
_________2
 62
     7
 10
17.049499999999998
 20
258.911
 30
0.0
 11
183.55099999999999
 21
258.911
 31
0.0
  0
LINE
  5
1D1
  8
_________2
 62
     7
 10
183.55099999999999
 20
258.911
 30
0.0
 11
183.55099999999999
 21
-4.0910799999999998
 31
0.0
  0
LINE
  5
1D2
  8
_________2
 62
     7
 10
65.549599999999998
 20
9.4089600000000004
 30
0.0
 11
65.549599999999998
 21
35.908799999999999
 31
0.0
  0
LINE
  5
1D3
  8
_________2
 62
     7
 10
84.549700000000016
 20
9.4089600000000004
 30
0.0
 11
84.549700000000016
 21
35.908799999999999
 31
0.0
  0
LINE
  5
1D4
  8
_________2
 62
     7
 10
103.55
 20
-4.0910799999999998
 30
0.0
 11
103.55
 21
35.908799999999999
 31
0.0
  0
LINE
  5
1D5
  8
_________2
 62
     7
 10
28.549299999999999
 20
9.4089600000000004
 30
0.0
 11
28.549299999999999
 21
23.409199999999998
 31
0.0
  0
LINE
  5
1D6
  8
_________2
 62
     7
 10
17.049499999999998
 20
9.4089600000000004
 30
0.0
 11
103.55
 21
9.4089600000000004
 31
0.0
  0
LINE
  5
1D7
  8
_________2
 62
     7
 10
17.049499999999998
 20
23.409199999999998
 30
0.0
 11
103.55
 21
23.409199999999998
 31
0.0
  0
LINE
  5
1D8
  8
_________2
 62
     7
 10
103.55
 20
15.9085
 30
0.0
 11
183.55099999999999
 21
15.9085
 31
0.0
  0
LINE
  5
1D9
  8
_________2
 62
     7
 10
17.049499999999998
 20
35.908799999999999
 30
0.0
 11
183.55099999999999
 21
35.908799999999999
 31
0.0
  0
ENDSEC
  0
EOF
