  0
SECTION
  2
HEADER
  9
$ACADVER
  1
AC1009
  9
$INSBASE
 10
0.0
 20
0.0
 30
0.0
  9
$EXTMIN
 10
-4.7012099999999988
 20
-21.071000000000002
 30
0.0
  9
$EXTMAX
 10
205.30099999999999
 20
275.93099999999998
 30
0.0
  9
$LIMMIN
 10
0.0
 20
0.0
  9
$LIMMAX
 10
12.0
 20
9.0
  9
$ORTHOMODE
 70
     0
  9
$REGENMODE
 70
     1
  9
$FILLMODE
 70
     1
  9
$QTEXTMODE
 70
     0
  9
$MIRRTEXT
 70
     1
  9
$DRAGMODE
 70
     2
  9
$LTSCALE
 40
1.0
  9
$OSMODE
 70
    37
  9
$ATTMODE
 70
     1
  9
$TEXTSIZE
 40
0.0
  9
$TRACEWID
 40
0.05
  9
$TEXTSTYLE
  7
STANDARD
  9
$CLAYER
  8
0
  9
$CELTYPE
  6
CONTINUOUS
  9
$CECOLOR
 62
   256
  9
$DIMSCALE
 40
1.0
  9
$DIMASZ
 40
0.18
  9
$DIMEXO
 40
0.0625
  9
$DIMDLI
 40
0.38
  9
$DIMRND
 40
0.0
  9
$DIMDLE
 40
0.0
  9
$DIMEXE
 40
0.18
  9
$DIMTP
 40
0.0
  9
$DIMTM
 40
0.0
  9
$DIMTXT
 40
0.18
  9
$DIMCEN
 40
0.09
  9
$DIMTSZ
 40
0.0
  9
$DIMTOL
 70
     0
  9
$DIMLIM
 70
     0
  9
$DIMTIH
 70
     1
  9
$DIMTOH
 70
     1
  9
$DIMSE1
 70
     0
  9
$DIMSE2
 70
     0
  9
$DIMTAD
 70
     0
  9
$DIMZIN
 70
     0
  9
$DIMBLK
  1

  9
$DIMASO
 70
     1
  9
$DIMSHO
 70
     1
  9
$DIMPOST
  1

  9
$DIMAPOST
  1

  9
$DIMALT
 70
     0
  9
$DIMALTD
 70
     2
  9
$DIMALTF
 40
25.399999999999999
  9
$DIMLFAC
 40
1.0
  9
$DIMTOFL
 70
     0
  9
$DIMTVP
 40
0.0
  9
$DIMTIX
 70
     0
  9
$DIMSOXD
 70
     0
  9
$DIMSAH
 70
     0
  9
$DIMBLK1
  1

  9
$DIMBLK2
  1

  9
$DIMSTYLE
  2
STANDARD
  9
$DIMCLRD
 70
     0
  9
$DIMCLRE
 70
     0
  9
$DIMCLRT
 70
     0
  9
$DIMTFAC
 40
1.0
  9
$DIMGAP
 40
0.09
  9
$LUNITS
 70
     2
  9
$LUPREC
 70
     4
  9
$SKETCHINC
 40
0.1
  9
$FILLETRAD
 40
0.0
  9
$AUNITS
 70
     0
  9
$AUPREC
 70
     0
  9
$MENU
  1
.
  9
$ELEVATION
 40
0.0
  9
$PELEVATION
 40
0.0
  9
$THICKNESS
 40
0.0
  9
$LIMCHECK
 70
     0
  9
$BLIPMODE
 70
     0
  9
$CHAMFERA
 40
0.0
  9
$CHAMFERB
 40
0.0
  9
$SKPOLY
 70
     0
  9
$TDCREATE
 40
2444972.375
  9
$TDUPDATE
 40
2458404.2465343061
  9
$TDINDWG
 40
0.0000336227
  9
$TDUSRTIMER
 40
0.0000336227
  9
$USRTIMER
 70
     1
  9
$ANGBASE
 50
0.0
  9
$ANGDIR
 70
     0
  9
$PDMODE
 70
     0
  9
$PDSIZE
 40
0.0
  9
$PLINEWID
 40
0.0
  9
$COORDS
 70
     1
  9
$SPLFRAME
 70
     0
  9
$SPLINETYPE
 70
     6
  9
$SPLINESEGS
 70
     8
  9
$ATTDIA
 70
     1
  9
$ATTREQ
 70
     1
  9
$HANDLING
 70
     1
  9
$HANDSEED
  5
2D1
  9
$SURFTAB1
 70
     6
  9
$SURFTAB2
 70
     6
  9
$SURFTYPE
 70
     6
  9
$SURFU
 70
     6
  9
$SURFV
 70
     6
  9
$UCSNAME
  2

  9
$UCSORG
 10
0.0
 20
0.0
 30
0.0
  9
$UCSXDIR
 10
1.0
 20
0.0
 30
0.0
  9
$UCSYDIR
 10
0.0
 20
1.0
 30
0.0
  9
$PUCSNAME
  2

  9
$PUCSORG
 10
0.0
 20
0.0
 30
0.0
  9
$PUCSXDIR
 10
1.0
 20
0.0
 30
0.0
  9
$PUCSYDIR
 10
0.0
 20
1.0
 30
0.0
  9
$USERI1
 70
     0
  9
$USERI2
 70
     0
  9
$USERI3
 70
     0
  9
$USERI4
 70
     0
  9
$USERI5
 70
     0
  9
$USERR1
 40
0.0
  9
$USERR2
 40
0.0
  9
$USERR3
 40
0.0
  9
$USERR4
 40
0.0
  9
$USERR5
 40
0.0
  9
$WORLDVIEW
 70
     1
  9
$SHADEDGE
 70
     3
  9
$SHADEDIF
 70
    70
  9
$TILEMODE
 70
     1
  9
$MAXACTVP
 70
    48
  9
$PLIMCHECK
 70
     0
  9
$PEXTMIN
 10
1.0000000000000000E+020
 20
1.0000000000000000E+020
 30
1.0000000000000000E+020
  9
$PEXTMAX
 10
-1.0000000000000000E+020
 20
-1.0000000000000000E+020
 30
-1.0000000000000000E+020
  9
$PLIMMIN
 10
0.0
 20
0.0
  9
$PLIMMAX
 10
12.0
 20
9.0
  9
$UNITMODE
 70
     0
  9
$VISRETAIN
 70
     1
  9
$PLINEGEN
 70
     0
  9
$PSLTSCALE
 70
     1
  0
ENDSEC
  0
SECTION
  2
TABLES
  0
TABLE
  2
VPORT
 70
     1
  0
VPORT
  2
*ACTIVE
 70
     0
 10
0.0
 20
0.0
 11
1.0
 21
1.0
 12
230.81880665403821
 22
127.42999999999989
 13
0.0
 23
0.0
 14
1.0
 24
1.0
 15
0.0
 25
0.0
 16
0.0
 26
0.0
 36
1.0
 17
0.0
 27
0.0
 37
0.0
 40
285.31656392708589
 41
2.5432937181663831
 42
50.0
 43
0.0
 44
0.0
 50
0.0
 51
0.0
 71
     0
 72
   100
 73
     1
 74
     1
 75
     0
 76
     0
 77
     0
 78
     0
  0
ENDTAB
  0
TABLE
  2
LTYPE
 70
     3
  0
LTYPE
  2
CONTINUOUS
 70
     0
  3
Solid line
 72
    65
 73
     0
 40
0.0
  0
LTYPE
  2
AIGENLINE001
 70
     0
  3
generate AI->DXF Converter
 72
    65
 73
     4
 40
5.8561449999999988
 49
3.5278
 49
-0.776115
 49
0.776115
 49
-0.776115
  0
LTYPE
  2
AIGENLINE002
 70
     0
  3
generate AI->DXF Converter
 72
    65
 73
     2
 40
1.5522299999999991
 49
0.776115
 49
-0.776115
  0
ENDTAB
  0
TABLE
  2
LAYER
 70
     2
  0
LAYER
  2
0
 70
     0
 62
     7
  6
CONTINUOUS
  0
LAYER
  2
_________2
 70
     0
 62
     7
  6
CONTINUOUS
  0
ENDTAB
  0
TABLE
  2
STYLE
 70
     1
  0
STYLE
  2
STANDARD
 70
     0
 40
0.0
 41
0.0
 50
0.0
 71
     0
 42
0.0
  3
TXT
  4
EXTFONT.SHX
  0
ENDTAB
  0
TABLE
  2
VIEW
 70
     0
  0
ENDTAB
  0
TABLE
  2
UCS
 70
     0
  0
ENDTAB
  0
TABLE
  2
APPID
 70
     3
  0
APPID
  2
ACAD
 70
     0
  0
APPID
  2
ACAD_NAV_VCDISPLAY
 70
     0
  0
APPID
  2
ACAD_MLEADERVER
 70
     0
  0
ENDTAB
  0
TABLE
  2
DIMSTYLE
 70
     1
  0
DIMSTYLE
  2
STANDARD
 70
     0
  3

  4

  5

  6

  7

 40
1.0
 41
0.18
 42
0.0625
 43
0.38
 44
0.18
 45
0.0
 46
0.0
 47
0.0
 48
0.0
140
0.18
141
0.09
142
0.0
143
25.399999999999999
144
1.0
145
0.0
146
1.0
147
0.09
 71
     0
 72
     0
 73
     1
 74
     1
 75
     0
 76
     0
 77
     0
 78
     0
170
     0
171
     2
172
     0
173
     0
174
     0
175
     0
176
     0
177
     0
178
     0
  0
ENDTAB
  0
ENDSEC
  0
SECTION
  2
BLOCKS
  0
BLOCK
  8
0
  2
$MODEL_SPACE
 70
     0
 10
0.0
 20
0.0
 30
0.0
  3
$MODEL_SPACE
  1

  0
ENDBLK
  5
1A
  8
0
  0
BLOCK
 67
     1
  8
0
  2
$PAPER_SPACE
 70
     0
 10
0.0
 20
0.0
 30
0.0
  3
$PAPER_SPACE
  1

  0
ENDBLK
  5
17
 67
     1
  8
0
  0
ENDSEC
  0
SECTION
  2
ENTITIES
  0
TEXT
  5
23
  8
0
 62
     7
 10
21.356300000000001
 20
40.946300000000001
 30
0.0
 40
4.2168199999999993
  1
※排水栓を閉めた状態で毎分10L以上吐水させないでください。
 41
0.5
  0
TEXT
  5
24
  8
0
 62
     7
 10
145.45411195936941
 20
192.15031463283901
 30
0.0
 40
3.09267
  1
R372
 50
75.665400000000005
 41
0.5
 72
     1
 11
146.15600000000001
 21
194.89699999999999
 31
0.0
  0
TEXT
  5
25
  8
0
 62
     7
 10
155.02753321677361
 20
188.5867520969297
 30
0.0
 40
3.0923899999999991
  1
R214
 50
25.421800000000001
 41
0.5
 72
     1
 11
157.35499999999999
 21
189.69300000000001
 31
0.0
  0
TEXT
  5
26
  8
0
 62
     7
 10
132.52776
 20
143.17099999999999
 30
0.0
 40
3.0923400000000001
  1
カウンター切込寸法
 41
0.5
 72
     1
 11
140.774
 21
143.17099999999999
 31
0.0
  0
TEXT
  5
27
  8
0
 62
     7
 10
143.28552500000001
 20
168.68299999999999
 30
0.0
 40
3.0923400000000001
  1
76
 41
0.5
 72
     1
 11
144.5739999999999
 21
168.68299999999999
 31
0.0
  0
TEXT
  5
28
  8
0
 62
     7
 10
138.84128749999999
 20
151.47300000000001
 30
0.0
 40
3.0923400000000001
  1
580
 41
0.5
 72
     1
 11
140.774
 21
151.47300000000001
 31
0.0
  0
TEXT
  5
29
  8
0
 62
     7
 10
132.542
 20
175.95298249999999
 30
0.0
 40
3.0923400000000001
  1
140
 50
90.0
 41
0.5
 72
     1
 11
132.542
 21
177.62799999999999
 31
0.0
  0
TEXT
  5
2A
  8
0
 62
     7
 10
179.21599999999989
 20
182.56644
 30
0.0
 40
3.0923400000000001
  1
464
 50
90.0
 41
0.5
 72
     1
 11
179.21599999999989
 21
184.62799999999999
 31
0.0
  0
TEXT
  5
2B
  8
0
 62
     7
 10
80.067980000000006
 20
214.29300000000001
 30
0.0
 40
3.0923400000000001
  1
%%c35
 41
0.5
 72
     2
 11
84.191100000000006
 21
214.29300000000001
 31
0.0
  0
TEXT
  5
2C
  8
0
 62
     7
 10
55.633499999999991
 20
182.06399999999999
 30
0.0
 40
3.0923400000000001
  1
%%c46
 41
0.5
  0
TEXT
  5
2D
  8
0
 62
     7
 10
36.945099999999996
 20
198.48952499999999
 30
0.0
 40
3.0923400000000001
  1
55
 50
90.0
 41
0.5
 72
     1
 11
36.945099999999996
 21
199.77799999999999
 31
0.0
  0
TEXT
  5
2E
  8
0
 62
     7
 10
24.296700000000001
 20
182.56644
 30
0.0
 40
3.0923400000000001
  1
495
 50
90.0
 41
0.5
 72
     1
 11
24.296700000000001
 21
184.62799999999999
 31
0.0
  0
TEXT
  5
2F
  8
0
 62
     7
 10
31.453199999999999
 20
178.56644
 30
0.0
 40
3.0923400000000001
  1
325
 50
90.0
 41
0.5
 72
     1
 11
31.453199999999999
 21
180.62799999999999
 31
0.0
  0
TEXT
  5
30
  8
0
 62
     7
 10
31.453199999999999
 20
201.274135
 30
0.0
 40
3.0923400000000001
  1
125
 50
90.0
 41
0.5
 72
     1
 11
31.453199999999999
 21
203.078
 31
0.0
  0
TEXT
  5
31
  8
0
 62
     7
 10
36.945099999999996
 20
204.74337249999999
 30
0.0
 40
3.0923400000000001
  1
70
 50
90.0
 41
0.5
 72
     1
 11
36.945099999999996
 21
205.90299999999999
 31
0.0
  0
TEXT
  5
32
  8
0
 62
     7
 10
100.73099999999999
 20
198.21837249999999
 30
0.0
 40
3.0923400000000001
  1
50
 50
90.0
 41
0.5
 72
     1
 11
100.73099999999999
 21
199.37799999999999
 31
0.0
  0
TEXT
  5
33
  8
0
 62
     7
 10
100.73099999999999
 20
204.33752499999991
 30
0.0
 40
3.0923400000000001
  1
75
 50
90.0
 41
0.5
 72
     1
 11
100.73099999999999
 21
205.626
 31
0.0
  0
TEXT
  5
34
  8
0
 62
     7
 10
60.576530000000012
 20
218.494
 30
0.0
 40
3.0923400000000001
  1
100
 41
0.5
 72
     1
 11
62.122700000000002
 21
218.494
 31
0.0
  0
TEXT
  5
35
  8
0
 62
     7
 10
70.576329999999999
 20
218.494
 30
0.0
 40
3.0923400000000001
  1
100
 41
0.5
 72
     1
 11
72.122500000000002
 21
218.494
 31
0.0
  0
TEXT
  5
36
  8
0
 62
     7
 10
65.318735000000004
 20
141.643
 30
0.0
 40
3.0923400000000001
  1
615
 41
0.5
 72
     1
 11
67.122600000000006
 21
141.643
 31
0.0
  0
TEXT
  5
37
  8
0
 62
     7
 10
65.061040000000006
 20
149.024
 30
0.0
 40
3.0923400000000001
  1
475
 41
0.5
 72
     1
 11
67.122600000000006
 21
149.024
 31
0.0
  0
TEXT
  5
38
  8
0
 62
     7
 10
168.458
 20
107.021745
 30
0.0
 40
3.0923400000000001
  1
20
 50
90.0
 41
0.5
 72
     2
 11
168.458
 21
109.34099999999999
 31
0.0
  0
TEXT
  5
39
  8
0
 62
     7
 10
108.626
 20
106.77943999999999
 30
0.0
 40
3.0923400000000001
  1
15
 50
90.0
 41
0.5
 72
     2
 11
108.626
 21
108.84099999999999
 31
0.0
  0
TEXT
  5
3A
  8
0
 62
     7
 10
31.765699999999999
 20
106.77943999999999
 30
0.0
 40
3.0923400000000001
  1
15
 50
90.0
 41
0.5
 72
     2
 11
31.765699999999999
 21
108.84099999999999
 31
0.0
  0
TEXT
  5
3B
  8
0
 62
     7
 10
27.0593
 20
91.274887500000006
 30
0.0
 40
3.0923400000000001
  1
205
 50
90.0
 41
0.5
 72
     1
 11
27.0593
 21
93.207599999999985
 31
0.0
  0
TEXT
  5
3C
  8
0
 62
     7
 10
141.55199999999999
 20
93.903935000000004
 30
0.0
 40
3.0923400000000001
  1
155
 50
90.0
 41
0.5
 72
     1
 11
141.55199999999999
 21
95.707800000000006
 31
0.0
  0
TEXT
  5
3D
  8
0
 62
     7
 10
149.96243999999999
 20
76.374499999999998
 30
0.0
 40
3.0923400000000001
  1
225
 41
0.5
 72
     1
 11
152.024
 21
76.374499999999998
 31
0.0
  0
LINE
  5
3E
  8
0
 62
     7
 10
67.122900000000001
 20
103.958
 30
0.0
 11
37.872900000000001
 21
103.458
 31
0.0
  0
LINE
  5
3F
  8
0
 62
     7
 10
67.122900000000001
 20
103.958
 30
0.0
 11
96.37299999999999
 21
103.458
 31
0.0
  0
LINE
  5
40
  8
0
 62
     7
 10
163.274
 20
102.458
 30
0.0
 11
163.274
 21
102.958
 31
0.0
  0
ARC
  5
41
  8
0
  6
AIGENLINE002
 62
     7
 10
162.2748409999999
 20
102.951595
 30
0.0
 40
1.006197
 50
90.048997999999997
 51
113.73321900000001
  0
LINE
  5
42
  8
0
  6
AIGENLINE002
 62
     7
 10
115.273
 20
103.458
 30
0.0
 11
159.99799999999999
 21
103.458
 31
0.0
  0
ARC
  5
43
  8
0
 62
     7
 10
162.23534599999999
 20
102.919039
 30
0.0
 40
1.0394709999999989
 50
2.1300520000000001
 51
87.869938000000005
  0
ARC
  5
44
  8
0
  6
AIGENLINE002
 62
     7
 10
159.87632300000001
 20
108.451756
 30
0.0
 40
4.9941969999999989
 50
269.95488399999999
 51
293.52645799999999
  0
LINE
  5
45
  8
0
 62
     7
 10
148.374
 20
167.28999999999999
 30
0.0
 11
148.374
 21
183.33699999999999
 31
0.0
  0
LINE
  5
46
  8
0
 62
     7
 10
139.482
 20
170.62799999999999
 30
0.0
 11
132.54900000000001
 21
170.62799999999999
 31
0.0
  0
LINE
  5
47
  8
0
  6
AIGENLINE001
 62
     7
 10
148.965
 20
184.62799999999999
 30
0.0
 11
147.78200000000001
 21
184.62799999999999
 31
0.0
  0
LINE
  5
48
  8
0
  6
AIGENLINE001
 62
     7
 10
148.374
 20
185.21899999999999
 30
0.0
 11
148.374
 21
184.03700000000001
 31
0.0
  0
LINE
  5
49
  8
0
  6
AIGENLINE001
 62
     7
 10
141.36500000000001
 20
170.62799999999999
 30
0.0
 11
140.18199999999999
 21
170.62799999999999
 31
0.0
  0
LINE
  5
4A
  8
0
  6
AIGENLINE001
 62
     7
 10
140.774
 20
171.21899999999999
 30
0.0
 11
140.774
 21
170.03700000000001
 31
0.0
  0
ARC
  5
4B
  8
0
 62
     7
 10
140.60421299999999
 20
199.36201199999999
 30
0.0
 40
37.847376000000011
 50
244.08212700000001
 51
246.93477799999999
  0
ARC
  5
4C
  8
0
 62
     7
 10
134.953215
 20
187.59132299999999
 30
0.0
 40
24.790692
 50
233.02288799999991
 51
243.938523
  0
ARC
  5
4D
  8
0
 62
     7
 10
143.07179500000001
 20
198.467151
 30
0.0
 40
38.362462000000001
 50
231.48972499999999
 51
233.10657399999999
  0
ARC
  5
4E
  8
0
 62
     7
 10
140.789424
 20
198.89980499999999
 30
0.0
 40
37.471603999999999
 50
250.62938500000001
 51
269.97648199999998
  0
ARC
  5
4F
  8
0
 62
     7
 10
162.432794
 20
259.86650600000002
 30
0.0
 40
102.165961
 50
250.035854
 51
250.51895300000001
  0
ARC
  5
50
  8
0
 62
     7
 10
140.57286300000001
 20
199.66091900000001
 30
0.0
 40
38.114660999999998
 50
247.889385
 51
250.021063
  0
ARC
  5
51
  8
0
 62
     7
 10
134.28590399999999
 20
183.981245
 30
0.0
 40
21.221841999999999
 50
246.360668
 51
247.68106499999999
  0
ARC
  5
52
  8
0
 62
     7
 10
133.54718800000001
 20
184.81484599999999
 30
0.0
 40
21.774258
 50
180.49086
 51
228.73176900000001
  0
ARC
  5
53
  8
0
 62
     7
 10
140.94351700000001
 20
199.36201199999999
 30
0.0
 40
37.847376000000011
 50
293.06524200000001
 51
295.91789199999999
  0
ARC
  5
54
  8
0
 62
     7
 10
146.594515
 20
187.59132299999999
 30
0.0
 40
24.790692
 50
296.06149699999997
 51
306.97713199999998
  0
ARC
  5
55
  8
0
 62
     7
 10
138.47593499999999
 20
198.467151
 30
0.0
 40
38.362462000000001
 50
306.89344599999998
 51
308.51029399999999
  0
ARC
  5
56
  8
0
 62
     7
 10
140.75864999999999
 20
198.89980499999999
 30
0.0
 40
37.471603999999999
 50
270.02353799999997
 51
289.37063499999999
  0
ARC
  5
57
  8
0
 62
     7
 10
120.082532
 20
257.13309700000002
 30
0.0
 40
99.266460999999993
 50
289.48089299999998
 51
289.99057599999998
  0
ARC
  5
58
  8
0
 62
     7
 10
141.07314700000001
 20
199.40431100000001
 30
0.0
 40
37.839933000000009
 50
290.005067
 51
292.11901399999999
  0
ARC
  5
59
  8
0
 62
     7
 10
147.26182600000001
 20
183.981245
 30
0.0
 40
21.221841999999999
 50
292.31895500000002
 51
293.63935199999997
  0
ARC
  5
5A
  8
0
 62
     7
 10
148.000541
 20
184.81484599999999
 30
0.0
 40
21.774258
 50
311.26825099999991
 51
359.50916000000001
  0
ARC
  5
5B
  8
0
 62
     7
 10
140.70419899999999
 20
169.6728949999999
 30
0.0
 40
38.090226000000001
 50
113.07314
 51
115.907572
  0
ARC
  5
5C
  8
0
 62
     7
 10
134.95473100000001
 20
181.660279
 30
0.0
 40
24.7956
 50
116.059831
 51
126.97296
  0
ARC
  5
5D
  8
0
 62
     7
 10
143.108948
 20
170.740408
 30
0.0
 40
38.423991000000001
 50
126.893829
 51
128.50806800000001
  0
ARC
  5
5E
  8
0
 62
     7
 10
140.78545600000001
 20
170.38578100000001
 30
0.0
 40
37.442641999999999
 50
90.017463000000006
 51
109.37975900000001
  0
ARC
  5
5F
  8
0
 62
     7
 10
167.36779300000001
 20
95.611777000000004
 30
0.0
 40
116.801007
 50
109.509293
 51
109.94255699999999
  0
ARC
  5
60
  8
0
 62
     7
 10
140.405069
 20
170.02604600000001
 30
0.0
 40
37.652613000000009
 50
109.996077
 51
112.1206659999999
  0
ARC
  5
61
  8
0
 62
     7
 10
134.24397200000001
 20
185.38713000000001
 30
0.0
 40
21.102342
 50
112.329061
 51
113.657073
  0
ARC
  5
62
  8
0
 62
     7
 10
133.54718800000001
 20
184.44177999999999
 30
0.0
 40
21.774258
 50
131.26823099999999
 51
179.50914
  0
ARC
  5
63
  8
0
 62
     7
 10
140.84353100000001
 20
169.6728949999999
 30
0.0
 40
38.090226000000001
 50
64.092407999999992
 51
66.92684100000001
  0
ARC
  5
64
  8
0
 62
     7
 10
146.59299899999999
 20
181.660279
 30
0.0
 40
24.7956
 50
53.027020999999998
 51
63.940148999999998
  0
ARC
  5
65
  8
0
 62
     7
 10
138.438782
 20
170.740408
 30
0.0
 40
38.423991000000001
 50
51.491911999999999
 51
53.106150999999997
  0
ARC
  5
66
  8
0
 62
     7
 10
140.762618
 20
170.38578100000001
 30
0.0
 40
37.442641999999999
 50
70.620221000000001
 51
89.982517000000001
  0
ARC
  5
67
  8
0
 62
     7
 10
115.12436700000001
 20
98.275649999999985
 30
0.0
 40
113.97478700000001
 50
70.04692
 51
70.490815999999995
  0
ARC
  5
68
  8
0
 62
     7
 10
141.12003999999999
 20
169.97006500000001
 30
0.0
 40
37.712992
 50
67.879503999999983
 51
70.000538000000006
  0
ARC
  5
69
  8
0
 62
     7
 10
147.30375699999999
 20
185.38713000000001
 30
0.0
 40
21.102342
 50
66.342907999999994
 51
67.670918999999998
  0
ARC
  5
6A
  8
0
 62
     7
 10
148.000541
 20
184.44177999999999
 30
0.0
 40
21.774258
 50
0.4908399999999999
 51
48.731749000000001
  0
LINE
  5
6B
  8
0
  6
AIGENLINE001
 62
     7
 10
140.774
 20
211.44
 30
0.0
 11
140.774
 21
158.346
 31
0.0
  0
LINE
  5
6C
  8
0
  6
AIGENLINE001
 62
     7
 10
107.652
 20
184.62799999999999
 30
0.0
 11
174.50399999999999
 21
184.62799999999999
 31
0.0
  0
LINE
  5
6D
  8
0
 62
     7
 10
150.012
 20
204.38999999999999
 30
0.0
 11
149.98599999999999
 21
206.678
 31
0.0
  0
LINE
  5
6E
  8
0
 62
     7
 10
149.98599999999999
 20
206.678
 30
0.0
 11
148.86500000000001
 21
204.68299999999999
 31
0.0
  0
LINE
  5
6F
  8
0
 62
     7
 10
148.86500000000001
 20
204.68299999999999
 30
0.0
 11
150.012
 21
204.38999999999999
 31
0.0
  0
LINE
  5
70
  8
0
 62
     7
 10
149.98599999999999
 20
206.678
 30
0.0
 11
140.774
 21
170.62799999999999
 31
0.0
  0
LINE
  5
71
  8
0
 62
     7
 10
165.95500000000001
 20
192.33000000000001
 30
0.0
 11
167.69800000000001
 21
193.815
 31
0.0
  0
LINE
  5
72
  8
0
 62
     7
 10
167.69800000000001
 20
193.815
 30
0.0
 11
165.447
 21
193.40000000000001
 31
0.0
  0
LINE
  5
73
  8
0
 62
     7
 10
165.447
 20
193.40000000000001
 30
0.0
 11
165.95500000000001
 21
192.33000000000001
 31
0.0
  0
LINE
  5
74
  8
0
 62
     7
 10
167.69800000000001
 20
193.815
 30
0.0
 11
148.374
 21
184.62799999999999
 31
0.0
  0
LINE
  5
75
  8
0
 62
     7
 10
111.774
 20
150.072
 30
0.0
 11
111.774
 21
178.99299999999999
 31
0.0
  0
LINE
  5
76
  8
0
 62
     7
 10
169.774
 20
150.072
 30
0.0
 11
169.774
 21
178.99299999999999
 31
0.0
  0
LINE
  5
77
  8
0
 62
     7
 10
142.98400000000001
 20
168.56800000000001
 30
0.0
 11
140.774
 21
167.97499999999999
 31
0.0
  0
LINE
  5
78
  8
0
 62
     7
 10
140.774
 20
167.97499999999999
 30
0.0
 11
142.98400000000001
 21
167.38300000000001
 31
0.0
  0
LINE
  5
79
  8
0
 62
     7
 10
142.98400000000001
 20
167.38300000000001
 30
0.0
 11
142.98400000000001
 21
168.56800000000001
 31
0.0
  0
LINE
  5
7A
  8
0
 62
     7
 10
146.16399999999999
 20
167.398
 30
0.0
 11
148.374
 21
167.99000000000001
 31
0.0
  0
LINE
  5
7B
  8
0
 62
     7
 10
148.374
 20
167.99000000000001
 30
0.0
 11
146.16399999999999
 21
168.58199999999999
 31
0.0
  0
LINE
  5
7C
  8
0
 62
     7
 10
146.16399999999999
 20
168.58199999999999
 30
0.0
 11
146.16399999999999
 21
167.398
 31
0.0
  0
LINE
  5
7D
  8
0
 62
     7
 10
140.774
 20
167.983
 30
0.0
 11
148.374
 21
167.983
 31
0.0
  0
LINE
  5
7E
  8
0
 62
     7
 10
113.98399999999999
 20
151.357
 30
0.0
 11
111.774
 21
150.76499999999999
 31
0.0
  0
LINE
  5
7F
  8
0
 62
     7
 10
111.774
 20
150.76499999999999
 30
0.0
 11
113.98399999999999
 21
150.173
 31
0.0
  0
LINE
  5
80
  8
0
 62
     7
 10
113.98399999999999
 20
150.173
 30
0.0
 11
113.98399999999999
 21
151.357
 31
0.0
  0
LINE
  5
81
  8
0
 62
     7
 10
167.56399999999999
 20
150.18700000000001
 30
0.0
 11
169.774
 21
150.78
 31
0.0
  0
LINE
  5
82
  8
0
 62
     7
 10
169.774
 20
150.78
 30
0.0
 11
167.56399999999999
 21
151.37200000000001
 31
0.0
  0
LINE
  5
83
  8
0
 62
     7
 10
167.56399999999999
 20
151.37200000000001
 30
0.0
 11
167.56399999999999
 21
150.18700000000001
 31
0.0
  0
LINE
  5
84
  8
0
 62
     7
 10
111.774
 20
150.77199999999999
 30
0.0
 11
169.774
 21
150.77199999999999
 31
0.0
  0
LINE
  5
85
  8
0
 62
     7
 10
180.61600000000001
 20
161.428
 30
0.0
 11
147.51599999999999
 21
161.428
 31
0.0
  0
LINE
  5
86
  8
0
 62
     7
 10
180.61600000000001
 20
207.828
 30
0.0
 11
147.51599999999999
 21
207.828
 31
0.0
  0
LINE
  5
87
  8
0
 62
     7
 10
132.65700000000001
 20
172.839
 30
0.0
 11
133.249
 21
170.62799999999999
 31
0.0
  0
LINE
  5
88
  8
0
 62
     7
 10
133.249
 20
170.62799999999999
 30
0.0
 11
133.84100000000001
 21
172.839
 31
0.0
  0
LINE
  5
89
  8
0
 62
     7
 10
133.84100000000001
 20
172.839
 30
0.0
 11
132.65700000000001
 21
172.839
 31
0.0
  0
LINE
  5
8A
  8
0
 62
     7
 10
133.827
 20
182.417
 30
0.0
 11
133.23400000000001
 21
184.62799999999999
 31
0.0
  0
LINE
  5
8B
  8
0
 62
     7
 10
133.23400000000001
 20
184.62799999999999
 30
0.0
 11
132.643
 21
182.417
 31
0.0
  0
LINE
  5
8C
  8
0
 62
     7
 10
132.643
 20
182.417
 30
0.0
 11
133.827
 21
182.417
 31
0.0
  0
LINE
  5
8D
  8
0
 62
     7
 10
133.24199999999999
 20
170.62799999999999
 30
0.0
 11
133.24199999999999
 21
184.62799999999999
 31
0.0
  0
LINE
  5
8E
  8
0
 62
     7
 10
179.33099999999999
 20
163.63900000000001
 30
0.0
 11
179.923
 21
161.428
 31
0.0
  0
LINE
  5
8F
  8
0
 62
     7
 10
179.923
 20
161.428
 30
0.0
 11
180.51599999999999
 21
163.63900000000001
 31
0.0
  0
LINE
  5
90
  8
0
 62
     7
 10
180.51599999999999
 20
163.63900000000001
 30
0.0
 11
179.33099999999999
 21
163.63900000000001
 31
0.0
  0
LINE
  5
91
  8
0
 62
     7
 10
180.501
 20
205.61699999999999
 30
0.0
 11
179.90899999999999
 21
207.828
 31
0.0
  0
LINE
  5
92
  8
0
 62
     7
 10
179.90899999999999
 20
207.828
 30
0.0
 11
179.31700000000001
 21
205.61699999999999
 31
0.0
  0
LINE
  5
93
  8
0
 62
     7
 10
179.31700000000001
 20
205.61699999999999
 30
0.0
 11
180.501
 21
205.61699999999999
 31
0.0
  0
LINE
  5
94
  8
0
 62
     7
 10
179.916
 20
161.428
 30
0.0
 11
179.916
 21
207.828
 31
0.0
  0
LINE
  5
95
  8
0
  6
AIGENLINE001
 62
     7
 10
116.51000000000001
 20
98.639600000000002
 30
0.0
 11
121.285
 21
100.154
 31
0.0
  0
ARC
  5
96
  8
0
  6
AIGENLINE002
 62
     7
 10
116.88613599999999
 20
101.910892
 30
0.0
 40
1.547533
 50
10.238792999999999
 51
88.514769999999999
  0
ARC
  5
97
  8
0
 62
     7
 10
145.77943999999999
 20
88.513640000000024
 30
0.0
 40
2.0564059999999991
 50
271.12336900000003
 51
341.03485599999999
  0
ARC
  5
98
  8
0
  6
AIGENLINE002
 62
     7
 10
145.52673899999999
 20
88.985646000000003
 30
0.0
 40
1.0282100000000001
 50
271.123651
 51
341.03457400000002
  0
ARC
  5
99
  8
0
  6
AIGENLINE002
 62
     7
 10
-87.865966999999998
 20
164.379075
 30
0.0
 40
246.295751
 50
342.09248300000002
 51
345.40970499999997
  0
ARC
  5
9A
  8
0
 62
     7
 10
-89.080452000000008
 20
163.871286
 30
0.0
 40
248.70902899999999
 50
342.19853000000001
 51
345.49444899999997
  0
ARC
  5
9B
  8
0
  6
AIGENLINE002
 62
     7
 10
151.973894
 20
101.912753
 30
0.0
 40
1.545531999999999
 50
91.269118000000006
 51
164.13944499999999
  0
ARC
  5
9C
  8
0
 62
     7
 10
152.198103
 20
101.443208
 30
0.0
 40
0.514828
 50
91.310063999999997
 51
164.236177
  0
LINE
  5
9D
  8
0
  6
AIGENLINE002
 62
     7
 10
143.07400000000001
 20
82.957700000000003
 30
0.0
 11
143.07400000000001
 21
86.457599999999999
 31
0.0
  0
LINE
  5
9E
  8
0
  6
AIGENLINE002
 62
     7
 10
138.47399999999999
 20
82.957700000000003
 30
0.0
 11
138.47399999999999
 21
86.457599999999999
 31
0.0
  0
ARC
  5
9F
  8
0
 62
     7
 10
137.231899
 20
83.165965000000014
 30
0.0
 40
0.208373
 50
182.21915799999999
 51
267.87940300000002
  0
ARC
  5
A0
  8
0
 62
     7
 10
144.31621999999999
 20
83.165203999999989
 30
0.0
 40
0.207611
 50
272.116062
 51
357.98264899999998
  0
ARC
  5
A1
  8
0
 62
     7
 10
136.712343
 20
83.846342000000007
 30
0.0
 40
0.3115429999999999
 50
2.070729
 51
87.863442000000006
  0
ARC
  5
A2
  8
0
 62
     7
 10
136.712264
 20
86.146224000000004
 30
0.0
 40
0.3116239999999999
 50
2.0845829999999999
 51
87.849587999999997
  0
LINE
  5
A3
  8
0
 62
     7
 10
137.024
 20
83.157899999999984
 30
0.0
 11
137.024
 21
86.157599999999988
 31
0.0
  0
ARC
  5
A4
  8
0
 62
     7
 10
144.83577099999999
 20
86.145546999999993
 30
0.0
 40
0.3123
 50
92.138633999999996
 51
177.795592
  0
LINE
  5
A5
  8
0
 62
     7
 10
162.274
 20
103.958
 30
0.0
 11
115.273
 21
103.458
 31
0.0
  0
LINE
  5
A6
  8
0
 62
     7
 10
162.774
 20
101.958
 30
0.0
 11
114.274
 21
101.958
 31
0.0
  0
ARC
  5
A7
  8
0
 62
     7
 10
114.273506
 20
102.45813200000001
 30
0.0
 40
0.5002310000000002
 50
179.99996999999999
 51
270.00002000000001
  0
ARC
  5
A8
  8
0
 62
     7
 10
115.36520400000001
 20
101.69483700000001
 30
0.0
 40
1.765463
 50
92.984656000000001
 51
154.38330400000001
  0
ARC
  5
A9
  8
0
 62
     7
 10
162.773867
 20
102.45813200000001
 30
0.0
 40
0.5002310000000002
 50
270.00002000000001
 51
359.99999000000003
  0
ARC
  5
AA
  8
0
  6
AIGENLINE002
 62
     7
 10
136.44118800000001
 20
93.522901000000005
 30
0.0
 40
5.565529999999999
 50
268.52909199999999
 51
270.55606999999998
  0
ARC
  5
AB
  8
0
  6
AIGENLINE002
 62
     7
 10
136.63407900000001
 20
104.303451
 30
0.0
 40
16.347694000000001
 50
265.61083100000002
 51
268.82316600000001
  0
ARC
  5
AC
  8
0
  6
AIGENLINE002
 62
     7
 10
137.123234
 20
111.47747099999999
 30
0.0
 40
23.538188999999999
 50
248.32722000000001
 51
265.76007499999997
  0
ARC
  5
AD
  8
0
  6
AIGENLINE002
 62
     7
 10
135.350022
 20
106.631415
 30
0.0
 40
18.380400000000002
 50
234.54822799999999
 51
247.88514799999999
  0
ARC
  5
AE
  8
0
  6
AIGENLINE002
 62
     7
 10
133.48842300000001
 20
103.772401
 30
0.0
 40
14.972348999999999
 50
219.820527
 51
234.00553400000001
  0
ARC
  5
AF
  8
0
  6
AIGENLINE002
 62
     7
 10
133.80337299999999
 20
103.93682800000001
 30
0.0
 40
15.319729000000001
 50
208.250067
 51
219.53852900000001
  0
ARC
  5
B0
  8
0
  6
AIGENLINE002
 62
     7
 10
135.96956299999999
 20
105.223122
 30
0.0
 40
17.837060000000001
 50
193.153042
 51
208.596283
  0
ARC
  5
B1
  8
0
  6
AIGENLINE002
 62
     7
 10
131.823905
 20
104.167134
 30
0.0
 40
13.560133
 50
188.393777
 51
192.794183
  0
ARC
  5
B2
  8
0
 62
     7
 10
136.474827
 20
91.325250999999994
 30
0.0
 40
4.8676440000000003
 50
267.51969400000002
 51
269.82620600000001
  0
ARC
  5
B3
  8
0
 62
     7
 10
136.84813399999999
 20
102.716105
 30
0.0
 40
16.264424000000002
 50
264.712853
 51
267.94241399999999
  0
ARC
  5
B4
  8
0
 62
     7
 10
137.55021099999999
 20
110.952656
 30
0.0
 40
24.530698999999998
 50
245.35473500000001
 51
264.85272900000001
  0
ARC
  5
B5
  8
0
 62
     7
 10
135.69733099999999
 20
106.6277
 30
0.0
 40
19.827427
 50
229.432953
 51
245.00967900000001
  0
ARC
  5
B6
  8
0
 62
     7
 10
134.17093700000001
 20
104.604494
 30
0.0
 40
17.298542999999999
 50
222.25376200000011
 51
228.91542200000001
  0
ARC
  5
B7
  8
0
 62
     7
 10
131.26806099999999
 20
101.95001600000001
 30
0.0
 40
13.365004000000001
 50
211.77637799999999
 51
222.198723
  0
ARC
  5
B8
  8
0
 62
     7
 10
134.17485300000001
 20
103.85758199999999
 30
0.0
 40
16.840876000000002
 50
202.16846899999999
 51
212.08566999999999
  0
ARC
  5
B9
  8
0
 62
     7
 10
138.51360299999999
 20
105.76292599999999
 30
0.0
 40
21.578220000000002
 50
190.156454
 51
202.50662800000001
  0
LINE
  5
BA
  8
0
 62
     7
 10
136.72399999999999
 20
84.157700000000006
 30
0.0
 11
136.499
 21
84.157700000000006
 31
0.0
  0
ARC
  5
BB
  8
0
 62
     7
 10
136.86910499999999
 20
90.087760000000003
 30
0.0
 40
5.9416079999999996
 50
264.49134700000002
 51
266.43196499999999
  0
ARC
  5
BC
  8
0
 62
     7
 10
137.97896499999999
 20
102.53043099999999
 30
0.0
 40
18.433575999999999
 50
261.84092900000002
 51
264.77020399999998
  0
ARC
  5
BD
  8
0
 62
     7
 10
139.226595
 20
111.588596
 30
0.0
 40
27.577165000000001
 50
244.47898599999999
 51
261.94596000000001
  0
ARC
  5
BE
  8
0
 62
     7
 10
137.000486
 20
106.635935
 30
0.0
 40
22.148999
 50
231.53990200000001
 51
244.15584999999999
  0
ARC
  5
BF
  8
0
 62
     7
 10
134.836412
 20
103.66379000000001
 30
0.0
 40
18.476341000000001
 50
222.34713199999999
 51
231.06226100000001
  0
ARC
  5
C0
  8
0
 62
     7
 10
136.014343
 20
104.682501
 30
0.0
 40
20.033189
 50
210.37649400000001
 51
222.23109500000001
  0
ARC
  5
C1
  8
0
 62
     7
 10
134.07963699999999
 20
103.38104300000001
 30
0.0
 40
17.706544999999998
 50
195.72868800000001
 51
209.90905599999999
  0
ARC
  5
C2
  8
0
 62
     7
 10
140.594313
 20
105.376406
 30
0.0
 40
24.518681000000001
 50
192.12993499999999
 51
196.09004799999991
  0
ARC
  5
C3
  8
0
 62
     7
 10
158.393992
 20
109.36033399999999
 30
0.0
 40
42.758378
 50
191.32123100000001
 51
192.3373
  0
ARC
  5
C4
  8
0
 62
     7
 10
256.46290299999998
 20
128.855695
 30
0.0
 40
142.746252
 50
190.861242
 51
191.26672099999999
  0
LINE
  5
C5
  8
0
 62
     7
 10
145.81999999999999
 20
86.457599999999999
 30
0.0
 11
136.46000000000001
 21
86.457599999999999
 31
0.0
  0
LINE
  5
C6
  8
0
  6
AIGENLINE002
 62
     7
 10
145.547
 20
87.957599999999985
 30
0.0
 11
136.495
 21
87.957599999999985
 31
0.0
  0
LINE
  5
C7
  8
0
  6
AIGENLINE002
 62
     7
 10
144.524
 20
87.957599999999985
 30
0.0
 11
143.07400000000001
 21
86.457599999999999
 31
0.0
  0
LINE
  5
C8
  8
0
  6
AIGENLINE002
 62
     7
 10
138.47399999999999
 20
86.457599999999999
 30
0.0
 11
137.024
 21
87.957599999999985
 31
0.0
  0
LINE
  5
C9
  8
0
  6
AIGENLINE002
 62
     7
 10
143.07400000000001
 20
86.457599999999999
 30
0.0
 11
138.47399999999999
 21
86.457599999999999
 31
0.0
  0
LINE
  5
CA
  8
0
 62
     7
 10
144.32400000000001
 20
82.957700000000003
 30
0.0
 11
137.22399999999999
 21
82.957700000000003
 31
0.0
  0
LINE
  5
CB
  8
0
 62
     7
 10
144.524
 20
83.157899999999984
 30
0.0
 11
144.524
 21
86.157599999999988
 31
0.0
  0
LINE
  5
CC
  8
0
  6
AIGENLINE001
 62
     7
 10
140.774
 20
81.605199999999996
 30
0.0
 11
140.774
 21
89.789100000000005
 31
0.0
  0
ARC
  5
CD
  8
0
 62
     7
 10
94.839787999999999
 20
99.658450000000016
 30
0.0
 40
2.315042
 50
96.653176000000016
 51
168.65817000000001
  0
LINE
  5
CE
  8
0
 62
     7
 10
94.571600000000004
 20
101.958
 30
0.0
 11
97.373099999999994
 21
101.958
 31
0.0
  0
ARC
  5
CF
  8
0
 62
     7
 10
97.353809999999996
 20
102.477103
 30
0.0
 40
0.519562
 50
272.13204200000001
 51
357.90744100000001
  0
ARC
  5
D0
  8
0
 62
     7
 10
96.282244999999989
 20
101.696561
 30
0.0
 40
1.7636810000000001
 50
25.582311000000001
 51
87.049689999999998
  0
LINE
  5
D1
  8
0
 62
     7
 10
96.37299999999999
 20
103.458
 30
0.0
 11
67.122900000000001
 21
103.458
 31
0.0
  0
LINE
  5
D2
  8
0
 62
     7
 10
67.122900000000001
 20
103.458
 30
0.0
 11
37.872500000000002
 21
103.458
 31
0.0
  0
ARC
  5
D3
  8
0
 62
     7
 10
37.964432000000009
 20
101.694856
 30
0.0
 40
1.7654430000000001
 50
92.984284999999986
 51
154.38367500000001
  0
ARC
  5
D4
  8
0
 62
     7
 10
36.872745000000002
 20
102.45813200000001
 30
0.0
 40
0.5002310000000002
 50
179.99996999999999
 51
270.00002000000001
  0
LINE
  5
D5
  8
0
 62
     7
 10
36.872700000000002
 20
101.958
 30
0.0
 11
39.674300000000002
 21
101.958
 31
0.0
  0
ARC
  5
D6
  8
0
 62
     7
 10
39.407203000000003
 20
99.659650999999997
 30
0.0
 40
2.3137199999999991
 50
11.318027000000001
 51
83.370587
  0
ARC
  5
D7
  8
0
 62
     7
 10
58.088578000000012
 20
103.784741
 30
0.0
 40
16.818187000000002
 50
192.60782900000001
 51
247.62992199999999
  0
ARC
  5
D8
  8
0
 62
     7
 10
64.530737000000002
 20
119.430657
 30
0.0
 40
33.738473999999997
 50
247.62531999999999
 51
267.41274399999998
  0
ARC
  5
D9
  8
0
 62
     7
 10
62.966574000000001
 20
85.208880000000008
 30
0.0
 40
0.5193310000000001
 50
2.0032570000000001
 51
85.452466999999984
  0
LINE
  5
DA
  8
0
 62
     7
 10
63.485599999999991
 20
85.227000000000004
 30
0.0
 11
63.485599999999991
 21
82.957700000000003
 31
0.0
  0
LINE
  5
DB
  8
0
 62
     7
 10
63.485599999999991
 20
82.957700000000003
 30
0.0
 11
67.122900000000001
 21
82.957700000000003
 31
0.0
  0
LINE
  5
DC
  8
0
 62
     7
 10
67.122900000000001
 20
82.957700000000003
 30
0.0
 11
70.760300000000001
 21
82.957700000000003
 31
0.0
  0
LINE
  5
DD
  8
0
 62
     7
 10
70.760300000000001
 20
82.957700000000003
 30
0.0
 11
70.760300000000001
 21
85.227000000000004
 31
0.0
  0
ARC
  5
DE
  8
0
 62
     7
 10
71.278716000000003
 20
85.209447999999995
 30
0.0
 40
0.518717
 50
94.487028000000024
 51
178.05720700000001
  0
ARC
  5
DF
  8
0
 62
     7
 10
69.712385999999995
 20
119.44313099999999
 30
0.0
 40
33.751060000000003
 50
272.591002
 51
292.37097299999999
  0
ARC
  5
E0
  8
0
 62
     7
 10
76.157561999999984
 20
103.784525
 30
0.0
 40
16.817889999999998
 50
292.36957200000001
 51
347.392717
  0
ARC
  5
E1
  8
0
 62
     7
 10
72.608579000000006
 20
85.820072999999994
 30
0.0
 40
3.678007
 50
182.08488500000001
 51
217.867931
  0
ARC
  5
E2
  8
0
 62
     7
 10
69.733477000000008
 20
119.019184
 30
0.0
 40
33.326591999999998
 50
268.63020899999998
 51
272.58772900000002
  0
ARC
  5
E3
  8
0
 62
     7
 10
61.639778
 20
85.819174000000004
 30
0.0
 40
3.6755029999999991
 50
322.11948799999999
 51
357.92773499999998
  0
ARC
  5
E4
  8
0
 62
     7
 10
64.515431000000007
 20
119.303641
 30
0.0
 40
33.610897999999999
 50
267.429036
 51
271.35306600000001
  0
LINE
  5
E5
  8
0
 62
     7
 10
65.312899999999999
 20
85.686300000000003
 30
0.0
 11
63.899700000000003
 21
101.958
 31
0.0
  0
LINE
  5
E6
  8
0
 62
     7
 10
68.933000000000007
 20
85.686300000000003
 30
0.0
 11
70.346199999999996
 21
101.958
 31
0.0
  0
LINE
  5
E7
  8
0
 62
     7
 10
39.674300000000002
 20
101.958
 30
0.0
 11
94.571600000000004
 21
101.958
 31
0.0
  0
ARC
  5
E8
  8
0
 62
     7
 10
67.189830000000001
 20
202.445651
 30
0.0
 40
1.818595
 50
182.11868999999999
 51
267.88134000000002
  0
ARC
  5
E9
  8
0
 62
     7
 10
67.122596999999999
 20
202.37841900000001
 30
0.0
 40
1.7501199999999999
 50
270.00002000000001
 51
359.99999000000003
  0
ARC
  5
EA
  8
0
 62
     7
 10
67.122683999999992
 20
202.378332
 30
0.0
 40
1.7500340000000001
 50
0.00283
 51
90.002800000000008
  0
ARC
  5
EB
  8
0
 62
     7
 10
67.190206000000003
 20
202.310631
 30
0.0
 40
1.818991
 50
92.130040000000008
 51
177.86429000000001
  0
LINE
  5
EC
  8
0
 62
     7
 10
69.504199999999997
 20
205.59800000000001
 30
0.0
 11
68.360100000000003
 21
203.61600000000001
 31
0.0
  0
LINE
  5
ED
  8
0
 62
     7
 10
68.360100000000003
 20
203.61600000000001
 30
0.0
 11
70.342100000000002
 21
204.75999999999999
 31
0.0
  0
LINE
  5
EE
  8
0
 62
     7
 10
70.342100000000002
 20
204.75999999999999
 30
0.0
 11
69.504199999999997
 21
205.59800000000001
 31
0.0
  0
LINE
  5
EF
  8
0
 62
     7
 10
64.740999999999985
 20
199.15899999999999
 30
0.0
 11
65.885099999999994
 21
201.14099999999999
 31
0.0
  0
LINE
  5
F0
  8
0
 62
     7
 10
65.885099999999994
 20
201.14099999999999
 30
0.0
 11
63.903100000000002
 21
199.99700000000001
 31
0.0
  0
LINE
  5
F1
  8
0
 62
     7
 10
63.903100000000002
 20
199.99700000000001
 30
0.0
 11
64.740999999999985
 21
199.15899999999999
 31
0.0
  0
LINE
  5
F2
  8
0
 62
     7
 10
63.746699999999997
 20
199.00299999999999
 30
0.0
 11
78.337500000000006
 21
213.59299999999999
 31
0.0
  0
LINE
  5
F3
  8
0
 62
     7
 10
78.337500000000006
 20
213.59299999999999
 30
0.0
 11
84.191100000000006
 21
213.59299999999999
 31
0.0
  0
LINE
  5
F4
  8
0
  6
AIGENLINE001
 62
     7
 10
63.942100000000011
 20
202.37799999999999
 30
0.0
 11
70.292799999999986
 21
202.37799999999999
 31
0.0
  0
ARC
  5
F5
  8
0
 62
     7
 10
76.563849000000005
 20
184.44400999999999
 30
0.0
 40
20.309118000000002
 50
331.06633399999998
 51
0.491773
  0
ARC
  5
F6
  8
0
 62
     7
 10
76.375433999999998
 20
184.705679
 30
0.0
 40
20.496896
 50
359.81166300000001
 51
48.848461999999998
  0
ARC
  5
F7
  8
0
 62
     7
 10
66.594065000000001
 20
174.33466100000001
 30
0.0
 40
34.047758999999999
 50
89.142425999999986
 51
130.71573799999999
  0
ARC
  5
F8
  8
0
 62
     7
 10
65.696017999999995
 20
166.20363399999999
 30
0.0
 40
0.403123
 50
180.119731
 51
209.45233099999999
  0
ARC
  5
F9
  8
0
 62
     7
 10
65.871760999999992
 20
166.29233099999999
 30
0.0
 40
0.5998359999999999
 50
208.57553799999999
 51
225.9278120000001
  0
ARC
  5
FA
  8
0
 62
     7
 10
66.150739000000002
 20
166.56281899999999
 30
0.0
 40
0.9882950000000002
 50
225.215081
 51
238.236456
  0
ARC
  5
FB
  8
0
 62
     7
 10
66.502262999999985
 20
167.10331300000001
 30
0.0
 40
1.6329489999999991
 50
237.73289399999999
 51
248.68563900000001
  0
ARC
  5
FC
  8
0
 62
     7
 10
66.887224000000003
 20
168.03912299999999
 30
0.0
 40
2.644741999999999
 50
248.28535299999999
 51
260.979332
  0
ARC
  5
FD
  8
0
 62
     7
 10
67.107167000000004
 20
169.135018
 30
0.0
 40
3.7618419999999988
 50
260.287892
 51
270.235029
  0
ARC
  5
FE
  8
0
 62
     7
 10
67.123368999999997
 20
169.142865
 30
0.0
 40
3.769657
 50
269.98828300000002
 51
285.44443200000001
  0
ARC
  5
FF
  8
0
 62
     7
 10
67.522203000000005
 20
167.565145
 30
0.0
 40
2.1429969999999998
 50
286.39953300000002
 51
299.84837800000003
  0
ARC
  5
100
  8
0
 62
     7
 10
68.013522999999992
 20
166.66645299999999
 30
0.0
 40
1.1191869999999999
 50
300.93068599999998
 51
313.32087799999999
  0
ARC
  5
101
  8
0
 62
     7
 10
68.353011999999993
 20
166.300647
 30
0.0
 40
0.620149
 50
313.68927500000012
 51
338.80562200000003
  0
ARC
  5
102
  8
0
 62
     7
 10
68.553651000000002
 20
166.204384
 30
0.0
 40
0.398651
 50
341.28042900000003
 51
359.77117900000002
  0
ARC
  5
103
  8
0
 62
     7
 10
68.549650999999997
 20
166.20194499999999
 30
0.0
 40
0.4026500000000001
 50
0.120525
 51
29.470018
  0
ARC
  5
104
  8
0
 62
     7
 10
68.373594999999995
 20
166.112989
 30
0.0
 40
0.5997600000000001
 50
28.594231000000011
 51
45.942104
  0
ARC
  5
105
  8
0
 62
     7
 10
68.094977999999983
 20
165.84288599999999
 30
0.0
 40
0.9876899999999999
 50
45.222833999999999
 51
58.250273
  0
ARC
  5
106
  8
0
 62
     7
 10
67.743195
 20
165.30205599999999
 30
0.0
 40
1.632763999999999
 50
57.739660999999998
 51
68.692967999999993
  0
ARC
  5
107
  8
0
 62
     7
 10
67.357495
 20
164.36405199999999
 30
0.0
 40
2.646866999999999
 50
68.292546000000002
 51
80.976168000000001
  0
ARC
  5
108
  8
0
 62
     7
 10
67.137734999999992
 20
163.265942
 30
0.0
 40
3.766119999999999
 50
80.294486000000006
 51
90.230281000000005
  0
ARC
  5
109
  8
0
 62
     7
 10
67.121826999999996
 20
163.26208199999999
 30
0.0
 40
3.7699500000000001
 50
89.988275000000002
 51
105.443195
  0
ARC
  5
10A
  8
0
 62
     7
 10
66.722802999999999
 20
164.83994200000001
 30
0.0
 40
2.1431
 50
106.393396
 51
119.840909
  0
ARC
  5
10B
  8
0
 62
     7
 10
66.232191999999998
 20
165.73781399999999
 30
0.0
 40
1.1203529999999999
 50
120.925922
 51
133.30116599999999
  0
ARC
  5
10C
  8
0
 62
     7
 10
65.892139999999998
 20
166.10465400000001
 30
0.0
 40
0.6201760000000001
 50
133.681332
 51
158.78809999999999
  0
ARC
  5
10D
  8
0
 62
     7
 10
65.691027000000005
 20
166.201188
 30
0.0
 40
0.398135
 50
161.268137
 51
179.7691529999999
  0
ARC
  5
10E
  8
0
 62
     7
 10
57.678933999999998
 20
184.44322399999999
 30
0.0
 40
20.306024000000001
 50
179.50591499999999
 51
208.93597800000001
  0
ARC
  5
10F
  8
0
 62
     7
 10
57.867969999999993
 20
184.70740000000001
 30
0.0
 40
20.494420999999999
 50
131.15091200000001
 51
180.19319200000001
  0
ARC
  5
110
  8
0
 62
     7
 10
67.651828000000009
 20
174.33472599999999
 30
0.0
 40
34.047704000000003
 50
49.284180999999997
 51
90.858730000000008
  0
ARC
  5
111
  8
0
 62
     7
 10
67.649505000000005
 20
174.32697300000001
 30
0.0
 40
35.055362000000002
 50
49.282088999999992
 51
90.860656999999975
  0
ARC
  5
112
  8
0
 62
     7
 10
66.595881000000006
 20
174.327416
 30
0.0
 40
35.054926000000002
 50
89.138498999999996
 51
130.718175
  0
ARC
  5
113
  8
0
 62
     7
 10
57.880462000000001
 20
184.700512
 30
0.0
 40
21.508068000000002
 50
131.14739299999999
 51
180.19235399999999
  0
ARC
  5
114
  8
0
 62
     7
 10
57.880940000000002
 20
184.55633
 30
0.0
 40
21.508545999999999
 50
179.80822699999999
 51
228.85202699999999
  0
ARC
  5
115
  8
0
 62
     7
 10
66.597386999999998
 20
194.93336300000001
 30
0.0
 40
35.059055999999998
 50
229.28438800000001
 51
270.85893800000002
  0
ARC
  5
116
  8
0
 62
     7
 10
67.648252999999997
 20
194.933108
 30
0.0
 40
35.058798000000003
 50
269.14147500000001
 51
310.71578
  0
ARC
  5
117
  8
0
 62
     7
 10
76.365063000000006
 20
184.55611999999999
 30
0.0
 40
21.508084
 50
311.14743199999998
 51
0.192315
  0
ARC
  5
118
  8
0
 62
     7
 10
76.361238999999998
 20
184.69877600000001
 30
0.0
 40
21.511901999999999
 50
359.81232399999999
 51
48.847930000000012
  0
ARC
  5
119
  8
0
 62
     7
 10
54.890644999999992
 20
180.63945799999999
 30
0.0
 40
11.518001999999999
 50
180.05437000000001
 51
204.86615599999999
  0
ARC
  5
11A
  8
0
 62
     7
 10
56.861293999999987
 20
181.45266100000001
 30
0.0
 40
13.648211999999999
 50
204.48478700000001
 51
218.89722399999999
  0
ARC
  5
11B
  8
0
 62
     7
 10
59.431621
 20
183.36780300000001
 30
0.0
 40
16.851647
 50
218.47743
 51
229.280598
  0
ARC
  5
11C
  8
0
 62
     7
 10
62.049281999999998
 20
186.244294
 30
0.0
 40
20.739702000000001
 50
228.983709
 51
239.68319600000001
  0
ARC
  5
11D
  8
0
 62
     7
 10
64.631231999999997
 20
190.38337899999999
 30
0.0
 40
25.616454999999998
 50
239.37111100000001
 51
251.04589100000001
  0
ARC
  5
11E
  8
0
 62
     7
 10
66.555059
 20
195.428911
 30
0.0
 40
31.013819000000002
 50
250.71211299999999
 51
264.35813200000001
  0
ARC
  5
11F
  8
0
 62
     7
 10
67.100627000000003
 20
198.973209
 30
0.0
 40
34.595129999999997
 50
264.03602799999999
 51
270.036967
  0
ARC
  5
120
  8
0
 62
     7
 10
67.122993999999991
 20
198.582705
 30
0.0
 40
34.204619999999998
 50
269.99992300000002
 51
284.75005700000003
  0
ARC
  5
121
  8
0
 62
     7
 10
68.264781999999997
 20
193.57026999999999
 30
0.0
 40
29.067171999999999
 50
285.089134
 51
296.71747299999998
  0
ARC
  5
122
  8
0
 62
     7
 10
70.601981999999992
 20
188.5927889999999
 30
0.0
 40
23.570809000000001
 50
297.08249499999999
 51
307.90151500000002
  0
ARC
  5
123
  8
0
 62
     7
 10
73.477041999999983
 20
184.69647000000001
 30
0.0
 40
18.730598000000001
 50
308.28362600000003
 51
319.53154799999999
  0
ARC
  5
124
  8
0
 62
     7
 10
76.323098999999999
 20
182.13139099999989
 30
0.0
 40
14.900975000000001
 50
319.93237599999998
 51
333.21579800000001
  0
ARC
  5
125
  8
0
 62
     7
 10
78.692874000000003
 20
180.82520299999999
 30
0.0
 40
12.197239
 50
333.67686800000001
 51
353.1868080000001
  0
ARC
  5
126
  8
0
 62
     7
 10
79.572074999999984
 20
180.62744699999999
 30
0.0
 40
11.301161
 50
353.65353299999998
 51
0.005498
  0
ARC
  5
127
  8
0
 62
     7
 10
79.35781999999999
 20
180.61791199999999
 30
0.0
 40
11.515421
 50
0.052841
 51
24.868583000000001
  0
ARC
  5
128
  8
0
 62
     7
 10
77.498944999999992
 20
179.85828100000001
 30
0.0
 40
13.521701999999999
 50
24.476482000000001
 51
37.16082500000001
  0
ARC
  5
129
  8
0
 62
     7
 10
75.171362000000002
 20
178.20536000000001
 30
0.0
 40
16.375347000000001
 50
36.85045800000001
 51
47.876083000000001
  0
ARC
  5
12A
  8
0
 62
     7
 10
72.534823000000003
 20
175.447183
 30
0.0
 40
20.189774
 50
47.576683000000003
 51
58.472831000000021
  0
ARC
  5
12B
  8
0
 62
     7
 10
69.960544999999996
 20
171.520355
 30
0.0
 40
24.883469000000002
 50
58.148293000000002
 51
68.835042999999999
  0
ARC
  5
12C
  8
0
 62
     7
 10
67.977988999999994
 20
166.82234700000001
 30
0.0
 40
29.98077
 50
68.543435000000002
 51
81.350755000000007
  0
ARC
  5
12D
  8
0
 62
     7
 10
67.178887000000003
 20
162.823398
 30
0.0
 40
34.054935999999998
 50
81.033389999999997
 51
90.094114999999974
  0
ARC
  5
12E
  8
0
 62
     7
 10
67.124135999999993
 20
162.66485599999999
 30
0.0
 40
34.213433000000002
 50
90.001987999999983
 51
104.74805600000001
  0
ARC
  5
12F
  8
0
 62
     7
 10
65.977193
 20
167.69623200000001
 30
0.0
 40
29.056348
 50
105.08658800000001
 51
116.719234
  0
ARC
  5
130
  8
0
 62
     7
 10
63.651052
 20
172.65203399999999
 30
0.0
 40
23.584326999999998
 50
117.084778
 51
127.89757400000001
  0
ARC
  5
131
  8
0
 62
     7
 10
60.765661000000001
 20
176.562656
 30
0.0
 40
18.726478
 50
128.28069099999999
 51
139.53097399999999
  0
ARC
  5
132
  8
0
 62
     7
 10
57.922006999999986
 20
179.12530699999999
 30
0.0
 40
14.900256000000001
 50
139.930578
 51
153.21429499999999
  0
ARC
  5
133
  8
0
 62
     7
 10
55.549329
 20
180.432413
 30
0.0
 40
12.193507
 50
153.672877
 51
173.18771599999999
  0
ARC
  5
134
  8
0
 62
     7
 10
54.680033999999999
 20
180.62918500000001
 30
0.0
 40
11.307385
 50
173.65526299999999
 51
180.003331
  0
LINE
  5
135
  8
0
 62
     7
 10
142.83699999999999
 20
90.167999999999992
 30
0.0
 11
142.245
 21
87.957599999999985
 31
0.0
  0
LINE
  5
136
  8
0
 62
     7
 10
142.245
 20
87.957599999999985
 30
0.0
 11
141.65299999999999
 21
90.167999999999992
 31
0.0
  0
LINE
  5
137
  8
0
 62
     7
 10
141.65299999999999
 20
90.167999999999992
 30
0.0
 11
142.83699999999999
 21
90.167999999999992
 31
0.0
  0
LINE
  5
138
  8
0
 62
     7
 10
141.667
 20
101.248
 30
0.0
 11
142.25999999999999
 21
103.458
 31
0.0
  0
LINE
  5
139
  8
0
 62
     7
 10
142.25999999999999
 20
103.458
 30
0.0
 11
142.851
 21
101.248
 31
0.0
  0
LINE
  5
13A
  8
0
 62
     7
 10
142.851
 20
101.248
 30
0.0
 11
141.667
 21
101.248
 31
0.0
  0
LINE
  5
13B
  8
0
 62
     7
 10
142.25200000000001
 20
87.957599999999985
 30
0.0
 11
142.25200000000001
 21
103.458
 31
0.0
  0
LINE
  5
13C
  8
0
 62
     7
 10
140.774
 20
74.974400000000003
 30
0.0
 11
140.774
 21
80.905100000000004
 31
0.0
  0
LINE
  5
13D
  8
0
  6
AIGENLINE001
 62
     7
 10
156.274
 20
101.262
 30
0.0
 11
156.274
 21
106.86
 31
0.0
  0
LINE
  5
13E
  8
0
 62
     7
 10
163.274
 20
74.974400000000003
 30
0.0
 11
163.274
 21
101.02500000000001
 31
0.0
  0
LINE
  5
13F
  8
0
 62
     7
 10
142.98400000000001
 20
76.259399999999985
 30
0.0
 11
140.774
 21
75.667199999999994
 31
0.0
  0
LINE
  5
140
  8
0
 62
     7
 10
140.774
 20
75.667199999999994
 30
0.0
 11
142.98400000000001
 21
75.075000000000003
 31
0.0
  0
LINE
  5
141
  8
0
 62
     7
 10
142.98400000000001
 20
75.075000000000003
 30
0.0
 11
142.98400000000001
 21
76.259399999999985
 31
0.0
  0
LINE
  5
142
  8
0
 62
     7
 10
161.06399999999999
 20
75.089399999999983
 30
0.0
 11
163.274
 21
75.681600000000003
 31
0.0
  0
LINE
  5
143
  8
0
 62
     7
 10
163.274
 20
75.681600000000003
 30
0.0
 11
161.06399999999999
 21
76.273899999999998
 31
0.0
  0
LINE
  5
144
  8
0
 62
     7
 10
161.06399999999999
 20
76.273899999999998
 30
0.0
 11
161.06399999999999
 21
75.089399999999983
 31
0.0
  0
LINE
  5
145
  8
0
 62
     7
 10
140.774
 20
75.674400000000006
 30
0.0
 11
163.274
 21
75.674400000000006
 31
0.0
  0
ARC
  5
146
  8
0
  6
AIGENLINE002
 62
     7
 10
67.075209999999984
 20
99.505358999999999
 30
0.0
 40
1.2983329999999991
 50
272.09169200000002
 51
357.88462700000002
  0
ARC
  5
147
  8
0
  6
AIGENLINE002
 62
     7
 10
67.170073999999985
 20
99.505448000000015
 30
0.0
 40
1.2984249999999991
 50
182.11917399999999
 51
267.90454700000009
  0
ARC
  5
148
  8
0
  6
AIGENLINE002
 62
     7
 10
67.170671999999996
 20
99.409538999999995
 30
0.0
 40
1.299018
 50
92.120881999999995
 51
177.88698299999999
  0
ARC
  5
149
  8
0
  6
AIGENLINE002
 62
     7
 10
67.075071999999992
 20
99.410088000000002
 30
0.0
 40
1.2984500000000001
 50
2.0896979999999989
 51
87.902398000000005
  0
LINE
  5
14A
  8
0
  6
AIGENLINE001
 62
     7
 10
64.356499999999997
 20
99.457400000000007
 30
0.0
 11
69.826999999999998
 21
99.457400000000007
 31
0.0
  0
LINE
  5
14B
  8
0
 62
     7
 10
168.565
 20
106.16800000000001
 30
0.0
 11
169.15799999999999
 21
103.958
 31
0.0
  0
LINE
  5
14C
  8
0
 62
     7
 10
169.15799999999999
 20
103.958
 30
0.0
 11
169.75
 21
106.16800000000001
 31
0.0
  0
LINE
  5
14D
  8
0
 62
     7
 10
169.75
 20
106.16800000000001
 30
0.0
 11
168.565
 21
106.16800000000001
 31
0.0
  0
LINE
  5
14E
  8
0
 62
     7
 10
169.75
 20
99.747500000000002
 30
0.0
 11
169.15799999999999
 21
101.958
 31
0.0
  0
LINE
  5
14F
  8
0
 62
     7
 10
169.15799999999999
 20
101.958
 30
0.0
 11
168.565
 21
99.747500000000002
 31
0.0
  0
LINE
  5
150
  8
0
 62
     7
 10
168.565
 20
99.747500000000002
 30
0.0
 11
169.75
 21
99.747500000000002
 31
0.0
  0
LINE
  5
151
  8
0
 62
     7
 10
163.73699999999999
 20
101.958
 30
0.0
 11
169.858
 21
101.958
 31
0.0
  0
LINE
  5
152
  8
0
 62
     7
 10
163.36699999999999
 20
103.958
 30
0.0
 11
169.858
 21
103.958
 31
0.0
  0
LINE
  5
153
  8
0
 62
     7
 10
108.73399999999999
 20
105.66800000000001
 30
0.0
 11
109.32599999999999
 21
103.458
 31
0.0
  0
LINE
  5
154
  8
0
 62
     7
 10
109.32599999999999
 20
103.458
 30
0.0
 11
109.91800000000001
 21
105.66800000000001
 31
0.0
  0
LINE
  5
155
  8
0
 62
     7
 10
109.91800000000001
 20
105.66800000000001
 30
0.0
 11
108.73399999999999
 21
105.66800000000001
 31
0.0
  0
LINE
  5
156
  8
0
 62
     7
 10
109.91800000000001
 20
99.747500000000002
 30
0.0
 11
109.32599999999999
 21
101.958
 31
0.0
  0
LINE
  5
157
  8
0
 62
     7
 10
109.32599999999999
 20
101.958
 30
0.0
 11
108.73399999999999
 21
99.747500000000002
 31
0.0
  0
LINE
  5
158
  8
0
 62
     7
 10
108.73399999999999
 20
99.747500000000002
 30
0.0
 11
109.91800000000001
 21
99.747500000000002
 31
0.0
  0
LINE
  5
159
  8
0
 62
     7
 10
169.15799999999999
 20
98.3416
 30
0.0
 11
169.15799999999999
 21
109.34099999999999
 31
0.0
  0
LINE
  5
15A
  8
0
 62
     7
 10
109.32599999999999
 20
98.3416
 30
0.0
 11
109.32599999999999
 21
108.84099999999999
 31
0.0
  0
LINE
  5
15B
  8
0
 62
     7
 10
108.626
 20
101.958
 30
0.0
 11
113.22199999999999
 21
101.958
 31
0.0
  0
LINE
  5
15C
  8
0
 62
     7
 10
108.626
 20
103.458
 30
0.0
 11
113.928
 21
103.458
 31
0.0
  0
LINE
  5
15D
  8
0
 62
     7
 10
31.8735
 20
105.66800000000001
 30
0.0
 11
32.465800000000002
 21
103.458
 31
0.0
  0
LINE
  5
15E
  8
0
 62
     7
 10
32.465800000000002
 20
103.458
 30
0.0
 11
33.058
 21
105.66800000000001
 31
0.0
  0
LINE
  5
15F
  8
0
 62
     7
 10
33.058
 20
105.66800000000001
 30
0.0
 11
31.8735
 21
105.66800000000001
 31
0.0
  0
LINE
  5
160
  8
0
 62
     7
 10
33.058
 20
99.747500000000002
 30
0.0
 11
32.465800000000002
 21
101.958
 31
0.0
  0
LINE
  5
161
  8
0
 62
     7
 10
32.465800000000002
 20
101.958
 30
0.0
 11
31.8735
 21
99.747500000000002
 31
0.0
  0
LINE
  5
162
  8
0
 62
     7
 10
31.8735
 20
99.747500000000002
 30
0.0
 11
33.058
 21
99.747500000000002
 31
0.0
  0
LINE
  5
163
  8
0
 62
     7
 10
32.465800000000002
 20
98.3416
 30
0.0
 11
32.465800000000002
 21
108.84099999999999
 31
0.0
  0
LINE
  5
164
  8
0
 62
     7
 10
27.174399999999999
 20
85.168099999999995
 30
0.0
 11
27.7666
 21
82.957700000000003
 31
0.0
  0
LINE
  5
165
  8
0
 62
     7
 10
27.7666
 20
82.957700000000003
 30
0.0
 11
28.358799999999999
 21
85.168099999999995
 31
0.0
  0
LINE
  5
166
  8
0
 62
     7
 10
28.358799999999999
 20
85.168099999999995
 30
0.0
 11
27.174399999999999
 21
85.168099999999995
 31
0.0
  0
LINE
  5
167
  8
0
 62
     7
 10
28.3444
 20
101.248
 30
0.0
 11
27.752099999999999
 21
103.458
 31
0.0
  0
LINE
  5
168
  8
0
 62
     7
 10
27.752099999999999
 20
103.458
 30
0.0
 11
27.1599
 21
101.248
 31
0.0
  0
LINE
  5
169
  8
0
 62
     7
 10
27.1599
 20
101.248
 30
0.0
 11
28.3444
 21
101.248
 31
0.0
  0
LINE
  5
16A
  8
0
 62
     7
 10
27.759399999999999
 20
82.957700000000003
 30
0.0
 11
27.759399999999999
 21
103.458
 31
0.0
  0
LINE
  5
16B
  8
0
 62
     7
 10
27.0593
 20
82.957700000000003
 30
0.0
 11
62.3887
 21
82.957700000000003
 31
0.0
  0
LINE
  5
16C
  8
0
 62
     7
 10
31.765699999999999
 20
101.958
 30
0.0
 11
35.447200000000002
 21
101.958
 31
0.0
  0
LINE
  5
16D
  8
0
 62
     7
 10
27.0593
 20
103.458
 30
0.0
 11
35.447200000000002
 21
103.458
 31
0.0
  0
ARC
  5
16E
  8
0
 62
     7
 10
67.122596999999999
 20
186.87831800000001
 30
0.0
 40
3.750008999999999
 50
179.99996999999999
 51
270.00002000000001
  0
ARC
  5
16F
  8
0
 62
     7
 10
67.122596999999999
 20
186.87832
 30
0.0
 40
3.7500110000000002
 50
270.00002000000001
 51
359.99999000000003
  0
ARC
  5
170
  8
0
 62
     7
 10
67.122596999999999
 20
186.87831800000001
 30
0.0
 40
3.7500110000000002
 50
0.00001
 51
89.999980000000008
  0
ARC
  5
171
  8
0
 62
     7
 10
67.122597999999996
 20
186.87831800000001
 30
0.0
 40
3.7500110000000002
 50
90.0
 51
179.99996999999999
  0
ARC
  5
172
  8
0
 62
     7
 10
67.122596999999999
 20
186.878319
 30
0.0
 40
2.29996
 50
179.99996999999999
 51
270.00002000000001
  0
ARC
  5
173
  8
0
 62
     7
 10
67.122596999999999
 20
186.878319
 30
0.0
 40
2.2999610000000001
 50
270.00002000000001
 51
359.99999000000003
  0
ARC
  5
174
  8
0
 62
     7
 10
67.122596999999999
 20
186.878319
 30
0.0
 40
2.2999610000000001
 50
0.00001
 51
89.999980000000008
  0
ARC
  5
175
  8
0
 62
     7
 10
67.122597999999996
 20
186.878319
 30
0.0
 40
2.2999610000000001
 50
90.0
 51
179.99996999999999
  0
LINE
  5
176
  8
0
 62
     7
 10
69.893199999999993
 20
190.48599999999999
 30
0.0
 11
68.748999999999995
 21
188.505
 31
0.0
  0
LINE
  5
177
  8
0
 62
     7
 10
68.748999999999995
 20
188.505
 30
0.0
 11
70.731000000000009
 21
189.649
 31
0.0
  0
LINE
  5
178
  8
0
 62
     7
 10
70.731000000000009
 20
189.649
 30
0.0
 11
69.893199999999993
 21
190.48599999999999
 31
0.0
  0
LINE
  5
179
  8
0
 62
     7
 10
64.352400000000003
 20
183.27000000000001
 30
0.0
 11
65.496499999999983
 21
185.25200000000001
 31
0.0
  0
LINE
  5
17A
  8
0
 62
     7
 10
65.496499999999983
 20
185.25200000000001
 30
0.0
 11
63.514499999999991
 21
184.108
 31
0.0
  0
LINE
  5
17B
  8
0
 62
     7
 10
63.514499999999991
 20
184.108
 30
0.0
 11
64.352400000000003
 21
183.27000000000001
 31
0.0
  0
LINE
  5
17C
  8
0
 62
     7
 10
61.6083
 20
181.364
 30
0.0
 11
71.700100000000006
 21
191.4559999999999
 31
0.0
  0
LINE
  5
17D
  8
0
 62
     7
 10
55.633499999999991
 20
181.364
 30
0.0
 11
61.6083
 21
181.364
 31
0.0
  0
LINE
  5
17E
  8
0
  6
AIGENLINE001
 62
     7
 10
61.296199999999999
 20
186.87799999999999
 30
0.0
 11
72.833600000000004
 21
186.87799999999999
 31
0.0
  0
LINE
  5
17F
  8
0
  6
AIGENLINE001
 62
     7
 10
67.122600000000006
 20
106.48699999999999
 30
0.0
 11
67.122600000000006
 21
79.675899999999999
 31
0.0
  0
LINE
  5
180
  8
0
  6
AIGENLINE001
 62
     7
 10
67.122600000000006
 20
211.59700000000001
 30
0.0
 11
67.122600000000006
 21
156.50800000000001
 31
0.0
  0
ARC
  5
181
  8
0
  6
AIGENLINE002
 62
     7
 10
57.122542000000003
 20
201.87827300000001
 30
0.0
 40
1.7498610000000001
 50
179.99715
 51
269.99720000000002
  0
ARC
  5
182
  8
0
  6
AIGENLINE002
 62
     7
 10
57.122542000000003
 20
201.878446
 30
0.0
 40
1.7500340000000001
 50
269.99720000000002
 51
359.9971700000001
  0
ARC
  5
183
  8
0
  6
AIGENLINE002
 62
     7
 10
57.122456000000007
 20
201.87835899999999
 30
0.0
 40
1.7501199999999999
 50
0.00001
 51
89.999980000000008
  0
ARC
  5
184
  8
0
  6
AIGENLINE002
 62
     7
 10
57.122628000000013
 20
201.87853100000001
 30
0.0
 40
1.7499480000000001
 50
90.005639999999985
 51
180.00565
  0
LINE
  5
185
  8
0
  6
AIGENLINE001
 62
     7
 10
57.122500000000002
 20
204.905
 30
0.0
 11
57.122500000000002
 21
198.554
 31
0.0
  0
ARC
  5
186
  8
0
  6
AIGENLINE002
 62
     7
 10
77.122653
 20
201.878445
 30
0.0
 40
1.7500329999999999
 50
180.00282999999999
 51
270.00283999999999
  0
ARC
  5
187
  8
0
  6
AIGENLINE002
 62
     7
 10
77.122653
 20
201.878274
 30
0.0
 40
1.7498610000000001
 50
270.00283999999999
 51
0.00281
  0
ARC
  5
188
  8
0
  6
AIGENLINE002
 62
     7
 10
77.122567000000004
 20
201.87853100000001
 30
0.0
 40
1.7499480000000001
 50
359.99437
 51
89.994339999999994
  0
ARC
  5
189
  8
0
  6
AIGENLINE002
 62
     7
 10
77.122739999999993
 20
201.87835899999999
 30
0.0
 40
1.7501199999999999
 50
90.0
 51
179.99996999999999
  0
LINE
  5
18A
  8
0
 62
     7
 10
67.122600000000006
 20
218.35400000000001
 30
0.0
 11
67.122600000000006
 21
212.297
 31
0.0
  0
LINE
  5
18B
  8
0
 62
     7
 10
57.122500000000002
 20
218.35400000000001
 30
0.0
 11
57.122500000000002
 21
205.60499999999999
 31
0.0
  0
LINE
  5
18C
  8
0
 62
     7
 10
77.122699999999995
 20
218.35400000000001
 30
0.0
 11
77.122699999999995
 21
205.60499999999999
 31
0.0
  0
LINE
  5
18D
  8
0
  6
AIGENLINE001
 62
     7
 10
77.122699999999995
 20
204.905
 30
0.0
 11
77.122699999999995
 21
198.554
 31
0.0
  0
LINE
  5
18E
  8
0
 62
     7
 10
69.332999999999998
 20
218.24600000000001
 30
0.0
 11
67.122600000000006
 21
217.654
 31
0.0
  0
LINE
  5
18F
  8
0
 62
     7
 10
67.122600000000006
 20
217.654
 30
0.0
 11
69.332999999999998
 21
217.06100000000001
 31
0.0
  0
LINE
  5
190
  8
0
 62
     7
 10
69.332999999999998
 20
217.06100000000001
 30
0.0
 11
69.332999999999998
 21
218.24600000000001
 31
0.0
  0
LINE
  5
191
  8
0
 62
     7
 10
59.332799999999992
 20
218.239
 30
0.0
 11
57.122500000000002
 21
217.64699999999999
 31
0.0
  0
LINE
  5
192
  8
0
 62
     7
 10
57.122500000000002
 20
217.64699999999999
 30
0.0
 11
59.332799999999992
 21
217.054
 31
0.0
  0
LINE
  5
193
  8
0
 62
     7
 10
59.332799999999992
 20
217.054
 30
0.0
 11
59.332799999999992
 21
218.239
 31
0.0
  0
LINE
  5
194
  8
0
 62
     7
 10
64.912199999999999
 20
217.06200000000001
 30
0.0
 11
67.122600000000006
 21
217.654
 31
0.0
  0
LINE
  5
195
  8
0
 62
     7
 10
67.122600000000006
 20
217.654
 30
0.0
 11
64.912199999999999
 21
218.24600000000001
 31
0.0
  0
LINE
  5
196
  8
0
 62
     7
 10
64.912199999999999
 20
218.24600000000001
 30
0.0
 11
64.912199999999999
 21
217.06200000000001
 31
0.0
  0
LINE
  5
197
  8
0
 62
     7
 10
74.912400000000005
 20
217.06899999999999
 30
0.0
 11
77.122699999999995
 21
217.661
 31
0.0
  0
LINE
  5
198
  8
0
 62
     7
 10
77.122699999999995
 20
217.661
 30
0.0
 11
74.912400000000005
 21
218.25299999999999
 31
0.0
  0
LINE
  5
199
  8
0
 62
     7
 10
74.912400000000005
 20
218.25299999999999
 30
0.0
 11
74.912400000000005
 21
217.06899999999999
 31
0.0
  0
LINE
  5
19A
  8
0
 62
     7
 10
57.122500000000002
 20
217.654
 30
0.0
 11
77.122699999999995
 21
217.654
 31
0.0
  0
LINE
  5
19B
  8
0
  6
AIGENLINE001
 62
     7
 10
73.891900000000007
 20
201.87799999999999
 30
0.0
 11
80.453799999999987
 21
201.87799999999999
 31
0.0
  0
LINE
  5
19C
  8
0
  6
AIGENLINE001
 62
     7
 10
53.781399999999998
 20
201.87799999999999
 30
0.0
 11
60.343600000000002
 21
201.87799999999999
 31
0.0
  0
LINE
  5
19D
  8
0
 62
     7
 10
36.372500000000002
 20
140.24299999999999
 30
0.0
 11
36.372500000000002
 21
177.18100000000001
 31
0.0
  0
LINE
  5
19E
  8
0
 62
     7
 10
97.872699999999995
 20
140.24299999999999
 30
0.0
 11
97.872699999999995
 21
177.18100000000001
 31
0.0
  0
LINE
  5
19F
  8
0
 62
     7
 10
38.582900000000002
 20
141.52799999999999
 30
0.0
 11
36.372500000000002
 21
140.935
 31
0.0
  0
LINE
  5
1A0
  8
0
 62
     7
 10
36.372500000000002
 20
140.935
 30
0.0
 11
38.582900000000002
 21
140.34299999999999
 31
0.0
  0
LINE
  5
1A1
  8
0
 62
     7
 10
38.582900000000002
 20
140.34299999999999
 30
0.0
 11
38.582900000000002
 21
141.52799999999999
 31
0.0
  0
LINE
  5
1A2
  8
0
 62
     7
 10
95.662300000000002
 20
140.358
 30
0.0
 11
97.872699999999995
 21
140.94999999999999
 31
0.0
  0
LINE
  5
1A3
  8
0
 62
     7
 10
97.872699999999995
 20
140.94999999999999
 30
0.0
 11
95.662300000000002
 21
141.542
 31
0.0
  0
LINE
  5
1A4
  8
0
 62
     7
 10
95.662300000000002
 20
141.542
 30
0.0
 11
95.662300000000002
 21
140.358
 31
0.0
  0
LINE
  5
1A5
  8
0
 62
     7
 10
36.372500000000002
 20
140.94300000000001
 30
0.0
 11
97.872699999999995
 21
140.94300000000001
 31
0.0
  0
LINE
  5
1A6
  8
0
 62
     7
 10
43.372300000000003
 20
147.624
 30
0.0
 11
43.372300000000003
 21
176.51499999999999
 31
0.0
  0
LINE
  5
1A7
  8
0
 62
     7
 10
90.872900000000016
 20
147.624
 30
0.0
 11
90.872900000000016
 21
176.51499999999999
 31
0.0
  0
LINE
  5
1A8
  8
0
 62
     7
 10
45.583399999999997
 20
148.90899999999999
 30
0.0
 11
43.372300000000003
 21
148.31700000000001
 31
0.0
  0
LINE
  5
1A9
  8
0
 62
     7
 10
43.372300000000003
 20
148.31700000000001
 30
0.0
 11
45.583399999999997
 21
147.72399999999999
 31
0.0
  0
LINE
  5
1AA
  8
0
 62
     7
 10
45.583399999999997
 20
147.72399999999999
 30
0.0
 11
45.583399999999997
 21
148.90899999999999
 31
0.0
  0
LINE
  5
1AB
  8
0
 62
     7
 10
88.661799999999985
 20
147.739
 30
0.0
 11
90.872900000000016
 21
148.33099999999999
 31
0.0
  0
LINE
  5
1AC
  8
0
 62
     7
 10
90.872900000000016
 20
148.33099999999999
 30
0.0
 11
88.661799999999985
 21
148.923
 31
0.0
  0
LINE
  5
1AD
  8
0
 62
     7
 10
88.661799999999985
 20
148.923
 30
0.0
 11
88.661799999999985
 21
147.739
 31
0.0
  0
LINE
  5
1AE
  8
0
 62
     7
 10
43.372599999999991
 20
148.32400000000001
 30
0.0
 11
90.872500000000002
 21
148.32400000000001
 31
0.0
  0
LINE
  5
1AF
  8
0
 62
     7
 10
102.23399999999999
 20
199.66800000000001
 30
0.0
 11
101.642
 21
201.87799999999999
 31
0.0
  0
LINE
  5
1B0
  8
0
 62
     7
 10
101.642
 20
201.87799999999999
 30
0.0
 11
101.05
 21
199.66800000000001
 31
0.0
  0
LINE
  5
1B1
  8
0
 62
     7
 10
101.05
 20
199.66800000000001
 30
0.0
 11
102.23399999999999
 21
199.66800000000001
 31
0.0
  0
LINE
  5
1B2
  8
0
 62
     7
 10
102.227
 20
207.16800000000001
 30
0.0
 11
101.63500000000001
 21
209.37799999999999
 31
0.0
  0
LINE
  5
1B3
  8
0
 62
     7
 10
101.63500000000001
 20
209.37799999999999
 30
0.0
 11
101.04300000000001
 21
207.16800000000001
 31
0.0
  0
LINE
  5
1B4
  8
0
 62
     7
 10
101.04300000000001
 20
207.16800000000001
 30
0.0
 11
102.227
 21
207.16800000000001
 31
0.0
  0
LINE
  5
1B5
  8
0
 62
     7
 10
101.05
 20
203.989
 30
0.0
 11
101.642
 21
201.87799999999999
 31
0.0
  0
LINE
  5
1B6
  8
0
 62
     7
 10
101.642
 20
201.87799999999999
 30
0.0
 11
102.23399999999999
 21
203.989
 31
0.0
  0
LINE
  5
1B7
  8
0
 62
     7
 10
102.23399999999999
 20
203.989
 30
0.0
 11
101.05
 21
203.989
 31
0.0
  0
LINE
  5
1B8
  8
0
 62
     7
 10
101.057
 20
199.089
 30
0.0
 11
101.649
 21
196.87799999999999
 31
0.0
  0
LINE
  5
1B9
  8
0
 62
     7
 10
101.649
 20
196.87799999999999
 30
0.0
 11
102.241
 21
199.089
 31
0.0
  0
LINE
  5
1BA
  8
0
 62
     7
 10
102.241
 20
199.089
 30
0.0
 11
101.057
 21
199.089
 31
0.0
  0
LINE
  5
1BB
  8
0
 62
     7
 10
101.642
 20
209.37799999999999
 30
0.0
 11
101.642
 21
196.87799999999999
 31
0.0
  0
LINE
  5
1BC
  8
0
 62
     7
 10
73.997699999999995
 20
196.87799999999999
 30
0.0
 11
102.342
 21
196.87799999999999
 31
0.0
  0
LINE
  5
1BD
  8
0
 62
     7
 10
81.153899999999993
 20
201.87799999999999
 30
0.0
 11
102.342
 21
201.87799999999999
 31
0.0
  0
LINE
  5
1BE
  8
0
 62
     7
 10
76.114400000000003
 20
209.37799999999999
 30
0.0
 11
102.33499999999999
 21
209.37799999999999
 31
0.0
  0
LINE
  5
1BF
  8
0
 62
     7
 10
31.453199999999999
 20
164.37799999999999
 30
0.0
 11
59.328000000000003
 21
164.37799999999999
 31
0.0
  0
LINE
  5
1C0
  8
0
 62
     7
 10
31.453199999999999
 20
196.87799999999999
 30
0.0
 11
61.091900000000003
 21
196.87799999999999
 31
0.0
  0
LINE
  5
1C1
  8
0
 62
     7
 10
31.5611
 20
199.089
 30
0.0
 11
32.153300000000002
 21
196.87799999999999
 31
0.0
  0
LINE
  5
1C2
  8
0
 62
     7
 10
32.153300000000002
 20
196.87799999999999
 30
0.0
 11
32.7455
 21
199.089
 31
0.0
  0
LINE
  5
1C3
  8
0
 62
     7
 10
32.7455
 20
199.089
 30
0.0
 11
31.5611
 21
199.089
 31
0.0
  0
LINE
  5
1C4
  8
0
 62
     7
 10
32.7455
 20
194.66800000000001
 30
0.0
 11
32.153300000000002
 21
196.87799999999999
 31
0.0
  0
LINE
  5
1C5
  8
0
 62
     7
 10
32.153300000000002
 20
196.87799999999999
 30
0.0
 11
31.5611
 21
194.66800000000001
 31
0.0
  0
LINE
  5
1C6
  8
0
 62
     7
 10
31.5611
 20
194.66800000000001
 30
0.0
 11
32.7455
 21
194.66800000000001
 31
0.0
  0
LINE
  5
1C7
  8
0
 62
     7
 10
37.0822
 20
204.989
 30
0.0
 11
37.674799999999998
 21
202.77799999999999
 31
0.0
  0
LINE
  5
1C8
  8
0
 62
     7
 10
37.674799999999998
 20
202.77799999999999
 30
0.0
 11
38.266599999999997
 21
204.989
 31
0.0
  0
LINE
  5
1C9
  8
0
 62
     7
 10
38.266599999999997
 20
204.989
 30
0.0
 11
37.0822
 21
204.989
 31
0.0
  0
LINE
  5
1CA
  8
0
 62
     7
 10
37.089799999999997
 20
199.089
 30
0.0
 11
37.681699999999999
 21
196.87799999999999
 31
0.0
  0
LINE
  5
1CB
  8
0
 62
     7
 10
37.681699999999999
 20
196.87799999999999
 30
0.0
 11
38.2742
 21
199.089
 31
0.0
  0
LINE
  5
1CC
  8
0
 62
     7
 10
38.2742
 20
199.089
 30
0.0
 11
37.089799999999997
 21
199.089
 31
0.0
  0
LINE
  5
1CD
  8
0
 62
     7
 10
38.266599999999997
 20
200.56800000000001
 30
0.0
 11
37.674799999999998
 21
202.77799999999999
 31
0.0
  0
LINE
  5
1CE
  8
0
 62
     7
 10
37.674799999999998
 20
202.77799999999999
 30
0.0
 11
37.0822
 21
200.56800000000001
 31
0.0
  0
LINE
  5
1CF
  8
0
 62
     7
 10
37.0822
 20
200.56800000000001
 30
0.0
 11
38.266599999999997
 21
200.56800000000001
 31
0.0
  0
LINE
  5
1D0
  8
0
 62
     7
 10
38.259700000000002
 20
207.16800000000001
 30
0.0
 11
37.667200000000001
 21
209.37799999999999
 31
0.0
  0
LINE
  5
1D1
  8
0
 62
     7
 10
37.667200000000001
 20
209.37799999999999
 30
0.0
 11
37.075299999999999
 21
207.16800000000001
 31
0.0
  0
LINE
  5
1D2
  8
0
 62
     7
 10
37.075299999999999
 20
207.16800000000001
 30
0.0
 11
38.259700000000002
 21
207.16800000000001
 31
0.0
  0
LINE
  5
1D3
  8
0
 62
     7
 10
37.674799999999998
 20
196.87799999999999
 30
0.0
 11
37.674799999999998
 21
209.37799999999999
 31
0.0
  0
LINE
  5
1D4
  8
0
 62
     7
 10
31.5611
 20
166.58799999999999
 30
0.0
 11
32.153300000000002
 21
164.37799999999999
 31
0.0
  0
LINE
  5
1D5
  8
0
 62
     7
 10
32.153300000000002
 20
164.37799999999999
 30
0.0
 11
32.7455
 21
166.58799999999999
 31
0.0
  0
LINE
  5
1D6
  8
0
 62
     7
 10
32.7455
 20
166.58799999999999
 30
0.0
 11
31.5611
 21
166.58799999999999
 31
0.0
  0
LINE
  5
1D7
  8
0
 62
     7
 10
32.738300000000002
 20
207.16800000000001
 30
0.0
 11
32.146000000000001
 21
209.37799999999999
 31
0.0
  0
LINE
  5
1D8
  8
0
 62
     7
 10
32.146000000000001
 20
209.37799999999999
 30
0.0
 11
31.553799999999999
 21
207.16800000000001
 31
0.0
  0
LINE
  5
1D9
  8
0
 62
     7
 10
31.553799999999999
 20
207.16800000000001
 30
0.0
 11
32.738300000000002
 21
207.16800000000001
 31
0.0
  0
LINE
  5
1DA
  8
0
 62
     7
 10
32.153300000000002
 20
164.37799999999999
 30
0.0
 11
32.153300000000002
 21
209.37799999999999
 31
0.0
  0
LINE
  5
1DB
  8
0
 62
     7
 10
24.411799999999999
 20
162.089
 30
0.0
 11
25.004000000000001
 21
159.87799999999999
 31
0.0
  0
LINE
  5
1DC
  8
0
 62
     7
 10
25.004000000000001
 20
159.87799999999999
 30
0.0
 11
25.5962
 21
162.089
 31
0.0
  0
LINE
  5
1DD
  8
0
 62
     7
 10
25.5962
 20
162.089
 30
0.0
 11
24.411799999999999
 21
162.089
 31
0.0
  0
LINE
  5
1DE
  8
0
 62
     7
 10
25.581700000000001
 20
207.16800000000001
 30
0.0
 11
24.9895
 21
209.37799999999999
 31
0.0
  0
LINE
  5
1DF
  8
0
 62
     7
 10
24.9895
 20
209.37799999999999
 30
0.0
 11
24.397300000000001
 21
207.16800000000001
 31
0.0
  0
LINE
  5
1E0
  8
0
 62
     7
 10
24.397300000000001
 20
207.16800000000001
 30
0.0
 11
25.581700000000001
 21
207.16800000000001
 31
0.0
  0
LINE
  5
1E1
  8
0
 62
     7
 10
24.996700000000001
 20
159.87799999999999
 30
0.0
 11
24.996700000000001
 21
209.37799999999999
 31
0.0
  0
LINE
  5
1E2
  8
0
 62
     7
 10
24.296700000000001
 20
159.87799999999999
 30
0.0
 11
58.357900000000001
 21
159.87799999999999
 31
0.0
  0
LINE
  5
1E3
  8
0
 62
     7
 10
36.974699999999999
 20
202.37799999999999
 30
0.0
 11
63.241999999999997
 21
202.37799999999999
 31
0.0
  0
LINE
  5
1E4
  8
0
 62
     7
 10
24.296700000000001
 20
209.37799999999999
 30
0.0
 11
58.357900000000001
 21
209.37799999999999
 31
0.0
  0
TEXT
  5
1E5
  8
_________2
 62
     7
 10
39.425000333333337
 20
13.603400000000001
 30
0.0
 40
3.6545800000000002
  1
井田
 41
0.5
 72
     1
 11
41.313200000000002
 21
13.603400000000001
 31
0.0
  0
TEXT
  5
1E6
  8
_________2
 62
     7
 10
24.586400000000001
 20
0.707627
 30
0.0
 40
3.9357000000000002
  1
実容量：7.5L、重量：9.8kg、オーバーフロー付
 41
0.5
  0
TEXT
  5
1E7
  8
_________2
 62
     7
 10
109.179
 20
24.226099999999999
 30
0.0
 40
3.9357000000000002
  1
デュラプラス 洗面器
 41
0.5
  0
LINE
  5
1E8
  8
_________2
 62
     7
 10
205.30099999999999
 20
127.411
 30
0.0
 11
183.55099999999999
 21
127.411
 31
0.0
  0
LINE
  5
1E9
  8
_________2
 62
     7
 10
100.3
 20
-4.0910799999999998
 30
0.0
 11
100.3
 21
-21.071000000000002
 31
0.0
  0
LINE
  5
1EA
  8
_________2
 62
     7
 10
100.3
 20
275.93099999999998
 30
0.0
 11
100.3
 21
258.911
 31
0.0
  0
LINE
  5
1EB
  8
_________2
 62
     7
 10
17.049199999999999
 20
127.411
 30
0.0
 11
-4.7012099999999988
 21
127.411
 31
0.0
  0
LINE
  5
1EC
  8
_________2
 62
     7
 10
76.740700000000004
 20
29.8047
 30
0.0
 11
74.554400000000001
 21
29.8047
 31
0.0
  0
LINE
  5
1ED
  8
_________2
 62
     7
 10
77.2333
 20
29.8047
 30
0.0
 11
76.981099999999984
 21
29.8047
 31
0.0
  0
LINE
  5
1EE
  8
_________2
 62
     7
 10
77.725999999999999
 20
29.8047
 30
0.0
 11
80.650899999999993
 21
29.8047
 31
0.0
  0
LINE
  5
1EF
  8
_________2
 62
     7
 10
77.2333
 20
29.8047
 30
0.0
 11
77.485500000000002
 21
29.8047
 31
0.0
  0
LINE
  5
1F0
  8
_________2
 62
     7
 10
70.837100000000007
 20
29.8047
 30
0.0
 11
68.650199999999998
 21
29.8047
 31
0.0
  0
LINE
  5
1F1
  8
_________2
 62
     7
 10
71.329099999999997
 20
29.8047
 30
0.0
 11
71.077600000000004
 21
29.8047
 31
0.0
  0
LINE
  5
1F2
  8
_________2
 62
     7
 10
71.329099999999997
 20
30.2974
 30
0.0
 11
71.329099999999997
 21
32.484400000000001
 31
0.0
  0
LINE
  5
1F3
  8
_________2
 62
     7
 10
71.329099999999997
 20
29.8047
 30
0.0
 11
71.329099999999997
 21
30.057300000000001
 31
0.0
  0
LINE
  5
1F4
  8
_________2
 62
     7
 10
71.821700000000007
 20
29.8047
 30
0.0
 11
74.008700000000005
 21
29.8047
 31
0.0
  0
LINE
  5
1F5
  8
_________2
 62
     7
 10
71.329099999999997
 20
29.8047
 30
0.0
 11
71.581299999999985
 21
29.8047
 31
0.0
  0
LINE
  5
1F6
  8
_________2
 62
     7
 10
71.329099999999997
 20
29.312799999999999
 30
0.0
 11
71.329099999999997
 21
27.126200000000001
 31
0.0
  0
LINE
  5
1F7
  8
_________2
 62
     7
 10
71.329099999999997
 20
29.8047
 30
0.0
 11
71.329099999999997
 21
29.5532
 31
0.0
  0
LINE
  5
1F8
  8
_________2
 62
     7
 10
75.040199999999999
 20
28.5852
 30
0.0
 11
80.218199999999996
 21
27.720400000000001
 31
0.0
  0
LINE
  5
1F9
  8
_________2
 62
     7
 10
75.040199999999999
 20
31.024699999999999
 30
0.0
 11
80.218199999999996
 21
31.8901
 31
0.0
  0
LINE
  5
1FA
  8
_________2
 62
     7
 10
80.218199999999996
 20
27.720400000000001
 30
0.0
 11
80.218199999999996
 21
31.8901
 31
0.0
  0
LINE
  5
1FB
  8
_________2
 62
     7
 10
75.040199999999999
 20
28.5852
 30
0.0
 11
75.040199999999999
 21
31.024699999999999
 31
0.0
  0
ARC
  5
1FC
  8
_________2
 62
     7
 10
71.282501999999994
 20
29.757801000000001
 30
0.0
 40
1.267714
 50
2.1220840000000001
 51
87.894083999999992
  0
ARC
  5
1FD
  8
_________2
 62
     7
 10
71.375640000000004
 20
29.758545999999999
 30
0.0
 40
1.2669680000000001
 50
92.105782999999988
 51
177.91037
  0
ARC
  5
1FE
  8
_________2
 62
     7
 10
71.376013999999998
 20
29.851671
 30
0.0
 40
1.2673680000000001
 50
182.12203600000001
 51
267.877993
  0
ARC
  5
1FF
  8
_________2
 62
     7
 10
71.282195999999999
 20
29.852347999999999
 30
0.0
 40
1.2680439999999991
 50
272.11916400000001
 51
357.84848499999998
  0
ARC
  5
200
  8
_________2
 62
     7
 10
71.248716999999985
 20
29.724731999999999
 30
0.0
 40
2.1668310000000002
 50
2.1161439999999989
 51
87.874379000000005
  0
ARC
  5
201
  8
_________2
 62
     7
 10
71.408756000000011
 20
29.726146
 30
0.0
 40
2.165392999999999
 50
92.108508999999998
 51
177.91986499999999
  0
ARC
  5
202
  8
_________2
 62
     7
 10
71.409094999999994
 20
29.884751999999999
 30
0.0
 40
2.1657829999999998
 50
182.117133
 51
267.88289700000001
  0
ARC
  5
203
  8
_________2
 62
     7
 10
71.249115000000003
 20
29.885429999999999
 30
0.0
 40
2.1664590000000001
 50
272.11546800000002
 51
357.86560400000002
  0
TEXT
  5
204
  8
_________2
 62
     7
 10
104.605
 20
1.6794899999999999
 30
0.0
 40
3.0923400000000001
  1
図番
 41
0.5
  0
LINE
  5
205
  8
_________2
 62
     7
 10
103.55
 20
5.9087199999999989
 30
0.0
 11
183.55099999999999
 21
5.9087199999999989
 31
0.0
  0
TEXT
  5
206
  8
_________2
 62
     7
 10
104.605
 20
11.6793
 30
0.0
 40
3.0923400000000001
  1
品番
 41
0.5
  0
TEXT
  5
207
  8
_________2
 62
     7
 10
104.605
 20
31.8184
 30
0.0
 40
3.0923400000000001
  1
名称
 41
0.5
  0
TEXT
  5
208
  8
_________2
 62
     7
 10
91.844758333333345
 20
26.822299999999998
 30
0.0
 40
3.6545800000000002
  1
mm
 41
0.5
 72
     1
 11
93.367500000000007
 21
26.822299999999998
 31
0.0
  0
TEXT
  5
209
  8
_________2
 62
     7
 10
85.642899999999983
 20
31.8184
 30
0.0
 40
3.0923400000000001
  1
単位
 41
0.5
  0
TEXT
  5
20A
  8
_________2
 62
     7
 10
85.642899999999983
 20
19.410799999999998
 30
0.0
 40
3.0923400000000001
  1
尺度
 41
0.5
  0
TEXT
  5
20B
  8
_________2
 62
     7
 10
90.091636166666675
 20
13.2182
 30
0.0
 40
3.6545800000000002
  1
1 ： 10
 41
0.5
 72
     1
 11
93.959400000000016
 21
13.2182
 31
0.0
  0
TEXT
  5
20C
  8
_________2
 62
     7
 10
132.23486249999999
 20
9.1082000000000001
 30
0.0
 40
3.9357000000000002
  1
DV047262R-00
 41
0.5
 72
     1
 11
143.55000000000001
 21
9.1082000000000001
 31
0.0
  0
TEXT
  5
20D
  8
_________2
 62
     7
 10
134.85866250000001
 20
-0.8926299999999999
 30
0.0
 40
3.9357000000000002
  1
DV047262R
 41
0.5
 72
     1
 11
143.55000000000001
 21
-0.8926299999999999
 31
0.0
  0
TEXT
  5
20E
  8
_________2
 62
     7
 10
20.790090666666661
 20
13.603400000000001
 30
0.0
 40
3.6545800000000002
  1
恋塚
 41
0.5
 72
     1
 11
22.7392
 21
13.603400000000001
 31
0.0
  0
TEXT
  5
20F
  8
_________2
 62
     7
 10
67.785399999999996
 20
13.2182
 30
0.0
 40
3.6545800000000002
  1
18.10.11
 41
0.5
  0
TEXT
  5
210
  8
_________2
 62
     7
 10
66.592699999999994
 20
19.410799999999998
 30
0.0
 40
3.0923400000000001
  1
日付
 41
0.5
  0
TEXT
  5
211
  8
_________2
 62
     7
 10
29.638999999999999
 20
19.410799999999998
 30
0.0
 40
3.0923400000000001
  1
検図
 41
0.5
  0
TEXT
  5
212
  8
_________2
 62
     7
 10
18.020700000000001
 20
5.21143
 30
0.0
 40
3.0923400000000001
  1
備考
 41
0.5
  0
TEXT
  5
213
  8
_________2
 62
     7
 10
18.020700000000001
 20
19.410799999999998
 30
0.0
 40
3.0923400000000001
  1
製図
 41
0.5
  0
TEXT
  5
214
  8
_________2
 62
     7
 10
23.788165333333339
 20
27.936800000000002
 30
0.0
 40
4.4979399999999989
  1
セラトレーディング株式会社
 41
0.5
 72
     1
 11
41.180199999999999
 21
27.936800000000002
 31
0.0
  0
LINE
  5
215
  8
_________2
 62
     7
 10
183.55099999999999
 20
-4.0910799999999998
 30
0.0
 11
17.049199999999999
 21
-4.0910799999999998
 31
0.0
  0
LINE
  5
216
  8
_________2
 62
     7
 10
17.049199999999999
 20
-4.0910799999999998
 30
0.0
 11
17.049199999999999
 21
258.911
 31
0.0
  0
LINE
  5
217
  8
_________2
 62
     7
 10
17.049199999999999
 20
258.911
 30
0.0
 11
183.55099999999999
 21
258.911
 31
0.0
  0
LINE
  5
218
  8
_________2
 62
     7
 10
183.55099999999999
 20
258.911
 30
0.0
 11
183.55099999999999
 21
-4.0910799999999998
 31
0.0
  0
LINE
  5
219
  8
_________2
 62
     7
 10
65.549599999999998
 20
9.4092999999999982
 30
0.0
 11
65.549599999999998
 21
35.909100000000002
 31
0.0
  0
LINE
  5
21A
  8
_________2
 62
     7
 10
84.549400000000006
 20
9.4092999999999982
 30
0.0
 11
84.549400000000006
 21
35.909100000000002
 31
0.0
  0
LINE
  5
21B
  8
_________2
 62
     7
 10
103.55
 20
-4.0910799999999998
 30
0.0
 11
103.55
 21
35.909100000000002
 31
0.0
  0
LINE
  5
21C
  8
_________2
 62
     7
 10
28.548999999999999
 20
9.4092999999999982
 30
0.0
 11
28.548999999999999
 21
23.409199999999998
 31
0.0
  0
LINE
  5
21D
  8
_________2
 62
     7
 10
17.049199999999999
 20
9.4092999999999982
 30
0.0
 11
103.55
 21
9.4092999999999982
 31
0.0
  0
LINE
  5
21E
  8
_________2
 62
     7
 10
17.049199999999999
 20
23.409199999999998
 30
0.0
 11
103.55
 21
23.409199999999998
 31
0.0
  0
LINE
  5
21F
  8
_________2
 62
     7
 10
103.55
 20
15.9085
 30
0.0
 11
183.55099999999999
 21
15.9085
 31
0.0
  0
LINE
  5
220
  8
_________2
 62
     7
 10
17.049199999999999
 20
35.909100000000002
 30
0.0
 11
183.55099999999999
 21
35.909100000000002
 31
0.0
  0
ENDSEC
  0
EOF
