  0
SECTION
  2
HEADER
  9
$ACADVER
  1
AC1009
  9
$INSBASE
 10
0.0
 20
0.0
 30
0.0
  9
$EXTMIN
 10
-4.70052
 20
-21.070699999999992
 30
0.0
  9
$EXTMAX
 10
205.30099999999999
 20
275.93099999999993
 30
0.0
  9
$LIMMIN
 10
0.0
 20
0.0
  9
$LIMMAX
 10
12.0
 20
9.0
  9
$ORTHOMODE
 70
     0
  9
$REGENMODE
 70
     1
  9
$FILLMODE
 70
     1
  9
$QTEXTMODE
 70
     0
  9
$MIRRTEXT
 70
     1
  9
$DRAGMODE
 70
     2
  9
$LTSCALE
 40
1.0
  9
$OSMODE
 70
    37
  9
$ATTMODE
 70
     1
  9
$TEXTSIZE
 40
0.0
  9
$TRACEWID
 40
0.05
  9
$TEXTSTYLE
  7
STANDARD
  9
$CLAYER
  8
0
  9
$CELTYPE
  6
CONTINUOUS
  9
$CECOLOR
 62
   256
  9
$DIMSCALE
 40
1.0
  9
$DIMASZ
 40
0.18
  9
$DIMEXO
 40
0.0625
  9
$DIMDLI
 40
0.38
  9
$DIMRND
 40
0.0
  9
$DIMDLE
 40
0.0
  9
$DIMEXE
 40
0.18
  9
$DIMTP
 40
0.0
  9
$DIMTM
 40
0.0
  9
$DIMTXT
 40
0.18
  9
$DIMCEN
 40
0.09
  9
$DIMTSZ
 40
0.0
  9
$DIMTOL
 70
     0
  9
$DIMLIM
 70
     0
  9
$DIMTIH
 70
     1
  9
$DIMTOH
 70
     1
  9
$DIMSE1
 70
     0
  9
$DIMSE2
 70
     0
  9
$DIMTAD
 70
     0
  9
$DIMZIN
 70
     0
  9
$DIMBLK
  1

  9
$DIMASO
 70
     1
  9
$DIMSHO
 70
     1
  9
$DIMPOST
  1

  9
$DIMAPOST
  1

  9
$DIMALT
 70
     0
  9
$DIMALTD
 70
     2
  9
$DIMALTF
 40
25.399999999999999
  9
$DIMLFAC
 40
1.0
  9
$DIMTOFL
 70
     0
  9
$DIMTVP
 40
0.0
  9
$DIMTIX
 70
     0
  9
$DIMSOXD
 70
     0
  9
$DIMSAH
 70
     0
  9
$DIMBLK1
  1

  9
$DIMBLK2
  1

  9
$DIMSTYLE
  2
STANDARD
  9
$DIMCLRD
 70
     0
  9
$DIMCLRE
 70
     0
  9
$DIMCLRT
 70
     0
  9
$DIMTFAC
 40
1.0
  9
$DIMGAP
 40
0.09
  9
$LUNITS
 70
     2
  9
$LUPREC
 70
     4
  9
$SKETCHINC
 40
0.1
  9
$FILLETRAD
 40
0.0
  9
$AUNITS
 70
     0
  9
$AUPREC
 70
     0
  9
$MENU
  1
.
  9
$ELEVATION
 40
0.0
  9
$PELEVATION
 40
0.0
  9
$THICKNESS
 40
0.0
  9
$LIMCHECK
 70
     0
  9
$BLIPMODE
 70
     0
  9
$CHAMFERA
 40
0.0
  9
$CHAMFERB
 40
0.0
  9
$SKPOLY
 70
     0
  9
$TDCREATE
 40
2444972.375
  9
$TDUPDATE
 40
2453620.256302801
  9
$TDINDWG
 40
0.0000101505
  9
$TDUSRTIMER
 40
0.0000101505
  9
$USRTIMER
 70
     1
  9
$ANGBASE
 50
0.0
  9
$ANGDIR
 70
     0
  9
$PDMODE
 70
     0
  9
$PDSIZE
 40
0.0
  9
$PLINEWID
 40
0.0
  9
$COORDS
 70
     1
  9
$SPLFRAME
 70
     0
  9
$SPLINETYPE
 70
     6
  9
$SPLINESEGS
 70
     8
  9
$ATTDIA
 70
     0
  9
$ATTREQ
 70
     1
  9
$HANDLING
 70
 22529
  9
$HANDSEED
  5
C4
  9
$SURFTAB1
 70
     6
  9
$SURFTAB2
 70
     6
  9
$SURFTYPE
 70
     6
  9
$SURFU
 70
     6
  9
$SURFV
 70
     6
  9
$UCSNAME
  2

  9
$UCSORG
 10
0.0
 20
0.0
 30
0.0
  9
$UCSXDIR
 10
1.0
 20
0.0
 30
0.0
  9
$UCSYDIR
 10
0.0
 20
1.0
 30
0.0
  9
$PUCSNAME
  2

  9
$PUCSORG
 10
0.0
 20
0.0
 30
0.0
  9
$PUCSXDIR
 10
1.0
 20
0.0
 30
0.0
  9
$PUCSYDIR
 10
0.0
 20
1.0
 30
0.0
  9
$USERI1
 70
     0
  9
$USERI2
 70
     0
  9
$USERI3
 70
     0
  9
$USERI4
 70
     0
  9
$USERI5
 70
     0
  9
$USERR1
 40
0.0
  9
$USERR2
 40
0.0
  9
$USERR3
 40
0.0
  9
$USERR4
 40
0.0
  9
$USERR5
 40
0.0
  9
$WORLDVIEW
 70
     1
  9
$SHADEDGE
 70
     3
  9
$SHADEDIF
 70
    70
  9
$TILEMODE
 70
     1
  9
$MAXACTVP
 70
    48
  9
$PLIMCHECK
 70
     0
  9
$PEXTMIN
 10
1.0000000000000000E+020
 20
1.0000000000000000E+020
 30
1.0000000000000000E+020
  9
$PEXTMAX
 10
-1.0000000000000000E+020
 20
-1.0000000000000000E+020
 30
-1.0000000000000000E+020
  9
$PLIMMIN
 10
0.0
 20
0.0
  9
$PLIMMAX
 10
12.0
 20
9.0
  9
$UNITMODE
 70
     0
  9
$VISRETAIN
 70
     1
  9
$PLINEGEN
 70
     0
  9
$PSLTSCALE
 70
     1
  0
ENDSEC
  0
SECTION
  2
TABLES
  0
TABLE
  2
VPORT
 70
     2
  0
VPORT
  2
*ACTIVE
 70
     0
 10
0.0
 20
0.0
 11
1.0
 21
1.0
 12
189.5606461372218
 22
127.4301499999999
 13
0.0
 23
0.0
 14
1.0
 24
1.0
 15
0.0
 25
0.0
 16
0.0
 26
0.0
 36
1.0
 17
0.0
 27
0.0
 37
0.0
 40
299.24604534005027
 41
2.1842105263157889
 42
50.0
 43
0.0
 44
0.0
 50
0.0
 51
0.0
 71
     0
 72
   100
 73
     1
 74
     1
 75
     0
 76
     0
 77
     0
 78
     0
  0
ENDTAB
  0
TABLE
  2
LTYPE
 70
     2
  0
LTYPE
  2
CONTINUOUS
 70
     0
  3
Solid line
 72
    65
 73
     0
 40
0.0
  0
LTYPE
  2
AIGENLINE001
 70
     0
  3
generate AI->DXF Converter
 72
    65
 73
     4
 40
5.8561449999999988
 49
3.5278
 49
-0.776115
 49
0.776115
 49
-0.776115
  0
ENDTAB
  0
TABLE
  2
LAYER
 70
     2
  0
LAYER
  2
0
 70
     0
 62
     7
  6
CONTINUOUS
  0
LAYER
  2
_________2
 70
     0
 62
     7
  6
CONTINUOUS
  0
ENDTAB
  0
TABLE
  2
STYLE
 70
     1
  0
STYLE
  2
STANDARD
 70
     0
 40
0.0
 41
0.0
 50
0.0
 71
     0
 42
0.0
  3
TXT
  4
EXTFONT.SHX
  0
ENDTAB
  0
TABLE
  2
VIEW
 70
     0
  0
ENDTAB
  0
TABLE
  2
UCS
 70
     0
  0
ENDTAB
  0
TABLE
  2
APPID
 70
     1
  0
APPID
  2
ACAD
 70
     0
  0
ENDTAB
  0
TABLE
  2
DIMSTYLE
 70
     1
  0
DIMSTYLE
  2
STANDARD
 70
     0
  3

  4

  5

  6

  7

 40
1.0
 41
0.18
 42
0.0625
 43
0.38
 44
0.18
 45
0.0
 46
0.0
 47
0.0
 48
0.0
140
0.18
141
0.09
142
0.0
143
25.399999999999999
144
1.0
145
0.0
146
1.0
147
0.09
 71
     0
 72
     0
 73
     1
 74
     1
 75
     0
 76
     0
 77
     0
 78
     0
170
     0
171
     2
172
     0
173
     0
174
     0
175
     0
176
     0
177
     0
178
     0
  0
ENDTAB
  0
ENDSEC
  0
SECTION
  2
BLOCKS
  0
BLOCK
  8
0
  2
$MODEL_SPACE
 70
     0
 10
0.0
 20
0.0
 30
0.0
  3
$MODEL_SPACE
  1

  0
ENDBLK
  5
1A
  8
0
  0
BLOCK
 67
     1
  8
0
  2
$PAPER_SPACE
 70
     0
 10
0.0
 20
0.0
 30
0.0
  3
$PAPER_SPACE
  1

  0
ENDBLK
  5
17
 67
     1
  8
0
  0
ENDSEC
  0
SECTION
  2
ENTITIES
  0
TEXT
  5
22
  8
0
 62
     7
 10
91.886399999999995
 20
187.16998749999999
 30
0.0
 40
2.8112200000000001
  1
230
 50
90.0
 41
0.5
 72
     1
 11
91.886399999999995
 21
188.92699999999999
 31
0.0
  0
TEXT
  5
23
  8
0
 62
     7
 10
126.93012166666659
 20
119.782
 30
0.0
 40
2.8112200000000001
  1
%%c18
 41
0.5
 72
     1
 11
128.56999999999999
 21
119.782
 31
0.0
  0
TEXT
  5
24
  8
0
 62
     7
 10
153.74038999999999
 20
118.60599999999999
 30
0.0
 40
2.8112200000000001
  1
100
 41
0.5
 72
     1
 11
155.14599999999999
 21
118.60599999999999
 31
0.0
  0
TEXT
  5
25
  8
0
 62
     7
 10
129.7939999999999
 20
130.86365833333329
 30
0.0
 40
2.8112200000000001
  1
25
 50
90.0
 41
0.5
 72
     1
 11
129.7939999999999
 21
132.03499999999991
 31
0.0
  0
TEXT
  5
26
  8
0
 62
     7
 10
98.230599999999995
 20
99.091987499999988
 30
0.0
 40
2.8112200000000001
  1
280
 50
90.0
 41
0.5
 72
     1
 11
98.230599999999995
 21
100.8489999999999
 31
0.0
  0
TEXT
  5
27
  8
0
 62
     7
 10
59.536921666666657
 20
226.81399999999999
 30
0.0
 40
2.8112200000000001
  1
165
 41
0.5
 72
     1
 11
61.1768
 21
226.81399999999999
 31
0.0
  0
ARC
  5
28
  8
0
 62
     7
 10
143.08373
 20
128.81870499999991
 30
0.0
 40
2.249919999999999
 50
269.99782699999997
 51
359.99779699999999
  0
ARC
  5
29
  8
0
 62
     7
 10
143.08355700000001
 20
128.81870499999991
 30
0.0
 40
2.249919999999999
 50
180.00220300000001
 51
270.00221299999993
  0
ARC
  5
2A
  8
0
 62
     7
 10
143.08364399999999
 20
128.8186189999999
 30
0.0
 40
2.2500059999999991
 50
90.0
 51
179.99996999999991
  0
ARC
  5
2B
  8
0
 62
     7
 10
143.083643
 20
128.8186189999999
 30
0.0
 40
2.2500059999999991
 50
0.00001
 51
89.999980000000008
  0
LINE
  5
2C
  8
0
  6
AIGENLINE001
 62
     7
 10
61.4495
 20
154.35599999999999
 30
0.0
 11
61.4495
 21
220.989
 31
0.0
  0
LINE
  5
2D
  8
0
 62
     7
 10
78.8977
 20
174.5149999999999
 30
0.0
 11
82.074100000000016
 21
215.85599999999999
 31
0.0
  0
LINE
  5
2E
  8
0
 62
     7
 10
75.158299999999997
 20
174.79900000000001
 30
0.0
 11
78.324399999999997
 21
215.85599999999999
 31
0.0
  0
LINE
  5
2F
  8
0
 62
     7
 10
44.000500000000002
 20
174.5149999999999
 30
0.0
 11
40.824100000000001
 21
215.85599999999999
 31
0.0
  0
LINE
  5
30
  8
0
 62
     7
 10
47.739899999999999
 20
174.79900000000001
 30
0.0
 11
44.574100000000001
 21
215.85599999999999
 31
0.0
  0
ARC
  5
31
  8
0
 62
     7
 10
61.449564000000002
 20
175.85592999999989
 30
0.0
 40
13.75044299999999
 50
184.41109099999991
 51
274.40836899999999
  0
ARC
  5
32
  8
0
 62
     7
 10
61.023681999999987
 20
176.28077799999991
 30
0.0
 40
14.212175999999999
 50
275.98876699999988
 51
354.01280299999991
  0
ARC
  5
33
  8
0
 62
     7
 10
61.449256999999989
 20
175.85557099999991
 30
0.0
 40
17.500197
 50
184.395062
 51
274.39511099999987
  0
ARC
  5
34
  8
0
 62
     7
 10
60.907265000000002
 20
176.3971949999999
 30
0.0
 40
18.088643999999999
 50
275.97554699999989
 51
354.025689
  0
LINE
  5
35
  8
0
 62
     7
 10
40.824100000000001
 20
215.85599999999999
 30
0.0
 11
82.074100000000016
 21
215.85599999999999
 31
0.0
  0
ARC
  5
36
  8
0
 62
     7
 10
43.324415999999999
 20
67.568050999999997
 30
0.0
 40
2.500121
 50
179.99996999999991
 51
270.00002000000001
  0
LINE
  5
37
  8
0
 62
     7
 10
40.824300000000001
 20
135.0689999999999
 30
0.0
 11
40.824300000000001
 21
67.568100000000001
 31
0.0
  0
ARC
  5
38
  8
0
 62
     7
 10
79.574714999999998
 20
67.567965999999998
 30
0.0
 40
2.5000360000000001
 50
270.00199399999991
 51
0.001964
  0
LINE
  5
39
  8
0
 62
     7
 10
43.324399999999997
 20
65.067899999999995
 30
0.0
 11
79.574799999999996
 21
65.067899999999995
 31
0.0
  0
LINE
  5
3A
  8
0
 62
     7
 10
82.074799999999996
 20
135.0689999999999
 30
0.0
 11
82.074799999999996
 21
67.568100000000001
 31
0.0
  0
LINE
  5
3B
  8
0
  6
AIGENLINE001
 62
     7
 10
61.4495
 20
141.303
 30
0.0
 11
61.4495
 21
60.692599999999992
 31
0.0
  0
LINE
  5
3C
  8
0
 62
     7
 10
125.06099999999989
 20
118.28100000000001
 30
0.0
 11
132.54599999999991
 21
118.28100000000001
 31
0.0
  0
LINE
  5
3D
  8
0
 62
     7
 10
143.084
 20
117.7699999999999
 30
0.0
 11
168.084
 21
117.7699999999999
 31
0.0
  0
LINE
  5
3E
  8
0
 62
     7
 10
110.583
 20
135.0689999999999
 30
0.0
 11
168.084
 21
135.0689999999999
 31
0.0
  0
LINE
  5
3F
  8
0
 62
     7
 10
168.084
 20
135.0689999999999
 30
0.0
 11
168.084
 21
65.067899999999995
 31
0.0
  0
ARC
  5
40
  8
0
 62
     7
 10
113.0832179999999
 20
67.568050999999997
 30
0.0
 40
2.500121
 50
179.99996999999991
 51
270.00002000000001
  0
LINE
  5
41
  8
0
 62
     7
 10
110.583
 20
135.0689999999999
 30
0.0
 11
110.583
 21
67.568100000000001
 31
0.0
  0
LINE
  5
42
  8
0
 62
     7
 10
113.083
 20
65.067899999999995
 30
0.0
 11
168.084
 21
65.067899999999995
 31
0.0
  0
LINE
  5
43
  8
0
 62
     7
 10
40.824300000000001
 20
135.0689999999999
 30
0.0
 11
82.074799999999996
 21
135.0689999999999
 31
0.0
  0
LINE
  5
44
  8
0
 62
     7
 10
131.17500000000001
 20
135.0689999999999
 30
0.0
 11
131.17500000000001
 21
128.8189999999999
 31
0.0
  0
LINE
  5
45
  8
0
 62
     7
 10
143.084
 20
123.697
 30
0.0
 11
143.084
 21
116.59399999999989
 31
0.0
  0
LINE
  5
46
  8
0
 62
     7
 10
147.71600000000001
 20
133.44999999999999
 30
0.0
 11
132.54599999999991
 21
118.28100000000001
 31
0.0
  0
LINE
  5
47
  8
0
  6
AIGENLINE001
 62
     7
 10
143.084
 20
132.83699999999999
 30
0.0
 11
143.084
 21
124.37
 31
0.0
  0
LINE
  5
48
  8
0
 62
     7
 10
130.05799999999991
 20
128.8189999999999
 30
0.0
 11
137.99600000000001
 21
128.8189999999999
 31
0.0
  0
LINE
  5
49
  8
0
  6
AIGENLINE001
 62
     7
 10
139.01599999999991
 20
128.8189999999999
 30
0.0
 11
146.95400000000001
 21
128.8189999999999
 31
0.0
  0
LINE
  5
4A
  8
0
 62
     7
 10
43.035899999999991
 20
226.49199999999999
 30
0.0
 11
40.824300000000001
 21
225.89999999999989
 31
0.0
  0
LINE
  5
4B
  8
0
 62
     7
 10
40.824300000000001
 20
225.89999999999989
 30
0.0
 11
43.035899999999991
 21
225.30699999999999
 31
0.0
  0
LINE
  5
4C
  8
0
 62
     7
 10
43.035899999999991
 20
225.30699999999999
 30
0.0
 11
43.035899999999991
 21
226.49199999999999
 31
0.0
  0
LINE
  5
4D
  8
0
 62
     7
 10
79.863200000000006
 20
225.322
 30
0.0
 11
82.074799999999996
 21
225.91399999999999
 31
0.0
  0
LINE
  5
4E
  8
0
 62
     7
 10
82.074799999999996
 20
225.91399999999999
 30
0.0
 11
79.863200000000006
 21
226.50700000000001
 31
0.0
  0
LINE
  5
4F
  8
0
 62
     7
 10
79.863200000000006
 20
226.50700000000001
 30
0.0
 11
79.863200000000006
 21
225.322
 31
0.0
  0
LINE
  5
50
  8
0
 62
     7
 10
40.824300000000001
 20
225.90700000000001
 30
0.0
 11
82.074799999999996
 21
225.90700000000001
 31
0.0
  0
LINE
  5
51
  8
0
 62
     7
 10
82.074799999999996
 20
227.06899999999999
 30
0.0
 11
82.074799999999996
 21
217.059
 31
0.0
  0
LINE
  5
52
  8
0
 62
     7
 10
40.824300000000001
 20
227.06899999999999
 30
0.0
 11
40.824300000000001
 21
217.059
 31
0.0
  0
LINE
  5
53
  8
0
 62
     7
 10
93.805700000000002
 20
213.71599999999989
 30
0.0
 11
93.213300000000004
 21
215.92699999999999
 31
0.0
  0
LINE
  5
54
  8
0
 62
     7
 10
93.213300000000004
 20
215.92699999999999
 30
0.0
 11
92.620599999999996
 21
213.71599999999989
 31
0.0
  0
LINE
  5
55
  8
0
 62
     7
 10
92.620599999999996
 20
213.71599999999989
 30
0.0
 11
93.805700000000002
 21
213.71599999999989
 31
0.0
  0
LINE
  5
56
  8
0
 62
     7
 10
92.635199999999983
 20
160.49700000000001
 30
0.0
 11
93.227799999999988
 21
158.286
 31
0.0
  0
LINE
  5
57
  8
0
 62
     7
 10
93.227799999999988
 20
158.286
 30
0.0
 11
93.820400000000006
 21
160.49700000000001
 31
0.0
  0
LINE
  5
58
  8
0
 62
     7
 10
93.820400000000006
 20
160.49700000000001
 30
0.0
 11
92.635199999999983
 21
160.49700000000001
 31
0.0
  0
LINE
  5
59
  8
0
 62
     7
 10
93.220600000000005
 20
215.85599999999999
 30
0.0
 11
93.220600000000005
 21
158.3549999999999
 31
0.0
  0
LINE
  5
5A
  8
0
 62
     7
 10
83.823499999999996
 20
215.85599999999999
 30
0.0
 11
94.576400000000007
 21
215.85599999999999
 31
0.0
  0
LINE
  5
5B
  8
0
 62
     7
 10
69.229299999999995
 20
158.3549999999999
 30
0.0
 11
94.576400000000007
 21
158.3549999999999
 31
0.0
  0
LINE
  5
5C
  8
0
 62
     7
 10
139.5089999999999
 20
126.083
 30
0.0
 11
141.49299999999999
 21
127.22799999999999
 31
0.0
  0
LINE
  5
5D
  8
0
 62
     7
 10
141.49299999999999
 20
127.22799999999999
 30
0.0
 11
140.3479999999999
 21
125.2439999999999
 31
0.0
  0
LINE
  5
5E
  8
0
 62
     7
 10
140.3479999999999
 20
125.2439999999999
 30
0.0
 11
139.5089999999999
 21
126.083
 31
0.0
  0
LINE
  5
5F
  8
0
 62
     7
 10
145.8189999999999
 20
132.393
 30
0.0
 11
144.67500000000001
 21
130.41
 31
0.0
  0
LINE
  5
60
  8
0
 62
     7
 10
144.67500000000001
 20
130.41
 30
0.0
 11
146.6579999999999
 21
131.55499999999989
 31
0.0
  0
LINE
  5
61
  8
0
 62
     7
 10
146.6579999999999
 20
131.55499999999989
 30
0.0
 11
145.8189999999999
 21
132.393
 31
0.0
  0
LINE
  5
62
  8
0
 62
     7
 10
145.2949999999999
 20
117.17700000000001
 30
0.0
 11
143.084
 21
117.7699999999999
 31
0.0
  0
LINE
  5
63
  8
0
 62
     7
 10
143.084
 20
117.7699999999999
 30
0.0
 11
145.2949999999999
 21
118.36199999999999
 31
0.0
  0
LINE
  5
64
  8
0
 62
     7
 10
145.2949999999999
 20
118.36199999999999
 30
0.0
 11
145.2949999999999
 21
117.17700000000001
 31
0.0
  0
LINE
  5
65
  8
0
 62
     7
 10
165.87200000000001
 20
117.17700000000001
 30
0.0
 11
168.084
 21
117.7699999999999
 31
0.0
  0
LINE
  5
66
  8
0
 62
     7
 10
168.084
 20
117.7699999999999
 30
0.0
 11
165.87200000000001
 21
118.36199999999999
 31
0.0
  0
LINE
  5
67
  8
0
 62
     7
 10
165.87200000000001
 20
118.36199999999999
 30
0.0
 11
165.87200000000001
 21
117.17700000000001
 31
0.0
  0
LINE
  5
68
  8
0
 62
     7
 10
130.583
 20
131.03
 30
0.0
 11
131.17500000000001
 21
128.8189999999999
 31
0.0
  0
LINE
  5
69
  8
0
 62
     7
 10
131.17500000000001
 20
128.8189999999999
 30
0.0
 11
131.76799999999989
 21
131.03
 31
0.0
  0
LINE
  5
6A
  8
0
 62
     7
 10
131.76799999999989
 20
131.03
 30
0.0
 11
130.583
 21
131.03
 31
0.0
  0
LINE
  5
6B
  8
0
 62
     7
 10
131.76799999999989
 20
132.857
 30
0.0
 11
131.17500000000001
 21
135.0689999999999
 31
0.0
  0
LINE
  5
6C
  8
0
 62
     7
 10
131.17500000000001
 20
135.0689999999999
 30
0.0
 11
130.583
 21
132.857
 31
0.0
  0
LINE
  5
6D
  8
0
 62
     7
 10
130.583
 20
132.857
 30
0.0
 11
131.76799999999989
 21
132.857
 31
0.0
  0
LINE
  5
6E
  8
0
 62
     7
 10
100.161
 20
132.89500000000001
 30
0.0
 11
99.568900000000014
 21
135.10699999999991
 31
0.0
  0
LINE
  5
6F
  8
0
 62
     7
 10
99.568900000000014
 20
135.10699999999991
 30
0.0
 11
98.976299999999995
 21
132.89500000000001
 31
0.0
  0
LINE
  5
70
  8
0
 62
     7
 10
98.976299999999995
 20
132.89500000000001
 30
0.0
 11
100.161
 21
132.89500000000001
 31
0.0
  0
LINE
  5
71
  8
0
 62
     7
 10
98.991
 20
67.246300000000005
 30
0.0
 11
99.583399999999983
 21
65.034499999999994
 31
0.0
  0
LINE
  5
72
  8
0
 62
     7
 10
99.583399999999983
 20
65.034499999999994
 30
0.0
 11
100.1759999999999
 21
67.246300000000005
 31
0.0
  0
LINE
  5
73
  8
0
 62
     7
 10
100.1759999999999
 20
67.246300000000005
 30
0.0
 11
98.991
 21
67.246300000000005
 31
0.0
  0
LINE
  5
74
  8
0
 62
     7
 10
99.576099999999997
 20
135.0689999999999
 30
0.0
 11
99.576099999999997
 21
65.067899999999995
 31
0.0
  0
LINE
  5
75
  8
0
 62
     7
 10
98.103700000000003
 20
135.0689999999999
 30
0.0
 11
108.7939999999999
 21
135.0689999999999
 31
0.0
  0
LINE
  5
76
  8
0
 62
     7
 10
98.103700000000003
 20
65.067899999999995
 30
0.0
 11
109.569
 21
65.067899999999995
 31
0.0
  0
LINE
  5
77
  8
_________2
 62
     7
 10
205.30099999999999
 20
127.41200000000001
 30
0.0
 11
183.55099999999999
 21
127.41200000000001
 31
0.0
  0
LINE
  5
78
  8
_________2
 62
     7
 10
100.2999999999999
 20
-4.0910799999999998
 30
0.0
 11
100.2999999999999
 21
-21.070699999999992
 31
0.0
  0
LINE
  5
79
  8
_________2
 62
     7
 10
100.2999999999999
 20
275.93099999999993
 30
0.0
 11
100.2999999999999
 21
258.911
 31
0.0
  0
LINE
  5
7A
  8
_________2
 62
     7
 10
17.049499999999998
 20
127.41200000000001
 30
0.0
 11
-4.70052
 21
127.41200000000001
 31
0.0
  0
LINE
  5
7B
  8
_________2
 62
     7
 10
76.741200000000006
 20
28.740500000000001
 30
0.0
 11
74.554699999999997
 21
28.740500000000001
 31
0.0
  0
LINE
  5
7C
  8
_________2
 62
     7
 10
77.233800000000002
 20
28.740500000000001
 30
0.0
 11
76.981700000000004
 21
28.740500000000001
 31
0.0
  0
LINE
  5
7D
  8
_________2
 62
     7
 10
77.726299999999995
 20
28.740500000000001
 30
0.0
 11
80.651399999999995
 21
28.740500000000001
 31
0.0
  0
LINE
  5
7E
  8
_________2
 62
     7
 10
77.233800000000002
 20
28.740500000000001
 30
0.0
 11
77.485699999999994
 21
28.740500000000001
 31
0.0
  0
LINE
  5
7F
  8
_________2
 62
     7
 10
70.837299999999999
 20
28.740500000000001
 30
0.0
 11
68.650499999999994
 21
28.740500000000001
 31
0.0
  0
LINE
  5
80
  8
_________2
 62
     7
 10
71.329800000000006
 20
28.740500000000001
 30
0.0
 11
71.077799999999996
 21
28.740500000000001
 31
0.0
  0
LINE
  5
81
  8
_________2
 62
     7
 10
71.329800000000006
 20
29.232900000000001
 30
0.0
 11
71.329800000000006
 21
31.419799999999999
 31
0.0
  0
LINE
  5
82
  8
_________2
 62
     7
 10
71.329800000000006
 20
28.740500000000001
 30
0.0
 11
71.329800000000006
 21
28.992699999999989
 31
0.0
  0
LINE
  5
83
  8
_________2
 62
     7
 10
71.822400000000002
 20
28.740500000000001
 30
0.0
 11
74.009
 21
28.740500000000001
 31
0.0
  0
LINE
  5
84
  8
_________2
 62
     7
 10
71.329800000000006
 20
28.740500000000001
 30
0.0
 11
71.581999999999994
 21
28.740500000000001
 31
0.0
  0
LINE
  5
85
  8
_________2
 62
     7
 10
71.329800000000006
 20
28.248200000000001
 30
0.0
 11
71.329800000000006
 21
26.061299999999999
 31
0.0
  0
LINE
  5
86
  8
_________2
 62
     7
 10
71.329800000000006
 20
28.740500000000001
 30
0.0
 11
71.329800000000006
 21
28.488700000000001
 31
0.0
  0
LINE
  5
87
  8
_________2
 62
     7
 10
75.040899999999993
 20
27.521000000000001
 30
0.0
 11
80.218500000000006
 21
26.655899999999988
 31
0.0
  0
LINE
  5
88
  8
_________2
 62
     7
 10
75.040899999999993
 20
29.960100000000001
 30
0.0
 11
80.218500000000006
 21
30.825199999999999
 31
0.0
  0
LINE
  5
89
  8
_________2
 62
     7
 10
80.218500000000006
 20
26.655899999999988
 30
0.0
 11
80.218500000000006
 21
30.825199999999999
 31
0.0
  0
LINE
  5
8A
  8
_________2
 62
     7
 10
75.040899999999993
 20
27.521000000000001
 30
0.0
 11
75.040899999999993
 21
29.960100000000001
 31
0.0
  0
ARC
  5
8B
  8
_________2
 62
     7
 10
71.329860999999994
 20
28.740459999999992
 30
0.0
 40
1.219657999999999
 50
0.004056
 51
90.004025999999996
  0
ARC
  5
8C
  8
_________2
 62
     7
 10
71.329689000000002
 20
28.740459999999992
 30
0.0
 40
1.219657999999999
 50
89.995953999999998
 51
179.99592399999989
  0
ARC
  5
8D
  8
_________2
 62
     7
 10
71.329689000000002
 20
28.740632000000002
 30
0.0
 40
1.2196569999999991
 50
180.00405599999999
 51
270.00406600000002
  0
ARC
  5
8E
  8
_________2
 62
     7
 10
71.329860999999994
 20
28.740632999999999
 30
0.0
 40
1.219657999999999
 50
269.99597399999999
 51
359.99594400000001
  0
ARC
  5
8F
  8
_________2
 62
     7
 10
71.329774999999984
 20
28.740545999999998
 30
0.0
 40
2.0846409999999991
 50
0.00001
 51
89.999980000000008
  0
ARC
  5
90
  8
_________2
 62
     7
 10
71.329689000000002
 20
28.740459999999992
 30
0.0
 40
2.0847269999999991
 50
89.997632999999993
 51
179.997603
  0
ARC
  5
91
  8
_________2
 62
     7
 10
71.409621999999999
 20
28.820571999999999
 30
0.0
 40
2.1661389999999989
 50
182.11724599999999
 51
267.88751799999989
  0
ARC
  5
92
  8
_________2
 62
     7
 10
71.249769999999998
 20
28.820550999999998
 30
0.0
 40
2.1661229999999989
 50
272.11667999999992
 51
357.88332999999989
  0
TEXT
  5
93
  8
_________2
 62
     7
 10
32.7119
 20
18.486799999999992
 30
0.0
 40
2.5300899999999991
  1
福田
 41
0.5
  0
TEXT
  5
94
  8
_________2
 62
     7
 10
22.456299999999992
 20
18.486799999999992
 30
0.0
 40
2.5300899999999991
  1
石原
 41
0.5
  0
TEXT
  5
95
  8
_________2
 62
     7
 10
104.605
 20
11.6669
 30
0.0
 40
2.248969999999999
  1
図番
 41
0.5
  0
TEXT
  5
96
  8
_________2
 62
     7
 10
104.605
 20
30.805199999999989
 30
0.0
 40
2.248969999999999
  1
名称
 41
0.5
  0
TEXT
  5
97
  8
_________2
 62
     7
 10
90.890100000000004
 20
25.319900000000001
 30
0.0
 40
3.3734599999999988
  1
m m
 41
0.5
  0
TEXT
  5
98
  8
_________2
 62
     7
 10
85.643199999999993
 20
30.805199999999989
 30
0.0
 40
2.248969999999999
  1
単位
 41
0.5
  0
TEXT
  5
99
  8
_________2
 62
     7
 10
85.643199999999993
 20
20.398199999999999
 30
0.0
 40
2.248969999999999
  1
尺度
 41
0.5
  0
TEXT
  5
9A
  8
_________2
 62
     7
 10
88.186599999999984
 20
14.078099999999999
 30
0.0
 40
3.6545800000000002
  1
1 ： 4
 41
0.5
  0
TEXT
  5
9B
  8
_________2
 62
     7
 10
136.17056249999999
 20
1.6460799999999991
 30
0.0
 40
3.9357000000000002
  1
DV086517
 41
0.5
 72
     1
 11
143.55000000000001
 21
1.6460799999999991
 31
0.0
  0
TEXT
  5
9C
  8
_________2
 62
     7
 10
24.587099999999989
 20
0.707627
 30
0.0
 40
3.9357000000000002
  1
重量：5.8kg
 41
0.5
  0
TEXT
  5
9D
  8
_________2
 62
     7
 10
109.179
 20
24.226099999999999
 30
0.0
 40
3.9357000000000002
  1
ハーフペデスタル 
 41
0.5
  0
TEXT
  5
9E
  8
_________2
 62
     7
 10
67.785600000000002
 20
14.078099999999999
 30
0.0
 40
3.6545800000000002
  1
05.09.01
 41
0.5
  0
TEXT
  5
9F
  8
_________2
 62
     7
 10
66.593100000000007
 20
20.398199999999999
 30
0.0
 40
2.248969999999999
  1
日付
 41
0.5
  0
TEXT
  5
A0
  8
_________2
 62
     7
 10
29.639399999999998
 20
20.398199999999999
 30
0.0
 40
2.248969999999999
  1
検図
 41
0.5
  0
TEXT
  5
A1
  8
_________2
 62
     7
 10
18.021399999999989
 20
6.1988000000000003
 30
0.0
 40
2.248969999999999
  1
備考
 41
0.5
  0
TEXT
  5
A2
  8
_________2
 62
     7
 10
18.021399999999989
 20
20.398199999999999
 30
0.0
 40
2.248969999999999
  1
製図
 41
0.5
  0
TEXT
  5
A3
  8
_________2
 62
     7
 10
23.788665333333341
 20
26.7179
 30
0.0
 40
4.4979399999999989
  1
セラトレーディング株式会社
 41
0.5
 72
     1
 11
41.180700000000002
 21
26.7179
 31
0.0
  0
LINE
  5
A4
  8
_________2
 62
     7
 10
183.55099999999999
 20
-4.0910799999999998
 30
0.0
 11
17.049499999999998
 21
-4.0910799999999998
 31
0.0
  0
LINE
  5
A5
  8
_________2
 62
     7
 10
17.049499999999998
 20
-4.0910799999999998
 30
0.0
 11
17.049499999999998
 21
258.911
 31
0.0
  0
LINE
  5
A6
  8
_________2
 62
     7
 10
17.049499999999998
 20
258.911
 30
0.0
 11
183.55099999999999
 21
258.911
 31
0.0
  0
LINE
  5
A7
  8
_________2
 62
     7
 10
183.55099999999999
 20
258.911
 30
0.0
 11
183.55099999999999
 21
-4.0910799999999998
 31
0.0
  0
LINE
  5
A8
  8
_________2
 62
     7
 10
65.549700000000001
 20
9.4092999999999982
 30
0.0
 11
65.549700000000001
 21
33.909300000000002
 31
0.0
  0
LINE
  5
A9
  8
_________2
 62
     7
 10
84.549899999999994
 20
9.4092999999999982
 30
0.0
 11
84.549899999999994
 21
33.909300000000002
 31
0.0
  0
LINE
  5
AA
  8
_________2
 62
     7
 10
103.55
 20
-4.0910799999999998
 30
0.0
 11
103.55
 21
33.909300000000002
 31
0.0
  0
LINE
  5
AB
  8
_________2
 62
     7
 10
28.549700000000001
 20
9.4092999999999982
 30
0.0
 11
28.549700000000001
 21
23.409199999999998
 31
0.0
  0
LINE
  5
AC
  8
_________2
 62
     7
 10
17.049499999999998
 20
9.4092999999999982
 30
0.0
 11
103.55
 21
9.4092999999999982
 31
0.0
  0
LINE
  5
AD
  8
_________2
 62
     7
 10
17.049499999999998
 20
23.409199999999998
 30
0.0
 11
103.55
 21
23.409199999999998
 31
0.0
  0
LINE
  5
AE
  8
_________2
 62
     7
 10
103.55
 20
14.9091
 30
0.0
 11
183.55099999999999
 21
14.9091
 31
0.0
  0
LINE
  5
AF
  8
_________2
 62
     7
 10
17.049499999999998
 20
33.909300000000002
 30
0.0
 11
183.55099999999999
 21
33.909300000000002
 31
0.0
  0
ENDSEC
  0
EOF
