  0
SECTION
  2
HEADER
  9
$ACADVER
  1
AC1009
  9
$INSBASE
 10
0.0
 20
0.0
 30
0.0
  9
$EXTMIN
 10
-4.70052
 20
-21.071400000000001
 30
0.0
  9
$EXTMAX
 10
205.30099999999999
 20
275.93099999999998
 30
0.0
  9
$LIMMIN
 10
0.0
 20
0.0
  9
$LIMMAX
 10
12.0
 20
9.0
  9
$ORTHOMODE
 70
     0
  9
$REGENMODE
 70
     1
  9
$FILLMODE
 70
     1
  9
$QTEXTMODE
 70
     0
  9
$MIRRTEXT
 70
     1
  9
$DRAGMODE
 70
     2
  9
$LTSCALE
 40
1.0
  9
$OSMODE
 70
    37
  9
$ATTMODE
 70
     1
  9
$TEXTSIZE
 40
0.0
  9
$TRACEWID
 40
0.05
  9
$TEXTSTYLE
  7
STANDARD
  9
$CLAYER
  8
0
  9
$CELTYPE
  6
CONTINUOUS
  9
$CECOLOR
 62
   256
  9
$DIMSCALE
 40
1.0
  9
$DIMASZ
 40
0.18
  9
$DIMEXO
 40
0.0625
  9
$DIMDLI
 40
0.38
  9
$DIMRND
 40
0.0
  9
$DIMDLE
 40
0.0
  9
$DIMEXE
 40
0.18
  9
$DIMTP
 40
0.0
  9
$DIMTM
 40
0.0
  9
$DIMTXT
 40
0.18
  9
$DIMCEN
 40
0.09
  9
$DIMTSZ
 40
0.0
  9
$DIMTOL
 70
     0
  9
$DIMLIM
 70
     0
  9
$DIMTIH
 70
     1
  9
$DIMTOH
 70
     1
  9
$DIMSE1
 70
     0
  9
$DIMSE2
 70
     0
  9
$DIMTAD
 70
     0
  9
$DIMZIN
 70
     0
  9
$DIMBLK
  1

  9
$DIMASO
 70
     1
  9
$DIMSHO
 70
     1
  9
$DIMPOST
  1

  9
$DIMAPOST
  1

  9
$DIMALT
 70
     0
  9
$DIMALTD
 70
     2
  9
$DIMALTF
 40
25.399999999999999
  9
$DIMLFAC
 40
1.0
  9
$DIMTOFL
 70
     0
  9
$DIMTVP
 40
0.0
  9
$DIMTIX
 70
     0
  9
$DIMSOXD
 70
     0
  9
$DIMSAH
 70
     0
  9
$DIMBLK1
  1

  9
$DIMBLK2
  1

  9
$DIMSTYLE
  2
STANDARD
  9
$DIMCLRD
 70
     0
  9
$DIMCLRE
 70
     0
  9
$DIMCLRT
 70
     0
  9
$DIMTFAC
 40
1.0
  9
$DIMGAP
 40
0.09
  9
$LUNITS
 70
     2
  9
$LUPREC
 70
     4
  9
$SKETCHINC
 40
0.1
  9
$FILLETRAD
 40
0.0
  9
$AUNITS
 70
     0
  9
$AUPREC
 70
     0
  9
$MENU
  1
.
  9
$ELEVATION
 40
0.0
  9
$PELEVATION
 40
0.0
  9
$THICKNESS
 40
0.0
  9
$LIMCHECK
 70
     0
  9
$BLIPMODE
 70
     0
  9
$CHAMFERA
 40
0.0
  9
$CHAMFERB
 40
0.0
  9
$SKPOLY
 70
     0
  9
$TDCREATE
 40
2444972.375
  9
$TDUPDATE
 40
2458184.2504400001
  9
$TDINDWG
 40
0.0000334838
  9
$TDUSRTIMER
 40
0.0000334838
  9
$USRTIMER
 70
     1
  9
$ANGBASE
 50
0.0
  9
$ANGDIR
 70
     0
  9
$PDMODE
 70
     0
  9
$PDSIZE
 40
0.0
  9
$PLINEWID
 40
0.0
  9
$COORDS
 70
     1
  9
$SPLFRAME
 70
     0
  9
$SPLINETYPE
 70
     6
  9
$SPLINESEGS
 70
     8
  9
$ATTDIA
 70
     1
  9
$ATTREQ
 70
     1
  9
$HANDLING
 70
     1
  9
$HANDSEED
  5
232
  9
$SURFTAB1
 70
     6
  9
$SURFTAB2
 70
     6
  9
$SURFTYPE
 70
     6
  9
$SURFU
 70
     6
  9
$SURFV
 70
     6
  9
$UCSNAME
  2

  9
$UCSORG
 10
0.0
 20
0.0
 30
0.0
  9
$UCSXDIR
 10
1.0
 20
0.0
 30
0.0
  9
$UCSYDIR
 10
0.0
 20
1.0
 30
0.0
  9
$PUCSNAME
  2

  9
$PUCSORG
 10
0.0
 20
0.0
 30
0.0
  9
$PUCSXDIR
 10
1.0
 20
0.0
 30
0.0
  9
$PUCSYDIR
 10
0.0
 20
1.0
 30
0.0
  9
$USERI1
 70
     0
  9
$USERI2
 70
     0
  9
$USERI3
 70
     0
  9
$USERI4
 70
     0
  9
$USERI5
 70
     0
  9
$USERR1
 40
0.0
  9
$USERR2
 40
0.0
  9
$USERR3
 40
0.0
  9
$USERR4
 40
0.0
  9
$USERR5
 40
0.0
  9
$WORLDVIEW
 70
     1
  9
$SHADEDGE
 70
     3
  9
$SHADEDIF
 70
    70
  9
$TILEMODE
 70
     1
  9
$MAXACTVP
 70
    48
  9
$PLIMCHECK
 70
     0
  9
$PEXTMIN
 10
1.0000000000000000E+020
 20
1.0000000000000000E+020
 30
1.0000000000000000E+020
  9
$PEXTMAX
 10
-1.0000000000000000E+020
 20
-1.0000000000000000E+020
 30
-1.0000000000000000E+020
  9
$PLIMMIN
 10
0.0
 20
0.0
  9
$PLIMMAX
 10
12.0
 20
9.0
  9
$UNITMODE
 70
     0
  9
$VISRETAIN
 70
     1
  9
$PLINEGEN
 70
     0
  9
$PSLTSCALE
 70
     1
  0
ENDSEC
  0
SECTION
  2
TABLES
  0
TABLE
  2
VPORT
 70
     1
  0
VPORT
  2
*ACTIVE
 70
     0
 10
0.0
 20
0.0
 11
1.0
 21
1.0
 12
190.8818955579932
 22
127.4298
 13
0.0
 23
0.0
 14
1.0
 24
1.0
 15
0.0
 25
0.0
 16
0.0
 26
0.0
 36
1.0
 17
0.0
 27
0.0
 37
0.0
 40
280.9492874949953
 41
2.298642533936651
 42
50.0
 43
0.0
 44
0.0
 50
0.0
 51
0.0
 71
     0
 72
   100
 73
     1
 74
     1
 75
     0
 76
     0
 77
     0
 78
     0
  0
ENDTAB
  0
TABLE
  2
LTYPE
 70
     3
  0
LTYPE
  2
CONTINUOUS
 70
     0
  3
Solid line
 72
    65
 73
     0
 40
0.0
  0
LTYPE
  2
AIGENLINE001
 70
     0
  3
generate AI->DXF Converter
 72
    65
 73
     4
 40
5.8561449999999988
 49
3.5278
 49
-0.776115
 49
0.776115
 49
-0.776115
  0
LTYPE
  2
AIGENLINE002
 70
     0
  3
generate AI->DXF Converter
 72
    65
 73
     2
 40
1.5522299999999991
 49
0.776115
 49
-0.776115
  0
ENDTAB
  0
TABLE
  2
LAYER
 70
     2
  0
LAYER
  2
0
 70
     0
 62
     7
  6
CONTINUOUS
  0
LAYER
  2
_________2
 70
     0
 62
     7
  6
CONTINUOUS
  0
ENDTAB
  0
TABLE
  2
STYLE
 70
     1
  0
STYLE
  2
STANDARD
 70
     0
 40
0.0
 41
0.0
 50
0.0
 71
     0
 42
0.0
  3
TXT
  4
EXTFONT.SHX
  0
ENDTAB
  0
TABLE
  2
VIEW
 70
     0
  0
ENDTAB
  0
TABLE
  2
UCS
 70
     0
  0
ENDTAB
  0
TABLE
  2
APPID
 70
     3
  0
APPID
  2
ACAD
 70
     0
  0
APPID
  2
ACAD_NAV_VCDISPLAY
 70
     0
  0
APPID
  2
ACAD_MLEADERVER
 70
     0
  0
ENDTAB
  0
TABLE
  2
DIMSTYLE
 70
     1
  0
DIMSTYLE
  2
STANDARD
 70
     0
  3

  4

  5

  6

  7

 40
1.0
 41
0.18
 42
0.0625
 43
0.38
 44
0.18
 45
0.0
 46
0.0
 47
0.0
 48
0.0
140
0.18
141
0.09
142
0.0
143
25.399999999999999
144
1.0
145
0.0
146
1.0
147
0.09
 71
     0
 72
     0
 73
     1
 74
     1
 75
     0
 76
     0
 77
     0
 78
     0
170
     0
171
     2
172
     0
173
     0
174
     0
175
     0
176
     0
177
     0
178
     0
  0
ENDTAB
  0
ENDSEC
  0
SECTION
  2
BLOCKS
  0
BLOCK
  8
0
  2
$MODEL_SPACE
 70
     0
 10
0.0
 20
0.0
 30
0.0
  3
$MODEL_SPACE
  1

  0
ENDBLK
  5
1A
  8
0
  0
BLOCK
 67
     1
  8
0
  2
$PAPER_SPACE
 70
     0
 10
0.0
 20
0.0
 30
0.0
  3
$PAPER_SPACE
  1

  0
ENDBLK
  5
17
 67
     1
  8
0
  0
ENDSEC
  0
SECTION
  2
ENTITIES
  0
TEXT
  5
23
  8
0
 62
     7
 10
53.594499999999989
 20
206.77099999999999
 30
0.0
 40
3.0923400000000001
  1
%%c35
 41
0.5
  0
TEXT
  5
24
  8
0
 62
     7
 10
56.506999999999998
 20
176.64400000000001
 30
0.0
 40
3.0923400000000001
  1
%%c46
 41
0.5
  0
TEXT
  5
25
  8
0
 62
     7
 10
42.7849
 20
185.19399999999999
 30
0.0
 40
3.0923400000000001
  1
メーカーロゴ
 41
0.5
  0
TEXT
  5
26
  8
0
 62
     7
 10
154.49299999999999
 20
94.890882500000004
 30
0.0
 40
3.0923400000000001
  1
120
 50
90.0
 41
0.5
 72
     1
 11
154.49299999999999
 21
96.565900000000013
 31
0.0
  0
TEXT
  5
27
  8
0
 62
     7
 10
165.0344399999999
 20
80.434499999999986
 30
0.0
 40
3.0923400000000001
  1
225
 41
0.5
 72
     1
 11
167.096
 21
80.434499999999986
 31
0.0
  0
TEXT
  5
28
  8
0
 62
     7
 10
106.419
 20
98.049425000000014
 30
0.0
 40
3.0923400000000001
  1
55
 50
90.0
 41
0.5
 72
     1
 11
106.419
 21
99.337900000000005
 31
0.0
  0
TEXT
  5
29
  8
0
 62
     7
 10
118.93300000000001
 20
94.201234999999997
 30
0.0
 40
3.0923400000000001
  1
135
 50
90.0
 41
0.5
 72
     1
 11
118.93300000000001
 21
96.005099999999985
 31
0.0
  0
TEXT
  5
2A
  8
0
 62
     7
 10
125.31100000000001
 20
92.87138250000001
 30
0.0
 40
3.0923400000000001
  1
170
 50
90.0
 41
0.5
 72
     1
 11
125.31100000000001
 21
94.546400000000006
 31
0.0
  0
TEXT
  5
2B
  8
0
 62
     7
 10
86.374600000000001
 20
197.688525
 30
0.0
 40
3.0923400000000001
  1
65
 50
90.0
 41
0.5
 72
     1
 11
86.374600000000001
 21
198.977
 31
0.0
  0
TEXT
  5
2C
  8
0
 62
     7
 10
121.74299999999999
 20
156.22300000000001
 30
0.0
 40
3.0923400000000001
  1
25
 50
90.0
 41
0.5
  0
TEXT
  5
2D
  8
0
 62
     7
 10
121.74299999999999
 20
175.42113499999999
 30
0.0
 40
3.0923400000000001
  1
315
 50
90.0
 41
0.5
 72
     1
 11
121.74299999999999
 21
177.22499999999999
 31
0.0
  0
TEXT
  5
2E
  8
0
 62
     7
 10
121.74299999999999
 20
194.0919825
 30
0.0
 40
3.0923400000000001
  1
130
 50
90.0
 41
0.5
 72
     1
 11
121.74299999999999
 21
195.767
 31
0.0
  0
TEXT
  5
2F
  8
0
 62
     7
 10
129.75700000000001
 20
180.11828750000001
 30
0.0
 40
3.0923400000000001
  1
470
 50
90.0
 41
0.5
 72
     1
 11
129.75700000000001
 21
182.05099999999999
 31
0.0
  0
TEXT
  5
30
  8
0
 62
     7
 10
87.181434999999993
 20
110.941
 30
0.0
 40
3.0923400000000001
  1
175
 41
0.5
 72
     1
 11
88.985299999999995
 21
110.941
 31
0.0
  0
TEXT
  5
31
  8
0
 62
     7
 10
68.094087500000001
 20
110.941
 30
0.0
 40
3.0923400000000001
  1
280
 41
0.5
 72
     1
 11
70.026799999999994
 21
110.941
 31
0.0
  0
TEXT
  5
32
  8
0
 62
     7
 10
49.264535000000002
 20
110.941
 30
0.0
 40
3.0923400000000001
  1
175
 41
0.5
 72
     1
 11
51.068399999999997
 21
110.941
 31
0.0
  0
TEXT
  5
33
  8
0
 62
     7
 10
116.01805
 20
150.75
 30
0.0
 40
3.0923400000000001
  1
25
 41
0.5
 72
     2
 11
118.595
 21
150.75
 31
0.0
  0
TEXT
  5
34
  8
0
 62
     7
 10
68.094087500000001
 20
150.75
 30
0.0
 40
3.0923400000000001
  1
950
 41
0.5
 72
     1
 11
70.026799999999994
 21
150.75
 31
0.0
  0
TEXT
  5
35
  8
0
 62
     7
 10
21.995699999999999
 20
150.75
 30
0.0
 40
3.0923400000000001
  1
25
 41
0.5
  0
TEXT
  5
36
  8
0
 62
     7
 10
67.836392499999988
 20
214.346
 30
0.0
 40
3.0923400000000001
  1
1000
 41
0.5
 72
     1
 11
70.026799999999994
 21
214.346
 31
0.0
  0
LINE
  5
37
  8
0
 62
     7
 10
67.943600000000004
 20
192.88399999999999
 30
0.0
 11
67.943600000000004
 21
191.63399999999999
 31
0.0
  0
LINE
  5
38
  8
0
 62
     7
 10
72.110399999999998
 20
192.88399999999999
 30
0.0
 11
67.943600000000004
 21
192.88399999999999
 31
0.0
  0
LINE
  5
39
  8
0
 62
     7
 10
72.110399999999998
 20
191.63399999999999
 30
0.0
 11
72.110399999999998
 21
192.88399999999999
 31
0.0
  0
LINE
  5
3A
  8
0
 62
     7
 10
67.943600000000004
 20
191.63399999999999
 30
0.0
 11
72.110399999999998
 21
191.63399999999999
 31
0.0
  0
LINE
  5
3B
  8
0
  6
AIGENLINE001
 62
     7
 10
173.559
 20
97.046199999999999
 30
0.0
 11
179.3829999999999
 21
97.046199999999999
 31
0.0
  0
LINE
  5
3C
  8
0
  6
AIGENLINE001
 62
     7
 10
171.05500000000001
 20
104.61499999999999
 30
0.0
 11
171.05500000000001
 21
98.635800000000003
 31
0.0
  0
LINE
  5
3D
  8
0
  6
AIGENLINE001
 62
     7
 10
157.72200000000001
 20
104.61499999999999
 30
0.0
 11
157.72200000000001
 21
85.384500000000003
 31
0.0
  0
LINE
  5
3E
  8
0
  6
AIGENLINE001
 62
     7
 10
70.026799999999994
 20
104.61499999999999
 30
0.0
 11
70.026799999999994
 21
85.384500000000003
 31
0.0
  0
LINE
  5
3F
  8
0
  6
AIGENLINE001
 62
     7
 10
162.523
 20
98.588200000000015
 30
0.0
 11
167.971
 21
98.588200000000015
 31
0.0
  0
LINE
  5
40
  8
0
  6
AIGENLINE001
 62
     7
 10
67.302800000000005
 20
98.588200000000015
 30
0.0
 11
72.751199999999997
 21
98.588200000000015
 31
0.0
  0
LINE
  5
41
  8
0
  6
AIGENLINE001
 62
     7
 10
96.277199999999993
 20
203.54400000000001
 30
0.0
 11
96.277199999999993
 21
199.72399999999999
 31
0.0
  0
LINE
  5
42
  8
0
  6
AIGENLINE001
 62
     7
 10
81.693700000000007
 20
203.54400000000001
 30
0.0
 11
81.693700000000007
 21
199.72399999999999
 31
0.0
  0
LINE
  5
43
  8
0
  6
AIGENLINE001
 62
     7
 10
43.776800000000001
 20
203.54400000000001
 30
0.0
 11
43.776800000000001
 21
199.72399999999999
 31
0.0
  0
LINE
  5
44
  8
0
  6
AIGENLINE001
 62
     7
 10
58.360300000000002
 20
203.54400000000001
 30
0.0
 11
58.360300000000002
 21
199.72399999999999
 31
0.0
  0
LINE
  5
45
  8
0
  6
AIGENLINE001
 62
     7
 10
65.910600000000002
 20
196.21799999999999
 30
0.0
 11
74.1434
 21
196.21799999999999
 31
0.0
  0
LINE
  5
46
  8
0
  6
AIGENLINE001
 62
     7
 10
64.997600000000006
 20
182.88399999999999
 30
0.0
 11
75.056399999999996
 21
182.88399999999999
 31
0.0
  0
LINE
  5
47
  8
0
  6
AIGENLINE001
 62
     7
 10
70.026799999999994
 20
206.60900000000001
 30
0.0
 11
70.026799999999994
 21
157.376
 31
0.0
  0
LINE
  5
48
  8
0
 62
     7
 10
60.1738
 20
206.071
 30
0.0
 11
53.594499999999989
 21
206.071
 31
0.0
  0
LINE
  5
49
  8
0
 62
     7
 10
63.086300000000001
 20
175.94399999999999
 30
0.0
 11
56.506999999999998
 21
175.94399999999999
 31
0.0
  0
LINE
  5
4A
  8
0
 62
     7
 10
61.947000000000003
 20
184.494
 30
0.0
 11
42.7849
 21
184.494
 31
0.0
  0
LINE
  5
4B
  8
0
 62
     7
 10
66.974800000000002
 20
189.56
 30
0.0
 11
67.943600000000004
 21
191.63399999999999
 31
0.0
  0
LINE
  5
4C
  8
0
 62
     7
 10
67.943600000000004
 20
191.63399999999999
 30
0.0
 11
66.067400000000006
 21
190.322
 31
0.0
  0
LINE
  5
4D
  8
0
 62
     7
 10
66.067400000000006
 20
190.322
 30
0.0
 11
66.974800000000002
 21
189.56
 31
0.0
  0
LINE
  5
4E
  8
0
 62
     7
 10
67.943600000000004
 20
191.63399999999999
 30
0.0
 11
61.947000000000003
 21
184.494
 31
0.0
  0
LINE
  5
4F
  8
0
 62
     7
 10
154.608
 20
93.840900000000005
 30
0.0
 11
155.19999999999999
 21
91.629099999999994
 31
0.0
  0
LINE
  5
50
  8
0
 62
     7
 10
155.19999999999999
 20
91.629099999999994
 30
0.0
 11
155.79300000000001
 21
93.840900000000005
 31
0.0
  0
LINE
  5
51
  8
0
 62
     7
 10
155.79300000000001
 20
93.840900000000005
 30
0.0
 11
154.608
 21
93.840900000000005
 31
0.0
  0
LINE
  5
52
  8
0
 62
     7
 10
155.77799999999999
 20
99.419200000000004
 30
0.0
 11
155.18600000000001
 21
101.631
 31
0.0
  0
LINE
  5
53
  8
0
 62
     7
 10
155.18600000000001
 20
101.631
 30
0.0
 11
154.59299999999999
 21
99.419200000000004
 31
0.0
  0
LINE
  5
54
  8
0
 62
     7
 10
154.59299999999999
 20
99.419200000000004
 30
0.0
 11
155.77799999999999
 21
99.419200000000004
 31
0.0
  0
LINE
  5
55
  8
0
 62
     7
 10
155.19300000000001
 20
91.629800000000003
 30
0.0
 11
155.19300000000001
 21
101.63
 31
0.0
  0
LINE
  5
56
  8
0
 62
     7
 10
152.84700000000001
 20
101.63
 30
0.0
 11
150.52199999999999
 21
101.63
 31
0.0
  0
LINE
  5
57
  8
0
 62
     7
 10
159.93199999999999
 20
80.320200000000014
 30
0.0
 11
157.721
 21
79.727599999999995
 31
0.0
  0
LINE
  5
58
  8
0
 62
     7
 10
157.721
 20
79.727599999999995
 30
0.0
 11
159.93199999999999
 21
79.135000000000005
 31
0.0
  0
LINE
  5
59
  8
0
 62
     7
 10
159.93199999999999
 20
79.135000000000005
 30
0.0
 11
159.93199999999999
 21
80.320200000000014
 31
0.0
  0
LINE
  5
5A
  8
0
 62
     7
 10
174.261
 20
79.149500000000003
 30
0.0
 11
176.47300000000001
 21
79.742099999999994
 31
0.0
  0
LINE
  5
5B
  8
0
 62
     7
 10
176.47300000000001
 20
79.742099999999994
 30
0.0
 11
174.261
 21
80.334599999999995
 31
0.0
  0
LINE
  5
5C
  8
0
 62
     7
 10
174.261
 20
80.334599999999995
 30
0.0
 11
174.261
 21
79.149500000000003
 31
0.0
  0
LINE
  5
5D
  8
0
 62
     7
 10
157.72200000000001
 20
79.734499999999997
 30
0.0
 11
176.47200000000001
 21
79.734499999999997
 31
0.0
  0
LINE
  5
5E
  8
0
 62
     7
 10
176.47200000000001
 20
89.6798
 30
0.0
 11
176.47200000000001
 21
79.034400000000005
 31
0.0
  0
LINE
  5
5F
  8
0
 62
     7
 10
157.72200000000001
 20
84.684399999999997
 30
0.0
 11
157.72200000000001
 21
79.034400000000005
 31
0.0
  0
LINE
  5
60
  8
0
 62
     7
 10
107.119
 20
93.017499999999998
 30
0.0
 11
107.119
 21
106.21299999999999
 31
0.0
  0
LINE
  5
61
  8
0
 62
     7
 10
99.970399999999998
 20
101.63
 30
0.0
 11
107.119
 21
101.63
 31
0.0
  0
LINE
  5
62
  8
0
 62
     7
 10
99.984499999999997
 20
97.046199999999999
 30
0.0
 11
107.819
 21
97.046199999999999
 31
0.0
  0
LINE
  5
63
  8
0
 62
     7
 10
107.711
 20
94.834399999999988
 30
0.0
 11
107.119
 21
97.046199999999999
 31
0.0
  0
LINE
  5
64
  8
0
 62
     7
 10
107.119
 20
97.046199999999999
 30
0.0
 11
106.526
 21
94.834399999999988
 31
0.0
  0
LINE
  5
65
  8
0
 62
     7
 10
106.526
 20
94.834399999999988
 30
0.0
 11
107.711
 21
94.834399999999988
 31
0.0
  0
LINE
  5
66
  8
0
 62
     7
 10
106.526
 20
103.84099999999999
 30
0.0
 11
107.119
 21
101.63
 31
0.0
  0
LINE
  5
67
  8
0
 62
     7
 10
107.119
 20
101.63
 30
0.0
 11
107.711
 21
103.84099999999999
 31
0.0
  0
LINE
  5
68
  8
0
 62
     7
 10
107.711
 20
103.84099999999999
 30
0.0
 11
106.526
 21
103.84099999999999
 31
0.0
  0
LINE
  5
69
  8
0
 62
     7
 10
120.218
 20
99.419200000000004
 30
0.0
 11
119.626
 21
101.631
 31
0.0
  0
LINE
  5
6A
  8
0
 62
     7
 10
119.626
 20
101.631
 30
0.0
 11
119.033
 21
99.419200000000004
 31
0.0
  0
LINE
  5
6B
  8
0
 62
     7
 10
119.033
 20
99.419200000000004
 30
0.0
 11
120.218
 21
99.419200000000004
 31
0.0
  0
LINE
  5
6C
  8
0
 62
     7
 10
119.048
 20
92.590299999999999
 30
0.0
 11
119.64
 21
90.379199999999983
 31
0.0
  0
LINE
  5
6D
  8
0
 62
     7
 10
119.64
 20
90.379199999999983
 30
0.0
 11
120.233
 21
92.590299999999999
 31
0.0
  0
LINE
  5
6E
  8
0
 62
     7
 10
120.233
 20
92.590299999999999
 30
0.0
 11
119.048
 21
92.590299999999999
 31
0.0
  0
LINE
  5
6F
  8
0
 62
     7
 10
119.633
 20
101.63
 30
0.0
 11
119.633
 21
90.379900000000006
 31
0.0
  0
LINE
  5
70
  8
0
 62
     7
 10
112.592
 20
90.379900000000006
 30
0.0
 11
120.333
 21
90.379900000000006
 31
0.0
  0
LINE
  5
71
  8
0
 62
     7
 10
126.59699999999999
 20
99.419200000000004
 30
0.0
 11
126.004
 21
101.631
 31
0.0
  0
LINE
  5
72
  8
0
 62
     7
 10
126.004
 20
101.631
 30
0.0
 11
125.41200000000001
 21
99.419200000000004
 31
0.0
  0
LINE
  5
73
  8
0
 62
     7
 10
125.41200000000001
 20
99.419200000000004
 30
0.0
 11
126.59699999999999
 21
99.419200000000004
 31
0.0
  0
LINE
  5
74
  8
0
 62
     7
 10
125.426
 20
89.673599999999993
 30
0.0
 11
126.01900000000001
 21
87.462599999999995
 31
0.0
  0
LINE
  5
75
  8
0
 62
     7
 10
126.01900000000001
 20
87.462599999999995
 30
0.0
 11
126.611
 21
89.673599999999993
 31
0.0
  0
LINE
  5
76
  8
0
 62
     7
 10
126.611
 20
89.673599999999993
 30
0.0
 11
125.426
 21
89.673599999999993
 31
0.0
  0
LINE
  5
77
  8
0
 62
     7
 10
126.011
 20
101.63
 30
0.0
 11
126.011
 21
87.463300000000004
 31
0.0
  0
LINE
  5
78
  8
0
 62
     7
 10
73.726900000000001
 20
87.463300000000004
 30
0.0
 11
126.711
 21
87.463300000000004
 31
0.0
  0
LINE
  5
79
  8
0
 62
     7
 10
112.592
 20
101.63
 30
0.0
 11
126.711
 21
101.63
 31
0.0
  0
LINE
  5
7A
  8
0
 62
     7
 10
86.482100000000003
 20
203.846
 30
0.0
 11
87.074600000000004
 21
201.63399999999999
 31
0.0
  0
LINE
  5
7B
  8
0
 62
     7
 10
87.074600000000004
 20
201.63399999999999
 30
0.0
 11
87.667199999999994
 21
203.846
 31
0.0
  0
LINE
  5
7C
  8
0
 62
     7
 10
87.667199999999994
 20
203.846
 30
0.0
 11
86.482100000000003
 21
203.846
 31
0.0
  0
LINE
  5
7D
  8
0
 62
     7
 10
87.667199999999994
 20
194.00599999999989
 30
0.0
 11
87.074600000000004
 21
196.21799999999999
 31
0.0
  0
LINE
  5
7E
  8
0
 62
     7
 10
87.074600000000004
 20
196.21799999999999
 30
0.0
 11
86.482100000000003
 21
194.00599999999989
 31
0.0
  0
LINE
  5
7F
  8
0
 62
     7
 10
86.482100000000003
 20
194.00599999999989
 30
0.0
 11
87.667199999999994
 21
194.00599999999989
 31
0.0
  0
LINE
  5
80
  8
0
 62
     7
 10
87.074600000000004
 20
192.459
 30
0.0
 11
87.074600000000004
 21
205.43600000000001
 31
0.0
  0
LINE
  5
81
  8
0
 62
     7
 10
72.2029
 20
193.20400000000001
 30
0.0
 11
71.058000000000007
 21
195.18600000000001
 31
0.0
  0
LINE
  5
82
  8
0
 62
     7
 10
71.058000000000007
 20
195.18600000000001
 30
0.0
 11
73.040999999999997
 21
194.042
 31
0.0
  0
LINE
  5
83
  8
0
 62
     7
 10
73.040999999999997
 20
194.042
 30
0.0
 11
72.2029
 21
193.20400000000001
 31
0.0
  0
LINE
  5
84
  8
0
 62
     7
 10
67.850700000000003
 20
199.23099999999999
 30
0.0
 11
68.995699999999999
 21
197.249
 31
0.0
  0
LINE
  5
85
  8
0
 62
     7
 10
68.995699999999999
 20
197.249
 30
0.0
 11
67.012699999999995
 21
198.393
 31
0.0
  0
LINE
  5
86
  8
0
 62
     7
 10
67.012699999999995
 20
198.393
 30
0.0
 11
67.850700000000003
 21
199.23099999999999
 31
0.0
  0
LINE
  5
87
  8
0
 62
     7
 10
60.1738
 20
206.071
 30
0.0
 11
73.889200000000002
 21
192.35499999999999
 31
0.0
  0
LINE
  5
88
  8
0
 62
     7
 10
72.527100000000004
 20
186.22200000000001
 30
0.0
 11
71.382099999999994
 21
184.239
 31
0.0
  0
LINE
  5
89
  8
0
 62
     7
 10
71.382099999999994
 20
184.239
 30
0.0
 11
73.365200000000002
 21
185.38399999999999
 31
0.0
  0
LINE
  5
8A
  8
0
 62
     7
 10
73.365200000000002
 20
185.38399999999999
 30
0.0
 11
72.527100000000004
 21
186.22200000000001
 31
0.0
  0
LINE
  5
8B
  8
0
 62
     7
 10
67.526700000000005
 20
179.54599999999999
 30
0.0
 11
68.671700000000001
 21
181.529
 31
0.0
  0
LINE
  5
8C
  8
0
 62
     7
 10
68.671700000000001
 20
181.529
 30
0.0
 11
66.688699999999997
 21
180.38399999999999
 31
0.0
  0
LINE
  5
8D
  8
0
 62
     7
 10
66.688699999999997
 20
180.38399999999999
 30
0.0
 11
67.526700000000005
 21
179.54599999999999
 31
0.0
  0
LINE
  5
8E
  8
0
 62
     7
 10
63.086300000000001
 20
175.94399999999999
 30
0.0
 11
74.213300000000004
 21
187.071
 31
0.0
  0
LINE
  5
8F
  8
0
 62
     7
 10
74.843500000000006
 20
196.21799999999999
 30
0.0
 11
87.774699999999996
 21
196.21799999999999
 31
0.0
  0
LINE
  5
90
  8
0
 62
     7
 10
112.468
 20
162.46700000000001
 30
0.0
 11
131.15700000000001
 21
162.46700000000001
 31
0.0
  0
LINE
  5
91
  8
0
 62
     7
 10
110.65600000000001
 20
164.5509999999999
 30
0.0
 11
123.143
 21
164.5509999999999
 31
0.0
  0
LINE
  5
92
  8
0
 62
     7
 10
110.42700000000001
 20
190.80099999999999
 30
0.0
 11
123.143
 21
190.80099999999999
 31
0.0
  0
LINE
  5
93
  8
0
 62
     7
 10
123.035
 20
160.256
 30
0.0
 11
122.443
 21
162.46700000000001
 31
0.0
  0
LINE
  5
94
  8
0
 62
     7
 10
122.443
 20
162.46700000000001
 30
0.0
 11
121.84999999999999
 21
160.256
 31
0.0
  0
LINE
  5
95
  8
0
 62
     7
 10
121.84999999999999
 20
160.256
 30
0.0
 11
123.035
 21
160.256
 31
0.0
  0
LINE
  5
96
  8
0
 62
     7
 10
123.035
 20
188.589
 30
0.0
 11
122.443
 21
190.80099999999999
 31
0.0
  0
LINE
  5
97
  8
0
 62
     7
 10
122.443
 20
190.80099999999999
 30
0.0
 11
121.84999999999999
 21
188.589
 31
0.0
  0
LINE
  5
98
  8
0
 62
     7
 10
121.84999999999999
 20
188.589
 30
0.0
 11
123.035
 21
188.589
 31
0.0
  0
LINE
  5
99
  8
0
 62
     7
 10
123.035
 20
199.423
 30
0.0
 11
122.443
 21
201.63399999999999
 31
0.0
  0
LINE
  5
9A
  8
0
 62
     7
 10
122.443
 20
201.63399999999999
 30
0.0
 11
121.84999999999999
 21
199.423
 31
0.0
  0
LINE
  5
9B
  8
0
 62
     7
 10
121.84999999999999
 20
199.423
 30
0.0
 11
123.035
 21
199.423
 31
0.0
  0
LINE
  5
9C
  8
0
 62
     7
 10
121.84999999999999
 20
193.012
 30
0.0
 11
122.443
 21
190.80099999999999
 31
0.0
  0
LINE
  5
9D
  8
0
 62
     7
 10
122.443
 20
190.80099999999999
 30
0.0
 11
123.035
 21
193.012
 31
0.0
  0
LINE
  5
9E
  8
0
 62
     7
 10
123.035
 20
193.012
 30
0.0
 11
121.84999999999999
 21
193.012
 31
0.0
  0
LINE
  5
9F
  8
0
 62
     7
 10
121.84999999999999
 20
166.762
 30
0.0
 11
122.443
 21
164.5509999999999
 31
0.0
  0
LINE
  5
A0
  8
0
 62
     7
 10
122.443
 20
164.5509999999999
 30
0.0
 11
123.035
 21
166.762
 31
0.0
  0
LINE
  5
A1
  8
0
 62
     7
 10
123.035
 20
166.762
 30
0.0
 11
121.84999999999999
 21
166.762
 31
0.0
  0
LINE
  5
A2
  8
0
 62
     7
 10
122.443
 20
201.63399999999999
 30
0.0
 11
122.443
 21
156.22300000000001
 31
0.0
  0
LINE
  5
A3
  8
0
 62
     7
 10
112.39400000000001
 20
201.63399999999999
 30
0.0
 11
131.15700000000001
 21
201.63399999999999
 31
0.0
  0
LINE
  5
A4
  8
0
 62
     7
 10
131.04300000000001
 20
199.423
 30
0.0
 11
130.44999999999999
 21
201.63499999999999
 31
0.0
  0
LINE
  5
A5
  8
0
 62
     7
 10
130.44999999999999
 20
201.63499999999999
 30
0.0
 11
129.857
 21
199.423
 31
0.0
  0
LINE
  5
A6
  8
0
 62
     7
 10
129.857
 20
199.423
 30
0.0
 11
131.04300000000001
 21
199.423
 31
0.0
  0
LINE
  5
A7
  8
0
 62
     7
 10
129.87200000000001
 20
164.678
 30
0.0
 11
130.465
 21
162.46700000000001
 31
0.0
  0
LINE
  5
A8
  8
0
 62
     7
 10
130.465
 20
162.46700000000001
 30
0.0
 11
131.05699999999999
 21
164.678
 31
0.0
  0
LINE
  5
A9
  8
0
 62
     7
 10
131.05699999999999
 20
164.678
 30
0.0
 11
129.87200000000001
 21
164.678
 31
0.0
  0
LINE
  5
AA
  8
0
 62
     7
 10
130.45699999999999
 20
201.63399999999999
 30
0.0
 11
130.45699999999999
 21
162.46700000000001
 31
0.0
  0
LINE
  5
AB
  8
0
 62
     7
 10
96.277199999999993
 20
99.656200000000013
 30
0.0
 11
96.277199999999993
 21
110.941
 31
0.0
  0
LINE
  5
AC
  8
0
 62
     7
 10
81.693700000000007
 20
99.656200000000013
 30
0.0
 11
81.693700000000007
 21
110.941
 31
0.0
  0
LINE
  5
AD
  8
0
 62
     7
 10
58.360300000000002
 20
99.656200000000013
 30
0.0
 11
58.360300000000002
 21
110.941
 31
0.0
  0
LINE
  5
AE
  8
0
 62
     7
 10
83.905500000000004
 20
110.834
 30
0.0
 11
81.693700000000007
 21
110.241
 31
0.0
  0
LINE
  5
AF
  8
0
 62
     7
 10
81.693700000000007
 20
110.241
 30
0.0
 11
83.905500000000004
 21
109.648
 31
0.0
  0
LINE
  5
B0
  8
0
 62
     7
 10
83.905500000000004
 20
109.648
 30
0.0
 11
83.905500000000004
 21
110.834
 31
0.0
  0
LINE
  5
B1
  8
0
 62
     7
 10
79.482600000000005
 20
109.648
 30
0.0
 11
81.693700000000007
 21
110.241
 31
0.0
  0
LINE
  5
B2
  8
0
 62
     7
 10
81.693700000000007
 20
110.241
 30
0.0
 11
79.482600000000005
 21
110.834
 31
0.0
  0
LINE
  5
B3
  8
0
 62
     7
 10
79.482600000000005
 20
110.834
 30
0.0
 11
79.482600000000005
 21
109.648
 31
0.0
  0
LINE
  5
B4
  8
0
 62
     7
 10
60.572099999999999
 20
110.834
 30
0.0
 11
58.360300000000002
 21
110.241
 31
0.0
  0
LINE
  5
B5
  8
0
 62
     7
 10
58.360300000000002
 20
110.241
 30
0.0
 11
60.572099999999999
 21
109.648
 31
0.0
  0
LINE
  5
B6
  8
0
 62
     7
 10
60.572099999999999
 20
109.648
 30
0.0
 11
60.572099999999999
 21
110.834
 31
0.0
  0
LINE
  5
B7
  8
0
 62
     7
 10
45.98749999999999
 20
110.82599999999999
 30
0.0
 11
43.775700000000001
 21
110.233
 31
0.0
  0
LINE
  5
B8
  8
0
 62
     7
 10
43.775700000000001
 20
110.233
 30
0.0
 11
45.98749999999999
 21
109.64100000000001
 31
0.0
  0
LINE
  5
B9
  8
0
 62
     7
 10
45.98749999999999
 20
109.64100000000001
 30
0.0
 11
45.98749999999999
 21
110.82599999999999
 31
0.0
  0
LINE
  5
BA
  8
0
 62
     7
 10
56.1492
 20
109.648
 30
0.0
 11
58.360300000000002
 21
110.241
 31
0.0
  0
LINE
  5
BB
  8
0
 62
     7
 10
58.360300000000002
 20
110.241
 30
0.0
 11
56.1492
 21
110.834
 31
0.0
  0
LINE
  5
BC
  8
0
 62
     7
 10
56.1492
 20
110.834
 30
0.0
 11
56.1492
 21
109.648
 31
0.0
  0
LINE
  5
BD
  8
0
 62
     7
 10
94.066900000000004
 20
109.655
 30
0.0
 11
96.277900000000002
 21
110.248
 31
0.0
  0
LINE
  5
BE
  8
0
 62
     7
 10
96.277900000000002
 20
110.248
 30
0.0
 11
94.066900000000004
 21
110.84
 31
0.0
  0
LINE
  5
BF
  8
0
 62
     7
 10
94.066900000000004
 20
110.84
 30
0.0
 11
94.066900000000004
 21
109.655
 31
0.0
  0
LINE
  5
C0
  8
0
 62
     7
 10
43.776800000000001
 20
110.241
 30
0.0
 11
96.277199999999993
 21
110.241
 31
0.0
  0
LINE
  5
C1
  8
0
 62
     7
 10
43.776800000000001
 20
99.656200000000013
 30
0.0
 11
43.776800000000001
 21
110.941
 31
0.0
  0
LINE
  5
C2
  8
0
  6
AIGENLINE001
 62
     7
 10
96.277199999999993
 20
98.956199999999995
 30
0.0
 11
96.277199999999993
 21
95.136899999999997
 31
0.0
  0
LINE
  5
C3
  8
0
  6
AIGENLINE001
 62
     7
 10
93.365099999999998
 20
97.046199999999999
 30
0.0
 11
99.189099999999996
 21
97.046199999999999
 31
0.0
  0
LINE
  5
C4
  8
0
  6
AIGENLINE001
 62
     7
 10
81.693700000000007
 20
98.956199999999995
 30
0.0
 11
81.693700000000007
 21
95.136899999999997
 31
0.0
  0
LINE
  5
C5
  8
0
  6
AIGENLINE001
 62
     7
 10
78.781599999999997
 20
97.046199999999999
 30
0.0
 11
84.605900000000005
 21
97.046199999999999
 31
0.0
  0
LINE
  5
C6
  8
0
  6
AIGENLINE001
 62
     7
 10
43.776800000000001
 20
98.956199999999995
 30
0.0
 11
43.776800000000001
 21
95.136899999999997
 31
0.0
  0
LINE
  5
C7
  8
0
  6
AIGENLINE001
 62
     7
 10
40.864600000000003
 20
97.046199999999999
 30
0.0
 11
46.688899999999997
 21
97.046199999999999
 31
0.0
  0
LINE
  5
C8
  8
0
  6
AIGENLINE001
 62
     7
 10
58.360300000000002
 20
98.956199999999995
 30
0.0
 11
58.360300000000002
 21
95.136899999999997
 31
0.0
  0
LINE
  5
C9
  8
0
  6
AIGENLINE001
 62
     7
 10
55.448500000000003
 20
97.046199999999999
 30
0.0
 11
61.272100000000002
 21
97.046199999999999
 31
0.0
  0
LINE
  5
CA
  8
0
 62
     7
 10
111.694
 20
161.56899999999999
 30
0.0
 11
111.694
 21
149.34999999999999
 31
0.0
  0
LINE
  5
CB
  8
0
 62
     7
 10
109.611
 20
163.65299999999999
 30
0.0
 11
109.611
 21
149.34999999999999
 31
0.0
  0
LINE
  5
CC
  8
0
 62
     7
 10
113.905
 20
150.642
 30
0.0
 11
111.694
 21
150.05000000000001
 31
0.0
  0
LINE
  5
CD
  8
0
 62
     7
 10
111.694
 20
150.05000000000001
 30
0.0
 11
113.905
 21
149.45699999999999
 31
0.0
  0
LINE
  5
CE
  8
0
 62
     7
 10
113.905
 20
149.45699999999999
 30
0.0
 11
113.905
 21
150.642
 31
0.0
  0
LINE
  5
CF
  8
0
 62
     7
 10
32.654899999999998
 20
150.642
 30
0.0
 11
30.4435
 21
150.05000000000001
 31
0.0
  0
LINE
  5
D0
  8
0
 62
     7
 10
30.4435
 20
150.05000000000001
 30
0.0
 11
32.654899999999998
 21
149.45699999999999
 31
0.0
  0
LINE
  5
D1
  8
0
 62
     7
 10
32.654899999999998
 20
149.45699999999999
 30
0.0
 11
32.654899999999998
 21
150.642
 31
0.0
  0
LINE
  5
D2
  8
0
 62
     7
 10
26.200099999999999
 20
149.45699999999999
 30
0.0
 11
28.4115
 21
150.05000000000001
 31
0.0
  0
LINE
  5
D3
  8
0
 62
     7
 10
28.4115
 20
150.05000000000001
 30
0.0
 11
26.200099999999999
 21
150.642
 31
0.0
  0
LINE
  5
D4
  8
0
 62
     7
 10
26.200099999999999
 20
150.642
 30
0.0
 11
26.200099999999999
 21
149.45699999999999
 31
0.0
  0
LINE
  5
D5
  8
0
 62
     7
 10
107.399
 20
149.45699999999999
 30
0.0
 11
109.611
 21
150.05000000000001
 31
0.0
  0
LINE
  5
D6
  8
0
 62
     7
 10
109.611
 20
150.05000000000001
 30
0.0
 11
107.399
 21
150.642
 31
0.0
  0
LINE
  5
D7
  8
0
 62
     7
 10
107.399
 20
150.642
 30
0.0
 11
107.399
 21
149.45699999999999
 31
0.0
  0
LINE
  5
D8
  8
0
 62
     7
 10
21.995699999999999
 20
150.05000000000001
 30
0.0
 11
118.595
 21
150.05000000000001
 31
0.0
  0
LINE
  5
D9
  8
0
 62
     7
 10
30.4435
 20
163.65299999999999
 30
0.0
 11
30.4435
 21
149.34999999999999
 31
0.0
  0
LINE
  5
DA
  8
0
 62
     7
 10
28.360199999999999
 20
161.56899999999999
 30
0.0
 11
28.360199999999999
 21
149.34999999999999
 31
0.0
  0
LINE
  5
DB
  8
0
 62
     7
 10
30.570599999999999
 20
214.23099999999999
 30
0.0
 11
28.359500000000001
 21
213.63800000000001
 31
0.0
  0
LINE
  5
DC
  8
0
 62
     7
 10
28.359500000000001
 20
213.63800000000001
 30
0.0
 11
30.570599999999999
 21
213.04599999999999
 31
0.0
  0
LINE
  5
DD
  8
0
 62
     7
 10
30.570599999999999
 20
213.04599999999999
 30
0.0
 11
30.570599999999999
 21
214.23099999999999
 31
0.0
  0
LINE
  5
DE
  8
0
 62
     7
 10
109.483
 20
213.06
 30
0.0
 11
111.69499999999999
 21
213.65299999999999
 31
0.0
  0
LINE
  5
DF
  8
0
 62
     7
 10
111.69499999999999
 20
213.65299999999999
 30
0.0
 11
109.483
 21
214.245
 31
0.0
  0
LINE
  5
E0
  8
0
 62
     7
 10
109.483
 20
214.245
 30
0.0
 11
109.483
 21
213.06
 31
0.0
  0
LINE
  5
E1
  8
0
 62
     7
 10
28.360199999999999
 20
213.64599999999999
 30
0.0
 11
111.694
 21
213.64599999999999
 31
0.0
  0
LINE
  5
E2
  8
0
 62
     7
 10
111.694
 20
202.334
 30
0.0
 11
111.694
 21
214.346
 31
0.0
  0
LINE
  5
E3
  8
0
 62
     7
 10
28.360199999999999
 20
202.334
 30
0.0
 11
28.360199999999999
 21
214.346
 31
0.0
  0
LINE
  5
E4
  8
0
  6
AIGENLINE002
 62
     7
 10
43.360199999999999
 20
97.963300000000004
 30
0.0
 11
44.193300000000001
 21
97.963300000000004
 31
0.0
  0
LINE
  5
E5
  8
0
  6
AIGENLINE002
 62
     7
 10
44.193300000000001
 20
96.129800000000003
 30
0.0
 11
43.360199999999999
 21
96.129800000000003
 31
0.0
  0
ARC
  5
E6
  8
0
  6
AIGENLINE002
 62
     7
 10
44.158157000000003
 20
97.082031000000001
 30
0.0
 40
0.9528830000000002
 50
272.112122
 51
357.84482500000001
  0
ARC
  5
E7
  8
0
  6
AIGENLINE002
 62
     7
 10
44.193275
 20
97.046197000000006
 30
0.0
 40
0.9170899999999999
 50
0.00001
 51
89.999980000000008
  0
ARC
  5
E8
  8
0
  6
AIGENLINE002
 62
     7
 10
43.395426999999998
 20
97.011374000000004
 30
0.0
 40
0.9525629999999999
 50
92.116569999999996
 51
177.90492800000001
  0
ARC
  5
E9
  8
0
  6
AIGENLINE002
 62
     7
 10
43.395068999999992
 20
97.081378000000015
 30
0.0
 40
0.952219
 50
182.11735300000001
 51
267.90421300000003
  0
LINE
  5
EA
  8
0
  6
AIGENLINE002
 62
     7
 10
57.943399999999997
 20
97.963300000000004
 30
0.0
 11
58.776800000000001
 21
97.963300000000004
 31
0.0
  0
LINE
  5
EB
  8
0
  6
AIGENLINE002
 62
     7
 10
58.776800000000001
 20
96.129800000000003
 30
0.0
 11
57.943399999999997
 21
96.129800000000003
 31
0.0
  0
ARC
  5
EC
  8
0
  6
AIGENLINE002
 62
     7
 10
58.741674000000003
 20
97.081682999999998
 30
0.0
 40
0.9525339999999999
 50
272.11343799999997
 51
357.86503599999998
  0
ARC
  5
ED
  8
0
  6
AIGENLINE002
 62
     7
 10
58.741301
 20
97.011054000000016
 30
0.0
 40
0.9528950000000001
 50
2.11355
 51
87.864912000000004
  0
ARC
  5
EE
  8
0
  6
AIGENLINE002
 62
     7
 10
57.943771999999989
 20
97.046542000000002
 30
0.0
 40
0.916746
 50
90.021531999999993
 51
180.0215419999999
  0
ARC
  5
EF
  8
0
  6
AIGENLINE002
 62
     7
 10
57.978583999999991
 20
97.081354000000005
 30
0.0
 40
0.9522069999999999
 50
182.11591300000001
 51
267.884117
  0
LINE
  5
F0
  8
0
  6
AIGENLINE002
 62
     7
 10
81.277199999999993
 20
97.963300000000004
 30
0.0
 11
82.110200000000006
 21
97.963300000000004
 31
0.0
  0
LINE
  5
F1
  8
0
  6
AIGENLINE002
 62
     7
 10
82.110200000000006
 20
96.129800000000003
 30
0.0
 11
81.277199999999993
 21
96.129800000000003
 31
0.0
  0
ARC
  5
F2
  8
0
  6
AIGENLINE002
 62
     7
 10
82.075107999999986
 20
97.081682999999998
 30
0.0
 40
0.9525339999999999
 50
272.11343799999997
 51
357.86503599999998
  0
ARC
  5
F3
  8
0
  6
AIGENLINE002
 62
     7
 10
82.074735000000004
 20
97.011054000000016
 30
0.0
 40
0.9528950000000001
 50
2.11355
 51
87.864912000000004
  0
ARC
  5
F4
  8
0
  6
AIGENLINE002
 62
     7
 10
81.27720699999999
 20
97.046197000000006
 30
0.0
 40
0.9170899999999999
 50
90.0
 51
179.99996999999999
  0
ARC
  5
F5
  8
0
  6
AIGENLINE002
 62
     7
 10
81.311695999999984
 20
97.081401999999997
 30
0.0
 40
0.9522309999999999
 50
182.11879200000001
 51
267.9243009999999
  0
LINE
  5
F6
  8
0
  6
AIGENLINE002
 62
     7
 10
95.860399999999998
 20
97.963300000000004
 30
0.0
 11
96.693799999999996
 21
97.963300000000004
 31
0.0
  0
LINE
  5
F7
  8
0
  6
AIGENLINE002
 62
     7
 10
96.693799999999996
 20
96.129800000000003
 30
0.0
 11
95.860399999999998
 21
96.129800000000003
 31
0.0
  0
ARC
  5
F8
  8
0
  6
AIGENLINE002
 62
     7
 10
96.658624000000003
 20
97.081693000000016
 30
0.0
 40
0.9525450000000001
 50
272.11401999999998
 51
357.86445400000002
  0
ARC
  5
F9
  8
0
  6
AIGENLINE002
 62
     7
 10
96.658260999999996
 20
97.011054000000016
 30
0.0
 40
0.9528950000000001
 50
2.11355
 51
87.864912000000004
  0
ARC
  5
FA
  8
0
  6
AIGENLINE002
 62
     7
 10
95.895572999999999
 20
97.011728000000005
 30
0.0
 40
0.95221
 50
92.117596999999989
 51
177.92543599999999
  0
ARC
  5
FB
  8
0
  6
AIGENLINE002
 62
     7
 10
95.895544000000001
 20
97.081354000000005
 30
0.0
 40
0.9522069999999999
 50
182.11591300000001
 51
267.884117
  0
ARC
  5
FC
  8
0
  6
AIGENLINE002
 62
     7
 10
138.87308200000001
 20
101.027085
 30
0.0
 40
0.602721
 50
10.567316
 51
88.433581000000004
  0
ARC
  5
FD
  8
0
  6
AIGENLINE002
 62
     7
 10
166.19581500000001
 20
101.02528100000001
 30
0.0
 40
0.6046050000000001
 50
91.820361000000005
 51
173.51939300000001
  0
ARC
  5
FE
  8
0
  6
AIGENLINE002
 62
     7
 10
164.43243200000001
 20
94.081333999999998
 30
0.0
 40
0.596406
 50
297.17922399999998
 51
354.69655799999998
  0
ARC
  5
FF
  8
0
  6
AIGENLINE002
 62
     7
 10
141.16015100000001
 20
94.247489999999999
 30
0.0
 40
0.6005650000000001
 50
190.18687700000001
 51
260.29870699999998
  0
LINE
  5
100
  8
0
  6
AIGENLINE002
 62
     7
 10
160.846
 20
91.629800000000003
 30
0.0
 11
164.70500000000001
 21
93.550799999999995
 31
0.0
  0
LINE
  5
101
  8
0
  6
AIGENLINE002
 62
     7
 10
165.595
 20
101.09399999999999
 30
0.0
 11
165.02600000000001
 21
94.026200000000003
 31
0.0
  0
LINE
  5
102
  8
0
  6
AIGENLINE002
 62
     7
 10
154.59700000000001
 20
91.629800000000003
 30
0.0
 11
141.059
 21
93.655500000000004
 31
0.0
  0
LINE
  5
103
  8
0
  6
AIGENLINE002
 62
     7
 10
139.46600000000001
 20
101.13800000000001
 30
0.0
 11
140.56899999999999
 21
94.141300000000001
 31
0.0
  0
LINE
  5
104
  8
0
  6
AIGENLINE002
 62
     7
 10
155.80500000000001
 20
90.421199999999999
 30
0.0
 11
159.63800000000001
 21
90.421199999999999
 31
0.0
  0
LINE
  5
105
  8
0
  6
AIGENLINE002
 62
     7
 10
155.80500000000001
 20
90.421199999999999
 30
0.0
 11
155.80500000000001
 21
87.463300000000004
 31
0.0
  0
LINE
  5
106
  8
0
  6
AIGENLINE002
 62
     7
 10
155.80500000000001
 20
90.421199999999999
 30
0.0
 11
154.59700000000001
 21
91.629800000000003
 31
0.0
  0
LINE
  5
107
  8
0
  6
AIGENLINE002
 62
     7
 10
159.63800000000001
 20
90.421199999999999
 30
0.0
 11
159.63800000000001
 21
87.463300000000004
 31
0.0
  0
LINE
  5
108
  8
0
  6
AIGENLINE002
 62
     7
 10
159.63800000000001
 20
90.421199999999999
 30
0.0
 11
160.846
 21
91.629800000000003
 31
0.0
  0
LINE
  5
109
  8
0
  6
AIGENLINE002
 62
     7
 10
154.59700000000001
 20
91.629800000000003
 30
0.0
 11
160.846
 21
91.629800000000003
 31
0.0
  0
ARC
  5
10A
  8
0
  6
AIGENLINE002
 62
     7
 10
70.026831000000001
 20
98.588231999999991
 30
0.0
 40
1.041804
 50
0.00001
 51
89.999980000000008
  0
ARC
  5
10B
  8
0
  6
AIGENLINE002
 62
     7
 10
70.06683000000001
 20
98.548591000000002
 30
0.0
 40
1.082182999999999
 50
92.118156000000013
 51
177.90076500000001
  0
ARC
  5
10C
  8
0
  6
AIGENLINE002
 62
     7
 10
70.067149000000001
 20
98.628191000000015
 30
0.0
 40
1.0825139999999991
 50
182.11550299999999
 51
267.86557599999998
  0
ARC
  5
10D
  8
0
  6
AIGENLINE002
 62
     7
 10
70.026831000000001
 20
98.588231999999991
 30
0.0
 40
1.041804
 50
270.00002000000001
 51
359.99999000000003
  0
ARC
  5
10E
  8
0
 62
     7
 10
163.50668999999999
 20
89.622090999999998
 30
0.0
 40
1.2670859999999999
 50
275.91257200000001
 51
326.865881
  0
LINE
  5
10F
  8
0
 62
     7
 10
164.56800000000001
 20
88.929500000000004
 30
0.0
 11
165.501
 21
90.379900000000006
 31
0.0
  0
LINE
  5
110
  8
0
 62
     7
 10
160.809
 20
88.087500000000006
 30
0.0
 11
163.637
 21
88.361699999999999
 31
0.0
  0
ARC
  5
111
  8
0
 62
     7
 10
161.65576299999989
 20
89.776461999999995
 30
0.0
 40
0.603684
 50
91.652243999999996
 51
170.355749
  0
ARC
  5
112
  8
0
 62
     7
 10
153.78751199999999
 20
89.777345999999994
 30
0.0
 40
0.6027890000000001
 50
9.5734839999999988
 51
88.384636999999998
  0
ARC
  5
113
  8
0
 62
     7
 10
66.092540999999997
 20
89.776300000000006
 30
0.0
 40
0.60384
 50
9.6572929999999992
 51
88.368495999999979
  0
ARC
  5
114
  8
0
 62
     7
 10
73.961342999999985
 20
89.776863000000006
 30
0.0
 40
0.6032840000000002
 50
91.653960999999995
 51
170.387878
  0
LINE
  5
115
  8
0
 62
     7
 10
73.943899999999999
 20
90.379900000000006
 30
0.0
 11
76.548100000000005
 21
90.379900000000006
 31
0.0
  0
LINE
  5
116
  8
0
 62
     7
 10
154.721
 20
87.463300000000004
 30
0.0
 11
154.38200000000001
 21
89.877599999999987
 31
0.0
  0
LINE
  5
117
  8
0
 62
     7
 10
160.72200000000001
 20
87.463300000000004
 30
0.0
 11
161.06100000000001
 21
89.877599999999987
 31
0.0
  0
LINE
  5
118
  8
0
 62
     7
 10
154.721
 20
87.463300000000004
 30
0.0
 11
160.72200000000001
 21
87.463300000000004
 31
0.0
  0
LINE
  5
119
  8
0
 62
     7
 10
67.026799999999994
 20
87.463300000000004
 30
0.0
 11
66.687799999999996
 21
89.877599999999987
 31
0.0
  0
LINE
  5
11A
  8
0
 62
     7
 10
137.30500000000001
 20
90.963499999999996
 30
0.0
 11
137.30500000000001
 21
101.047
 31
0.0
  0
ARC
  5
11B
  8
0
 62
     7
 10
137.90973799999989
 20
101.024635
 30
0.0
 40
0.6053350000000001
 50
92.052008999999984
 51
177.914109
  0
LINE
  5
11C
  8
0
 62
     7
 10
137.88800000000001
 20
101.63
 30
0.0
 11
176.47200000000001
 21
101.63
 31
0.0
  0
LINE
  5
11D
  8
0
 62
     7
 10
176.47200000000001
 20
101.63
 30
0.0
 11
176.47200000000001
 21
90.379900000000006
 31
0.0
  0
LINE
  5
11E
  8
0
 62
     7
 10
176.47200000000001
 20
90.379900000000006
 30
0.0
 11
137.88800000000001
 21
90.379900000000006
 31
0.0
  0
ARC
  5
11F
  8
0
 62
     7
 10
137.910101
 20
90.985179000000002
 30
0.0
 40
0.6056850000000001
 50
182.05137799999989
 51
267.91481900000002
  0
LINE
  5
120
  8
0
 62
     7
 10
73.026799999999994
 20
87.463300000000004
 30
0.0
 11
73.366500000000002
 21
89.877599999999987
 31
0.0
  0
ARC
  5
121
  8
0
 62
     7
 10
70.026831000000001
 20
182.884049
 30
0.0
 40
3.125065999999999
 50
0.00001
 51
89.999980000000008
  0
ARC
  5
122
  8
0
 62
     7
 10
70.027004000000005
 20
182.88422199999999
 30
0.0
 40
3.124893999999999
 50
90.003157999999999
 51
180.00316799999999
  0
ARC
  5
123
  8
0
 62
     7
 10
70.027002999999993
 20
182.88387700000001
 30
0.0
 40
3.1248930000000001
 50
179.99681200000001
 51
269.99686099999991
  0
ARC
  5
124
  8
0
 62
     7
 10
70.026831000000001
 20
182.884051
 30
0.0
 40
3.125065999999999
 50
270.00002000000001
 51
359.99999000000003
  0
ARC
  5
125
  8
0
 62
     7
 10
70.026916999999983
 20
182.88396399999999
 30
0.0
 40
1.9167769999999991
 50
0.002584
 51
90.002555000000015
  0
ARC
  5
126
  8
0
 62
     7
 10
70.026917999999995
 20
182.88413600000001
 30
0.0
 40
1.916604999999999
 50
90.002574999999993
 51
180.00258500000001
  0
ARC
  5
127
  8
0
 62
     7
 10
70.026916999999983
 20
182.88396399999999
 30
0.0
 40
1.916604999999999
 50
179.99739500000001
 51
269.99744500000003
  0
ARC
  5
128
  8
0
 62
     7
 10
70.026916999999983
 20
182.88413600000001
 30
0.0
 40
1.9167769999999991
 50
269.99744500000003
 51
359.99741599999999
  0
LINE
  5
129
  8
0
 62
     7
 10
67.026799999999994
 20
87.463300000000004
 30
0.0
 11
73.026799999999994
 21
87.463300000000004
 31
0.0
  0
LINE
  5
12A
  8
0
 62
     7
 10
28.360199999999999
 20
90.963499999999996
 30
0.0
 11
28.360199999999999
 21
101.047
 31
0.0
  0
ARC
  5
12B
  8
0
 62
     7
 10
28.965520000000001
 20
101.02426699999999
 30
0.0
 40
0.605729
 50
92.119327000000013
 51
177.88064299999999
  0
LINE
  5
12C
  8
0
 62
     7
 10
28.943100000000001
 20
101.63
 30
0.0
 11
111.111
 21
101.63
 31
0.0
  0
ARC
  5
12D
  8
0
 62
     7
 10
111.088554
 20
101.02432
 30
0.0
 40
0.6056600000000002
 50
2.1145309999999991
 51
87.919310999999993
  0
LINE
  5
12E
  8
0
 62
     7
 10
111.694
 20
101.047
 30
0.0
 11
111.694
 21
90.963499999999996
 31
0.0
  0
ARC
  5
12F
  8
0
 62
     7
 10
111.08819099999999
 20
90.985493000000005
 30
0.0
 40
0.6060100000000001
 50
272.11384500000003
 51
357.91999800000002
  0
LINE
  5
130
  8
0
 62
     7
 10
111.111
 20
90.379900000000006
 30
0.0
 11
28.943100000000001
 21
90.379900000000006
 31
0.0
  0
ARC
  5
131
  8
0
 62
     7
 10
28.965171000000002
 20
90.984835999999987
 30
0.0
 40
0.6053420000000001
 50
182.020037
 51
267.912307
  0
ARC
  5
132
  8
0
 62
     7
 10
70.027004000000005
 20
196.217343
 30
0.0
 40
1.4584909999999991
 50
0.006777
 51
90.006747000000018
  0
ARC
  5
133
  8
0
 62
     7
 10
70.083441000000008
 20
196.16126399999999
 30
0.0
 40
1.5156270000000001
 50
92.140512000000001
 51
177.872996
  0
ARC
  5
134
  8
0
 62
     7
 10
70.082991000000007
 20
196.27331599999999
 30
0.0
 40
1.5151609999999991
 50
182.110623
 51
267.87586899999991
  0
ARC
  5
135
  8
0
 62
     7
 10
70.027004000000005
 20
196.21768800000001
 30
0.0
 40
1.4584909999999991
 50
269.99325299999998
 51
359.993223
  0
LINE
  5
136
  8
0
 62
     7
 10
30.4435
 20
165.13399999999999
 30
0.0
 11
30.4435
 21
190.21700000000001
 31
0.0
  0
ARC
  5
137
  8
0
 62
     7
 10
31.026726
 20
190.217499
 30
0.0
 40
0.5832580000000001
 50
90.0
 51
179.99996999999999
  0
LINE
  5
138
  8
0
 62
     7
 10
31.026700000000002
 20
190.80099999999999
 30
0.0
 11
109.027
 21
190.80099999999999
 31
0.0
  0
ARC
  5
139
  8
0
 62
     7
 10
109.027281
 20
190.217499
 30
0.0
 40
0.5832580000000001
 50
0.00001
 51
89.999980000000008
  0
LINE
  5
13A
  8
0
 62
     7
 10
109.611
 20
190.21700000000001
 30
0.0
 11
109.611
 21
165.13399999999999
 31
0.0
  0
ARC
  5
13B
  8
0
 62
     7
 10
109.027281
 20
165.13394500000001
 30
0.0
 40
0.5832580000000001
 50
270.00002000000001
 51
359.99999000000003
  0
LINE
  5
13C
  8
0
 62
     7
 10
109.027
 20
164.5509999999999
 30
0.0
 11
31.026700000000002
 21
164.5509999999999
 31
0.0
  0
ARC
  5
13D
  8
0
 62
     7
 10
31.026726
 20
165.13394400000001
 30
0.0
 40
0.5832580000000001
 50
179.99996999999999
 51
270.00002000000001
  0
LINE
  5
13E
  8
0
 62
     7
 10
28.360199999999999
 20
163.05099999999999
 30
0.0
 11
28.360199999999999
 21
201.63399999999999
 31
0.0
  0
LINE
  5
13F
  8
0
 62
     7
 10
28.360199999999999
 20
201.63399999999999
 30
0.0
 11
111.694
 21
201.63399999999999
 31
0.0
  0
LINE
  5
140
  8
0
 62
     7
 10
111.694
 20
201.63399999999999
 30
0.0
 11
111.694
 21
163.05099999999999
 31
0.0
  0
ARC
  5
141
  8
0
 62
     7
 10
111.110544
 20
163.05068199999999
 30
0.0
 40
0.5832580000000001
 50
270.00002000000001
 51
359.99999000000003
  0
LINE
  5
142
  8
0
 62
     7
 10
111.111
 20
162.46700000000001
 30
0.0
 11
28.943100000000001
 21
162.46700000000001
 31
0.0
  0
ARC
  5
143
  8
0
 62
     7
 10
28.965147000000002
 20
163.072352
 30
0.0
 40
0.6053300000000002
 50
182.051603
 51
267.91457400000002
  0
TEXT
  5
144
  8
_________2
 62
     7
 10
24.476400000000002
 20
45.341200000000001
 30
0.0
 40
3.9357000000000002
  1
※壁取付部には厚さ30mm以上の補強木を入れてください。
 41
0.5
  0
TEXT
  5
145
  8
_________2
 62
     7
 10
24.476400000000002
 20
40.421599999999991
 30
0.0
 40
3.9357000000000002
  1
※排水栓を閉めた状態で毎分10L以上吐水させないでください。
 41
0.5
  0
LINE
  5
146
  8
_________2
 62
     7
 10
205.30099999999999
 20
127.411
 30
0.0
 11
183.55000000000001
 21
127.411
 31
0.0
  0
LINE
  5
147
  8
_________2
 62
     7
 10
100.3
 20
-4.0910799999999998
 30
0.0
 11
100.3
 21
-21.071400000000001
 31
0.0
  0
LINE
  5
148
  8
_________2
 62
     7
 10
100.3
 20
275.93099999999998
 30
0.0
 11
100.3
 21
258.911
 31
0.0
  0
LINE
  5
149
  8
_________2
 62
     7
 10
17.049499999999998
 20
127.411
 30
0.0
 11
-4.70052
 21
127.411
 31
0.0
  0
LINE
  5
14A
  8
_________2
 62
     7
 10
76.741
 20
29.8047
 30
0.0
 11
74.554699999999997
 21
29.8047
 31
0.0
  0
LINE
  5
14B
  8
_________2
 62
     7
 10
77.233699999999999
 20
29.8047
 30
0.0
 11
76.981499999999997
 21
29.8047
 31
0.0
  0
LINE
  5
14C
  8
_________2
 62
     7
 10
77.726299999999995
 20
29.8047
 30
0.0
 11
80.651200000000003
 21
29.8047
 31
0.0
  0
LINE
  5
14D
  8
_________2
 62
     7
 10
77.233699999999999
 20
29.8047
 30
0.0
 11
77.485500000000002
 21
29.8047
 31
0.0
  0
LINE
  5
14E
  8
_________2
 62
     7
 10
70.837100000000007
 20
29.8047
 30
0.0
 11
68.650499999999994
 21
29.8047
 31
0.0
  0
LINE
  5
14F
  8
_________2
 62
     7
 10
71.329400000000007
 20
29.8047
 30
0.0
 11
71.077600000000004
 21
29.8047
 31
0.0
  0
LINE
  5
150
  8
_________2
 62
     7
 10
71.329400000000007
 20
30.2974
 30
0.0
 11
71.329400000000007
 21
32.484400000000001
 31
0.0
  0
LINE
  5
151
  8
_________2
 62
     7
 10
71.329400000000007
 20
29.8047
 30
0.0
 11
71.329400000000007
 21
30.056899999999999
 31
0.0
  0
LINE
  5
152
  8
_________2
 62
     7
 10
71.822100000000006
 20
29.8047
 30
0.0
 11
74.009
 21
29.8047
 31
0.0
  0
LINE
  5
153
  8
_________2
 62
     7
 10
71.329400000000007
 20
29.8047
 30
0.0
 11
71.581599999999995
 21
29.8047
 31
0.0
  0
LINE
  5
154
  8
_________2
 62
     7
 10
71.329400000000007
 20
29.312799999999999
 30
0.0
 11
71.329400000000007
 21
27.125800000000002
 31
0.0
  0
LINE
  5
155
  8
_________2
 62
     7
 10
71.329400000000007
 20
29.8047
 30
0.0
 11
71.329400000000007
 21
29.5532
 31
0.0
  0
LINE
  5
156
  8
_________2
 62
     7
 10
75.040499999999994
 20
28.5852
 30
0.0
 11
80.218500000000006
 21
27.720400000000001
 31
0.0
  0
LINE
  5
157
  8
_________2
 62
     7
 10
75.040499999999994
 20
31.0243
 30
0.0
 11
80.218500000000006
 21
31.889700000000001
 31
0.0
  0
LINE
  5
158
  8
_________2
 62
     7
 10
80.218500000000006
 20
27.720400000000001
 30
0.0
 11
80.218500000000006
 21
31.889700000000001
 31
0.0
  0
LINE
  5
159
  8
_________2
 62
     7
 10
75.040499999999994
 20
28.5852
 30
0.0
 11
75.040499999999994
 21
31.0243
 31
0.0
  0
ARC
  5
15A
  8
_________2
 62
     7
 10
71.28285600000001
 20
29.757811
 30
0.0
 40
1.2673589999999999
 50
2.122214
 51
87.893958999999995
  0
ARC
  5
15B
  8
_________2
 62
     7
 10
71.375959999999992
 20
29.758213000000001
 30
0.0
 40
1.2669559999999991
 50
92.104701000000006
 51
177.89526900000001
  0
ARC
  5
15C
  8
_________2
 62
     7
 10
71.376357999999996
 20
29.851671
 30
0.0
 40
1.2673680000000001
 50
182.12203600000001
 51
267.877993
  0
ARC
  5
15D
  8
_________2
 62
     7
 10
71.282531999999989
 20
29.851998999999999
 30
0.0
 40
1.267695999999999
 50
272.12015300000002
 51
357.863674
  0
ARC
  5
15E
  8
_________2
 62
     7
 10
71.329430000000002
 20
29.804742999999998
 30
0.0
 40
2.0849849999999992
 50
0.00001
 51
89.999980000000008
  0
ARC
  5
15F
  8
_________2
 62
     7
 10
71.329603000000006
 20
29.804915000000001
 30
0.0
 40
2.084813
 50
90.004733999999999
 51
180.00474399999999
  0
ARC
  5
160
  8
_________2
 62
     7
 10
71.409106000000008
 20
29.884775999999999
 30
0.0
 40
2.1657950000000001
 50
182.11776599999999
 51
267.89173399999999
  0
ARC
  5
161
  8
_________2
 62
     7
 10
71.249459000000002
 20
29.885429999999999
 30
0.0
 40
2.1664590000000001
 50
272.11546800000002
 51
357.86560400000002
  0
TEXT
  5
162
  8
_________2
 62
     7
 10
104.605
 20
1.6794899999999999
 30
0.0
 40
3.0923400000000001
  1
図番
 41
0.5
  0
LINE
  5
163
  8
_________2
 62
     7
 10
103.55
 20
5.9087199999999989
 30
0.0
 11
183.55099999999999
 21
5.9087199999999989
 31
0.0
  0
TEXT
  5
164
  8
_________2
 62
     7
 10
104.605
 20
11.6793
 30
0.0
 40
3.0923400000000001
  1
品番
 41
0.5
  0
TEXT
  5
165
  8
_________2
 62
     7
 10
104.605
 20
31.818100000000001
 30
0.0
 40
3.0923400000000001
  1
名称
 41
0.5
  0
TEXT
  5
166
  8
_________2
 62
     7
 10
91.845058333333341
 20
26.821999999999999
 30
0.0
 40
3.6545800000000002
  1
mm
 41
0.5
 72
     1
 11
93.367800000000003
 21
26.821999999999999
 31
0.0
  0
TEXT
  5
167
  8
_________2
 62
     7
 10
85.643199999999993
 20
31.818100000000001
 30
0.0
 40
3.0923400000000001
  1
単位
 41
0.5
  0
TEXT
  5
168
  8
_________2
 62
     7
 10
85.643199999999993
 20
19.410799999999998
 30
0.0
 40
3.0923400000000001
  1
尺度
 41
0.5
  0
TEXT
  5
169
  8
_________2
 62
     7
 10
89.939661999999998
 20
13.2179
 30
0.0
 40
3.6545800000000002
  1
1 ： 12
 41
0.5
 72
     1
 11
93.959699999999998
 21
13.2179
 31
0.0
  0
TEXT
  5
16A
  8
_________2
 62
     7
 10
133.71074999999999
 20
9.1078600000000005
 30
0.0
 40
3.9357000000000002
  1
DV235010-00
 41
0.5
 72
     1
 11
143.55000000000001
 21
9.1078600000000005
 31
0.0
  0
TEXT
  5
16B
  8
_________2
 62
     7
 10
136.33455000000001
 20
-0.8926299999999999
 30
0.0
 40
3.9357000000000002
  1
DV235010
 41
0.5
 72
     1
 11
143.55000000000001
 21
-0.8926299999999999
 31
0.0
  0
TEXT
  5
16C
  8
_________2
 62
     7
 10
24.5868
 20
0.707283
 30
0.0
 40
3.9357000000000002
  1
実容量：16.8L、重量：28.0kg、オーバーフロー付
 41
0.5
  0
TEXT
  5
16D
  8
_________2
 62
     7
 10
109.179
 20
24.2257
 30
0.0
 40
3.9357000000000002
  1
ヴェーロエア　洗面器
 41
0.5
  0
TEXT
  5
16E
  8
_________2
 62
     7
 10
39.364390666666672
 20
13.603
 30
0.0
 40
3.6545800000000002
  1
篠崎
 41
0.5
 72
     1
 11
41.313499999999998
 21
13.603
 31
0.0
  0
TEXT
  5
16F
  8
_________2
 62
     7
 10
20.790090666666671
 20
13.603
 30
0.0
 40
3.6545800000000002
  1
飯塚
 41
0.5
 72
     1
 11
22.7392
 21
13.603
 31
0.0
  0
TEXT
  5
170
  8
_________2
 62
     7
 10
67.785399999999996
 20
13.2179
 30
0.0
 40
3.6545800000000002
  1
18.02.05
 41
0.5
  0
TEXT
  5
171
  8
_________2
 62
     7
 10
66.593100000000007
 20
19.410799999999998
 30
0.0
 40
3.0923400000000001
  1
日付
 41
0.5
  0
TEXT
  5
172
  8
_________2
 62
     7
 10
29.639399999999998
 20
19.410799999999998
 30
0.0
 40
3.0923400000000001
  1
検図
 41
0.5
  0
TEXT
  5
173
  8
_________2
 62
     7
 10
18.021100000000001
 20
5.21143
 30
0.0
 40
3.0923400000000001
  1
備考
 41
0.5
  0
TEXT
  5
174
  8
_________2
 62
     7
 10
18.021100000000001
 20
19.410799999999998
 30
0.0
 40
3.0923400000000001
  1
製図
 41
0.5
  0
TEXT
  5
175
  8
_________2
 62
     7
 10
23.788465333333338
 20
27.936800000000002
 30
0.0
 40
4.4979399999999989
  1
セラトレーディング株式会社
 41
0.5
 72
     1
 11
41.180500000000002
 21
27.936800000000002
 31
0.0
  0
LINE
  5
176
  8
_________2
 62
     7
 10
183.55099999999999
 20
-4.0910799999999998
 30
0.0
 11
17.049499999999998
 21
-4.0910799999999998
 31
0.0
  0
LINE
  5
177
  8
_________2
 62
     7
 10
17.049499999999998
 20
-4.0910799999999998
 30
0.0
 11
17.049499999999998
 21
258.911
 31
0.0
  0
LINE
  5
178
  8
_________2
 62
     7
 10
17.049499999999998
 20
258.911
 30
0.0
 11
183.55099999999999
 21
258.911
 31
0.0
  0
LINE
  5
179
  8
_________2
 62
     7
 10
183.55099999999999
 20
258.911
 30
0.0
 11
183.55099999999999
 21
-4.0910799999999998
 31
0.0
  0
LINE
  5
17A
  8
_________2
 62
     7
 10
65.549599999999998
 20
9.4089600000000004
 30
0.0
 11
65.549599999999998
 21
35.908799999999999
 31
0.0
  0
LINE
  5
17B
  8
_________2
 62
     7
 10
84.549700000000016
 20
9.4089600000000004
 30
0.0
 11
84.549700000000016
 21
35.908799999999999
 31
0.0
  0
LINE
  5
17C
  8
_________2
 62
     7
 10
103.55
 20
-4.0910799999999998
 30
0.0
 11
103.55
 21
35.908799999999999
 31
0.0
  0
LINE
  5
17D
  8
_________2
 62
     7
 10
28.549299999999999
 20
9.4089600000000004
 30
0.0
 11
28.549299999999999
 21
23.409199999999998
 31
0.0
  0
LINE
  5
17E
  8
_________2
 62
     7
 10
17.049499999999998
 20
9.4089600000000004
 30
0.0
 11
103.55
 21
9.4089600000000004
 31
0.0
  0
LINE
  5
17F
  8
_________2
 62
     7
 10
17.049499999999998
 20
23.409199999999998
 30
0.0
 11
103.55
 21
23.409199999999998
 31
0.0
  0
LINE
  5
180
  8
_________2
 62
     7
 10
103.55
 20
15.9085
 30
0.0
 11
183.55099999999999
 21
15.9085
 31
0.0
  0
LINE
  5
181
  8
_________2
 62
     7
 10
17.049499999999998
 20
35.908799999999999
 30
0.0
 11
183.55099999999999
 21
35.908799999999999
 31
0.0
  0
ENDSEC
  0
EOF
