  0
SECTION
  2
HEADER
  9
$ACADVER
  1
AC1009
  9
$INSBASE
 10
0.0
 20
0.0
 30
0.0
  9
$EXTMIN
 10
-4.70052
 20
-21.071400000000001
 30
0.0
  9
$EXTMAX
 10
205.30099999999999
 20
275.93099999999998
 30
0.0
  9
$LIMMIN
 10
0.0
 20
0.0
  9
$LIMMAX
 10
12.0
 20
9.0
  9
$ORTHOMODE
 70
     0
  9
$REGENMODE
 70
     1
  9
$FILLMODE
 70
     1
  9
$QTEXTMODE
 70
     0
  9
$MIRRTEXT
 70
     1
  9
$DRAGMODE
 70
     2
  9
$LTSCALE
 40
1.0
  9
$OSMODE
 70
    37
  9
$ATTMODE
 70
     1
  9
$TEXTSIZE
 40
0.0
  9
$TRACEWID
 40
0.05
  9
$TEXTSTYLE
  7
STANDARD
  9
$CLAYER
  8
0
  9
$CELTYPE
  6
CONTINUOUS
  9
$CECOLOR
 62
   256
  9
$DIMSCALE
 40
1.0
  9
$DIMASZ
 40
0.18
  9
$DIMEXO
 40
0.0625
  9
$DIMDLI
 40
0.38
  9
$DIMRND
 40
0.0
  9
$DIMDLE
 40
0.0
  9
$DIMEXE
 40
0.18
  9
$DIMTP
 40
0.0
  9
$DIMTM
 40
0.0
  9
$DIMTXT
 40
0.18
  9
$DIMCEN
 40
0.09
  9
$DIMTSZ
 40
0.0
  9
$DIMTOL
 70
     0
  9
$DIMLIM
 70
     0
  9
$DIMTIH
 70
     1
  9
$DIMTOH
 70
     1
  9
$DIMSE1
 70
     0
  9
$DIMSE2
 70
     0
  9
$DIMTAD
 70
     0
  9
$DIMZIN
 70
     0
  9
$DIMBLK
  1

  9
$DIMASO
 70
     1
  9
$DIMSHO
 70
     1
  9
$DIMPOST
  1

  9
$DIMAPOST
  1

  9
$DIMALT
 70
     0
  9
$DIMALTD
 70
     2
  9
$DIMALTF
 40
25.399999999999999
  9
$DIMLFAC
 40
1.0
  9
$DIMTOFL
 70
     0
  9
$DIMTVP
 40
0.0
  9
$DIMTIX
 70
     0
  9
$DIMSOXD
 70
     0
  9
$DIMSAH
 70
     0
  9
$DIMBLK1
  1

  9
$DIMBLK2
  1

  9
$DIMSTYLE
  2
STANDARD
  9
$DIMCLRD
 70
     0
  9
$DIMCLRE
 70
     0
  9
$DIMCLRT
 70
     0
  9
$DIMTFAC
 40
1.0
  9
$DIMGAP
 40
0.09
  9
$LUNITS
 70
     2
  9
$LUPREC
 70
     4
  9
$SKETCHINC
 40
0.1
  9
$FILLETRAD
 40
0.0
  9
$AUNITS
 70
     0
  9
$AUPREC
 70
     0
  9
$MENU
  1
.
  9
$ELEVATION
 40
0.0
  9
$PELEVATION
 40
0.0
  9
$THICKNESS
 40
0.0
  9
$LIMCHECK
 70
     0
  9
$BLIPMODE
 70
     0
  9
$CHAMFERA
 40
0.0
  9
$CHAMFERB
 40
0.0
  9
$SKPOLY
 70
     0
  9
$TDCREATE
 40
2444972.375
  9
$TDUPDATE
 40
2458180.2530611921
  9
$TDINDWG
 40
0.0000317361
  9
$TDUSRTIMER
 40
0.0000317361
  9
$USRTIMER
 70
     1
  9
$ANGBASE
 50
0.0
  9
$ANGDIR
 70
     0
  9
$PDMODE
 70
     0
  9
$PDSIZE
 40
0.0
  9
$PLINEWID
 40
0.0
  9
$COORDS
 70
     1
  9
$SPLFRAME
 70
     0
  9
$SPLINETYPE
 70
     6
  9
$SPLINESEGS
 70
     8
  9
$ATTDIA
 70
     1
  9
$ATTREQ
 70
     1
  9
$HANDLING
 70
     1
  9
$HANDSEED
  5
247
  9
$SURFTAB1
 70
     6
  9
$SURFTAB2
 70
     6
  9
$SURFTYPE
 70
     6
  9
$SURFU
 70
     6
  9
$SURFV
 70
     6
  9
$UCSNAME
  2

  9
$UCSORG
 10
0.0
 20
0.0
 30
0.0
  9
$UCSXDIR
 10
1.0
 20
0.0
 30
0.0
  9
$UCSYDIR
 10
0.0
 20
1.0
 30
0.0
  9
$PUCSNAME
  2

  9
$PUCSORG
 10
0.0
 20
0.0
 30
0.0
  9
$PUCSXDIR
 10
1.0
 20
0.0
 30
0.0
  9
$PUCSYDIR
 10
0.0
 20
1.0
 30
0.0
  9
$USERI1
 70
     0
  9
$USERI2
 70
     0
  9
$USERI3
 70
     0
  9
$USERI4
 70
     0
  9
$USERI5
 70
     0
  9
$USERR1
 40
0.0
  9
$USERR2
 40
0.0
  9
$USERR3
 40
0.0
  9
$USERR4
 40
0.0
  9
$USERR5
 40
0.0
  9
$WORLDVIEW
 70
     1
  9
$SHADEDGE
 70
     3
  9
$SHADEDIF
 70
    70
  9
$TILEMODE
 70
     1
  9
$MAXACTVP
 70
    48
  9
$PLIMCHECK
 70
     0
  9
$PEXTMIN
 10
1.0000000000000000E+020
 20
1.0000000000000000E+020
 30
1.0000000000000000E+020
  9
$PEXTMAX
 10
-1.0000000000000000E+020
 20
-1.0000000000000000E+020
 30
-1.0000000000000000E+020
  9
$PLIMMIN
 10
0.0
 20
0.0
  9
$PLIMMAX
 10
12.0
 20
9.0
  9
$UNITMODE
 70
     0
  9
$VISRETAIN
 70
     1
  9
$PLINEGEN
 70
     0
  9
$PSLTSCALE
 70
     1
  0
ENDSEC
  0
SECTION
  2
TABLES
  0
TABLE
  2
VPORT
 70
     1
  0
VPORT
  2
*ACTIVE
 70
     0
 10
0.0
 20
0.0
 11
1.0
 21
1.0
 12
190.8818955579932
 22
127.4298
 13
0.0
 23
0.0
 14
1.0
 24
1.0
 15
0.0
 25
0.0
 16
0.0
 26
0.0
 36
1.0
 17
0.0
 27
0.0
 37
0.0
 40
280.9492874949953
 41
2.298642533936651
 42
50.0
 43
0.0
 44
0.0
 50
0.0
 51
0.0
 71
     0
 72
   100
 73
     1
 74
     1
 75
     0
 76
     0
 77
     0
 78
     0
  0
ENDTAB
  0
TABLE
  2
LTYPE
 70
     3
  0
LTYPE
  2
CONTINUOUS
 70
     0
  3
Solid line
 72
    65
 73
     0
 40
0.0
  0
LTYPE
  2
AIGENLINE001
 70
     0
  3
generate AI->DXF Converter
 72
    65
 73
     4
 40
5.8561449999999988
 49
3.5278
 49
-0.776115
 49
0.776115
 49
-0.776115
  0
LTYPE
  2
AIGENLINE002
 70
     0
  3
generate AI->DXF Converter
 72
    65
 73
     2
 40
1.5522299999999991
 49
0.776115
 49
-0.776115
  0
ENDTAB
  0
TABLE
  2
LAYER
 70
     2
  0
LAYER
  2
0
 70
     0
 62
     7
  6
CONTINUOUS
  0
LAYER
  2
_________2
 70
     0
 62
     7
  6
CONTINUOUS
  0
ENDTAB
  0
TABLE
  2
STYLE
 70
     1
  0
STYLE
  2
STANDARD
 70
     0
 40
0.0
 41
0.0
 50
0.0
 71
     0
 42
0.0
  3
TXT
  4
EXTFONT.SHX
  0
ENDTAB
  0
TABLE
  2
VIEW
 70
     0
  0
ENDTAB
  0
TABLE
  2
UCS
 70
     0
  0
ENDTAB
  0
TABLE
  2
APPID
 70
     3
  0
APPID
  2
ACAD
 70
     0
  0
APPID
  2
ACAD_NAV_VCDISPLAY
 70
     0
  0
APPID
  2
ACAD_MLEADERVER
 70
     0
  0
ENDTAB
  0
TABLE
  2
DIMSTYLE
 70
     1
  0
DIMSTYLE
  2
STANDARD
 70
     0
  3

  4

  5

  6

  7

 40
1.0
 41
0.18
 42
0.0625
 43
0.38
 44
0.18
 45
0.0
 46
0.0
 47
0.0
 48
0.0
140
0.18
141
0.09
142
0.0
143
25.399999999999999
144
1.0
145
0.0
146
1.0
147
0.09
 71
     0
 72
     0
 73
     1
 74
     1
 75
     0
 76
     0
 77
     0
 78
     0
170
     0
171
     2
172
     0
173
     0
174
     0
175
     0
176
     0
177
     0
178
     0
  0
ENDTAB
  0
ENDSEC
  0
SECTION
  2
BLOCKS
  0
BLOCK
  8
0
  2
$MODEL_SPACE
 70
     0
 10
0.0
 20
0.0
 30
0.0
  3
$MODEL_SPACE
  1

  0
ENDBLK
  5
1A
  8
0
  0
BLOCK
 67
     1
  8
0
  2
$PAPER_SPACE
 70
     0
 10
0.0
 20
0.0
 30
0.0
  3
$PAPER_SPACE
  1

  0
ENDBLK
  5
17
 67
     1
  8
0
  0
ENDSEC
  0
SECTION
  2
ENTITIES
  0
TEXT
  5
23
  8
0
 62
     7
 10
52.2879
 20
194.35499999999999
 30
0.0
 40
3.0923400000000001
  1
メーカーロゴ
 41
0.5
  0
TEXT
  5
24
  8
0
 62
     7
 10
62.269100000000002
 20
185.804
 30
0.0
 40
3.0923400000000001
  1
%%c46
 41
0.5
  0
TEXT
  5
25
  8
0
 62
     7
 10
73.469845000000007
 20
151.47999999999999
 30
0.0
 40
3.0923400000000001
  1
1200
 41
0.5
 72
     1
 11
75.789100000000005
 21
151.47999999999999
 31
0.0
  0
TEXT
  5
26
  8
0
 62
     7
 10
130.11404999999999
 20
159.96100000000001
 30
0.0
 40
3.0923400000000001
  1
25
 41
0.5
 72
     2
 11
132.691
 21
159.96100000000001
 31
0.0
  0
TEXT
  5
27
  8
0
 62
     7
 10
73.598692499999999
 20
159.96100000000001
 30
0.0
 40
3.0923400000000001
  1
1150
 41
0.5
 72
     1
 11
75.789100000000005
 21
159.96100000000001
 31
0.0
  0
TEXT
  5
28
  8
0
 62
     7
 10
19.424600000000002
 20
159.96100000000001
 30
0.0
 40
3.0923400000000001
  1
25
 41
0.5
  0
TEXT
  5
29
  8
0
 62
     7
 10
135.83799999999999
 20
165.38399999999999
 30
0.0
 40
3.0923400000000001
  1
25
 50
90.0
 41
0.5
  0
TEXT
  5
2A
  8
0
 62
     7
 10
135.83799999999999
 20
184.58113499999999
 30
0.0
 40
3.0923400000000001
  1
315
 50
90.0
 41
0.5
 72
     1
 11
135.83799999999999
 21
186.38499999999999
 31
0.0
  0
TEXT
  5
2B
  8
0
 62
     7
 10
135.83799999999999
 20
203.2519825
 30
0.0
 40
3.0923400000000001
  1
130
 50
90.0
 41
0.5
 72
     1
 11
135.83799999999999
 21
204.92699999999999
 31
0.0
  0
TEXT
  5
2C
  8
0
 62
     7
 10
143.85300000000001
 20
189.27828749999989
 30
0.0
 40
3.0923400000000001
  1
470
 50
90.0
 41
0.5
 72
     1
 11
143.85300000000001
 21
191.21100000000001
 31
0.0
  0
TEXT
  5
2D
  8
0
 62
     7
 10
114.779
 20
206.849525
 30
0.0
 40
3.0923400000000001
  1
65
 50
90.0
 41
0.5
 72
     1
 11
114.779
 21
208.13800000000001
 31
0.0
  0
TEXT
  5
2E
  8
0
 62
     7
 10
111.64088
 20
215.93100000000001
 30
0.0
 40
3.0923400000000001
  1
%%c35
 41
0.5
 72
     2
 11
115.764
 21
215.93100000000001
 31
0.0
  0
TEXT
  5
2F
  8
0
 62
     7
 10
35.814799999999998
 20
215.93100000000001
 30
0.0
 40
3.0923400000000001
  1
%%c35
 41
0.5
  0
TEXT
  5
30
  8
0
 62
     7
 10
154.279
 20
99.604982500000006
 30
0.0
 40
3.0923400000000001
  1
120
 50
90.0
 41
0.5
 72
     1
 11
154.279
 21
101.28
 31
0.0
  0
TEXT
  5
31
  8
0
 62
     7
 10
116.252
 20
102.76452500000001
 30
0.0
 40
3.0923400000000001
  1
55
 50
90.0
 41
0.5
 72
     1
 11
116.252
 21
104.053
 31
0.0
  0
TEXT
  5
32
  8
0
 62
     7
 10
167.92243999999999
 20
85.149500000000003
 30
0.0
 40
3.0923400000000001
  1
225
 41
0.5
 72
     1
 11
169.98400000000001
 21
85.149500000000003
 31
0.0
  0
TEXT
  5
33
  8
0
 62
     7
 10
130.14699999999999
 20
98.916134999999997
 30
0.0
 40
3.0923400000000001
  1
135
 50
90.0
 41
0.5
 72
     1
 11
130.14699999999999
 21
100.72
 31
0.0
  0
TEXT
  5
34
  8
0
 62
     7
 10
136.17500000000001
 20
97.457534999999993
 30
0.0
 40
3.0923400000000001
  1
165
 50
90.0
 41
0.5
 72
     1
 11
136.17500000000001
 21
99.261399999999995
 31
0.0
  0
TEXT
  5
35
  8
0
 62
     7
 10
94.769339999999985
 20
115.65600000000001
 30
0.0
 40
3.0923400000000001
  1
225
 41
0.5
 72
     1
 11
96.830899999999986
 21
115.65600000000001
 31
0.0
  0
TEXT
  5
36
  8
0
 62
     7
 10
73.856387500000011
 20
115.65600000000001
 30
0.0
 40
3.0923400000000001
  1
280
 41
0.5
 72
     1
 11
75.789100000000005
 21
115.65600000000001
 31
0.0
  0
TEXT
  5
37
  8
0
 62
     7
 10
52.685839999999999
 20
115.65600000000001
 30
0.0
 40
3.0923400000000001
  1
225
 41
0.5
 72
     1
 11
54.747399999999999
 21
115.65600000000001
 31
0.0
  0
LINE
  5
38
  8
0
 62
     7
 10
54.4587
 20
220.41399999999999
 30
0.0
 11
52.247300000000003
 21
219.822
 31
0.0
  0
LINE
  5
39
  8
0
 62
     7
 10
52.247300000000003
 20
219.822
 30
0.0
 11
54.4587
 21
219.22900000000001
 31
0.0
  0
LINE
  5
3A
  8
0
 62
     7
 10
54.4587
 20
219.22900000000001
 30
0.0
 11
54.4587
 21
220.41399999999999
 31
0.0
  0
LINE
  5
3B
  8
0
 62
     7
 10
97.119600000000005
 20
219.22900000000001
 30
0.0
 11
99.331000000000003
 21
219.822
 31
0.0
  0
LINE
  5
3C
  8
0
 62
     7
 10
99.331000000000003
 20
219.822
 30
0.0
 11
97.119600000000005
 21
220.41399999999999
 31
0.0
  0
LINE
  5
3D
  8
0
 62
     7
 10
97.119600000000005
 20
220.41399999999999
 30
0.0
 11
97.119600000000005
 21
219.22900000000001
 31
0.0
  0
LINE
  5
3E
  8
0
 62
     7
 10
73.705899999999986
 20
202.04400000000001
 30
0.0
 11
73.705899999999986
 21
200.79499999999999
 31
0.0
  0
LINE
  5
3F
  8
0
 62
     7
 10
77.872399999999999
 20
202.04400000000001
 30
0.0
 11
73.705899999999986
 21
202.04400000000001
 31
0.0
  0
LINE
  5
40
  8
0
 62
     7
 10
77.872399999999999
 20
200.79499999999999
 30
0.0
 11
77.872399999999999
 21
202.04400000000001
 31
0.0
  0
LINE
  5
41
  8
0
 62
     7
 10
73.705899999999986
 20
200.79499999999999
 30
0.0
 11
77.872399999999999
 21
200.79499999999999
 31
0.0
  0
LINE
  5
42
  8
0
  6
AIGENLINE001
 62
     7
 10
99.331000000000003
 20
209.40700000000001
 30
0.0
 11
99.331000000000003
 21
200.999
 31
0.0
  0
LINE
  5
43
  8
0
  6
AIGENLINE001
 62
     7
 10
52.247300000000003
 20
209.40700000000001
 30
0.0
 11
52.247300000000003
 21
200.999
 31
0.0
  0
LINE
  5
44
  8
0
  6
AIGENLINE001
 62
     7
 10
176.447
 20
101.761
 30
0.0
 11
182.27099999999999
 21
101.761
 31
0.0
  0
LINE
  5
45
  8
0
  6
AIGENLINE001
 62
     7
 10
173.94300000000001
 20
109.32899999999999
 30
0.0
 11
173.94300000000001
 21
103.351
 31
0.0
  0
LINE
  5
46
  8
0
  6
AIGENLINE001
 62
     7
 10
160.60900000000001
 20
109.32899999999999
 30
0.0
 11
160.60900000000001
 21
90.099500000000006
 31
0.0
  0
LINE
  5
47
  8
0
  6
AIGENLINE001
 62
     7
 10
75.789100000000005
 20
109.32899999999999
 30
0.0
 11
75.789100000000005
 21
90.515600000000006
 31
0.0
  0
LINE
  5
48
  8
0
  6
AIGENLINE001
 62
     7
 10
73.064700000000002
 20
103.303
 30
0.0
 11
78.513499999999993
 21
103.303
 31
0.0
  0
LINE
  5
49
  8
0
  6
AIGENLINE001
 62
     7
 10
102.039
 20
212.70400000000001
 30
0.0
 11
102.039
 21
208.88499999999999
 31
0.0
  0
LINE
  5
4A
  8
0
  6
AIGENLINE001
 62
     7
 10
87.455699999999979
 20
212.70400000000001
 30
0.0
 11
87.455699999999979
 21
208.88499999999999
 31
0.0
  0
LINE
  5
4B
  8
0
  6
AIGENLINE001
 62
     7
 10
49.539099999999998
 20
212.70400000000001
 30
0.0
 11
49.539099999999998
 21
208.88499999999999
 31
0.0
  0
LINE
  5
4C
  8
0
  6
AIGENLINE001
 62
     7
 10
64.122600000000006
 20
212.70400000000001
 30
0.0
 11
64.122600000000006
 21
208.88499999999999
 31
0.0
  0
LINE
  5
4D
  8
0
  6
AIGENLINE001
 62
     7
 10
47.2181
 20
205.37799999999999
 30
0.0
 11
104.36
 21
205.37799999999999
 31
0.0
  0
LINE
  5
4E
  8
0
  6
AIGENLINE001
 62
     7
 10
70.759600000000006
 20
192.04400000000001
 30
0.0
 11
80.818700000000007
 21
192.04400000000001
 31
0.0
  0
LINE
  5
4F
  8
0
  6
AIGENLINE001
 62
     7
 10
75.789100000000005
 20
214.501
 30
0.0
 11
75.789100000000005
 21
168.54499999999999
 31
0.0
  0
TEXT
  5
50
  8
0
 62
     7
 10
73.727540000000005
 20
220.52199999999999
 30
0.0
 40
3.0923400000000001
  1
565
 41
0.5
 72
     1
 11
75.789100000000005
 21
220.52199999999999
 31
0.0
  0
LINE
  5
51
  8
0
 62
     7
 10
52.247300000000003
 20
219.822
 30
0.0
 11
99.331000000000003
 21
219.822
 31
0.0
  0
LINE
  5
52
  8
0
 62
     7
 10
99.331000000000003
 20
210.107
 30
0.0
 11
99.331000000000003
 21
220.52199999999999
 31
0.0
  0
LINE
  5
53
  8
0
 62
     7
 10
52.247300000000003
 20
210.107
 30
0.0
 11
52.247300000000003
 21
220.52199999999999
 31
0.0
  0
LINE
  5
54
  8
0
 62
     7
 10
155.34299999999999
 20
106.345
 30
0.0
 11
153.93000000000001
 21
106.345
 31
0.0
  0
LINE
  5
55
  8
0
 62
     7
 10
156.96299999999999
 20
96.344800000000006
 30
0.0
 11
153.93000000000001
 21
96.344800000000006
 31
0.0
  0
LINE
  5
56
  8
0
  6
AIGENLINE001
 62
     7
 10
106.206
 20
103.67100000000001
 30
0.0
 11
106.206
 21
99.851200000000006
 31
0.0
  0
LINE
  5
57
  8
0
  6
AIGENLINE001
 62
     7
 10
103.294
 20
101.761
 30
0.0
 11
109.11799999999999
 21
101.761
 31
0.0
  0
LINE
  5
58
  8
0
  6
AIGENLINE001
 62
     7
 10
87.455699999999979
 20
103.67100000000001
 30
0.0
 11
87.455699999999979
 21
99.851200000000006
 31
0.0
  0
LINE
  5
59
  8
0
  6
AIGENLINE001
 62
     7
 10
84.543899999999994
 20
101.761
 30
0.0
 11
90.367800000000003
 21
101.761
 31
0.0
  0
LINE
  5
5A
  8
0
  6
AIGENLINE001
 62
     7
 10
45.372500000000002
 20
103.67100000000001
 30
0.0
 11
45.372500000000002
 21
99.851200000000006
 31
0.0
  0
LINE
  5
5B
  8
0
  6
AIGENLINE001
 62
     7
 10
42.460399999999993
 20
101.761
 30
0.0
 11
48.284399999999998
 21
101.761
 31
0.0
  0
LINE
  5
5C
  8
0
  6
AIGENLINE001
 62
     7
 10
64.122600000000006
 20
103.67100000000001
 30
0.0
 11
64.122600000000006
 21
99.851200000000006
 31
0.0
  0
LINE
  5
5D
  8
0
  6
AIGENLINE001
 62
     7
 10
61.2104
 20
101.761
 30
0.0
 11
67.034400000000005
 21
101.761
 31
0.0
  0
LINE
  5
5E
  8
0
  6
AIGENLINE002
 62
     7
 10
44.955699999999993
 20
102.678
 30
0.0
 11
45.789099999999991
 21
102.678
 31
0.0
  0
LINE
  5
5F
  8
0
  6
AIGENLINE002
 62
     7
 10
45.789099999999991
 20
100.845
 30
0.0
 11
44.955699999999993
 21
100.845
 31
0.0
  0
ARC
  5
60
  8
0
  6
AIGENLINE002
 62
     7
 10
45.753925999999993
 20
101.79667000000001
 30
0.0
 40
0.9525339999999999
 50
272.11343799999997
 51
357.86503599999998
  0
ARC
  5
61
  8
0
  6
AIGENLINE002
 62
     7
 10
45.754249999999999
 20
101.726024
 30
0.0
 40
0.9521979999999999
 50
2.1161849999999989
 51
87.905341000000007
  0
ARC
  5
62
  8
0
  6
AIGENLINE002
 62
     7
 10
44.990817
 20
101.725689
 30
0.0
 40
0.9525450000000001
 50
92.114001000000002
 51
177.86443399999999
  0
ARC
  5
63
  8
0
  6
AIGENLINE002
 62
     7
 10
44.990482999999998
 20
101.796345
 30
0.0
 40
0.9521979999999999
 50
182.11618799999999
 51
267.90537799999998
  0
LINE
  5
64
  8
0
  6
AIGENLINE002
 62
     7
 10
63.7057
 20
102.678
 30
0.0
 11
64.539100000000005
 21
102.678
 31
0.0
  0
LINE
  5
65
  8
0
  6
AIGENLINE002
 62
     7
 10
64.539100000000005
 20
100.845
 30
0.0
 11
63.7057
 21
100.845
 31
0.0
  0
ARC
  5
66
  8
0
  6
AIGENLINE002
 62
     7
 10
64.503977000000006
 20
101.79667000000001
 30
0.0
 40
0.9525339999999999
 50
272.11343799999997
 51
357.86503599999998
  0
ARC
  5
67
  8
0
  6
AIGENLINE002
 62
     7
 10
64.504300999999998
 20
101.726024
 30
0.0
 40
0.9521979999999999
 50
2.1161849999999989
 51
87.905341000000007
  0
ARC
  5
68
  8
0
  6
AIGENLINE002
 62
     7
 10
63.740867999999999
 20
101.725689
 30
0.0
 40
0.9525450000000001
 50
92.114001000000002
 51
177.86443399999999
  0
ARC
  5
69
  8
0
  6
AIGENLINE002
 62
     7
 10
63.740532999999992
 20
101.796345
 30
0.0
 40
0.9521979999999999
 50
182.11618799999999
 51
267.90537799999998
  0
LINE
  5
6A
  8
0
  6
AIGENLINE002
 62
     7
 10
87.039199999999994
 20
102.678
 30
0.0
 11
87.872500000000002
 21
102.678
 31
0.0
  0
LINE
  5
6B
  8
0
  6
AIGENLINE002
 62
     7
 10
87.872500000000002
 20
100.845
 30
0.0
 11
87.039199999999994
 21
100.845
 31
0.0
  0
ARC
  5
6C
  8
0
  6
AIGENLINE002
 62
     7
 10
87.837401000000014
 20
101.79667999999999
 30
0.0
 40
0.9525450000000001
 50
272.11401999999998
 51
357.86445400000002
  0
ARC
  5
6D
  8
0
  6
AIGENLINE002
 62
     7
 10
87.837735999999992
 20
101.726024
 30
0.0
 40
0.9521979999999999
 50
2.1161849999999989
 51
87.905341000000007
  0
ARC
  5
6E
  8
0
  6
AIGENLINE002
 62
     7
 10
87.074293000000011
 20
101.72569900000001
 30
0.0
 40
0.9525339999999999
 50
92.11341800000001
 51
177.865016
  0
ARC
  5
6F
  8
0
  6
AIGENLINE002
 62
     7
 10
87.073968000000008
 20
101.796345
 30
0.0
 40
0.9521979999999999
 50
182.11618799999999
 51
267.90537799999998
  0
LINE
  5
70
  8
0
  6
AIGENLINE002
 62
     7
 10
105.789
 20
102.678
 30
0.0
 11
106.623
 21
102.678
 31
0.0
  0
LINE
  5
71
  8
0
  6
AIGENLINE002
 62
     7
 10
106.623
 20
100.845
 30
0.0
 11
105.789
 21
100.845
 31
0.0
  0
ARC
  5
72
  8
0
  6
AIGENLINE002
 62
     7
 10
106.587452
 20
101.79667999999999
 30
0.0
 40
0.9525450000000001
 50
272.11401999999998
 51
357.86445400000002
  0
ARC
  5
73
  8
0
  6
AIGENLINE002
 62
     7
 10
106.58778599999999
 20
101.726024
 30
0.0
 40
0.9521979999999999
 50
2.1161849999999989
 51
87.905341000000007
  0
ARC
  5
74
  8
0
  6
AIGENLINE002
 62
     7
 10
105.824343
 20
101.72569900000001
 30
0.0
 40
0.9525339999999999
 50
92.11341800000001
 51
177.865016
  0
ARC
  5
75
  8
0
  6
AIGENLINE002
 62
     7
 10
105.82401900000001
 20
101.796345
 30
0.0
 40
0.9521979999999999
 50
182.11618799999999
 51
267.90537799999998
  0
ARC
  5
76
  8
0
  6
AIGENLINE002
 62
     7
 10
141.76060100000001
 20
105.741603
 30
0.0
 40
0.603196
 50
10.537693000000001
 51
88.417834000000013
  0
ARC
  5
77
  8
0
  6
AIGENLINE002
 62
     7
 10
169.08322100000001
 20
105.740684
 30
0.0
 40
0.6041920000000001
 50
91.826666000000003
 51
173.62029000000001
  0
ARC
  5
78
  8
0
  6
AIGENLINE002
 62
     7
 10
167.32206300000001
 20
98.795013000000012
 30
0.0
 40
0.594361
 50
297.07094599999999
 51
354.80483600000002
  0
ARC
  5
79
  8
0
  6
AIGENLINE002
 62
     7
 10
144.04705899999999
 20
98.961263000000002
 30
0.0
 40
0.5992350000000001
 50
190.09176299999999
 51
260.35351600000001
  0
LINE
  5
7A
  8
0
  6
AIGENLINE002
 62
     7
 10
163.73400000000001
 20
96.344800000000006
 30
0.0
 11
167.59299999999999
 21
98.265799999999984
 31
0.0
  0
LINE
  5
7B
  8
0
  6
AIGENLINE002
 62
     7
 10
168.483
 20
105.80800000000001
 30
0.0
 11
167.91399999999999
 21
98.741200000000006
 31
0.0
  0
LINE
  5
7C
  8
0
  6
AIGENLINE002
 62
     7
 10
157.48400000000001
 20
96.344800000000006
 30
0.0
 11
143.947
 21
98.370500000000007
 31
0.0
  0
LINE
  5
7D
  8
0
  6
AIGENLINE002
 62
     7
 10
142.35400000000001
 20
105.852
 30
0.0
 11
143.45699999999999
 21
98.856300000000005
 31
0.0
  0
LINE
  5
7E
  8
0
  6
AIGENLINE002
 62
     7
 10
158.69200000000001
 20
95.136200000000017
 30
0.0
 11
162.52600000000001
 21
95.136200000000017
 31
0.0
  0
LINE
  5
7F
  8
0
  6
AIGENLINE002
 62
     7
 10
158.69200000000001
 20
95.136200000000017
 30
0.0
 11
158.69200000000001
 21
92.177599999999998
 31
0.0
  0
LINE
  5
80
  8
0
  6
AIGENLINE002
 62
     7
 10
158.69200000000001
 20
95.136200000000017
 30
0.0
 11
157.48400000000001
 21
96.344800000000006
 31
0.0
  0
LINE
  5
81
  8
0
  6
AIGENLINE002
 62
     7
 10
162.52600000000001
 20
95.136200000000017
 30
0.0
 11
162.52600000000001
 21
92.177599999999998
 31
0.0
  0
LINE
  5
82
  8
0
  6
AIGENLINE002
 62
     7
 10
162.52600000000001
 20
95.136200000000017
 30
0.0
 11
163.73400000000001
 21
96.344800000000006
 31
0.0
  0
LINE
  5
83
  8
0
  6
AIGENLINE002
 62
     7
 10
157.48400000000001
 20
96.344800000000006
 30
0.0
 11
163.73400000000001
 21
96.344800000000006
 31
0.0
  0
ARC
  5
84
  8
0
  6
AIGENLINE002
 62
     7
 10
75.789135000000002
 20
103.30253
 30
0.0
 40
1.041804
 50
0.00001
 51
89.999980000000008
  0
ARC
  5
85
  8
0
  6
AIGENLINE002
 62
     7
 10
75.789135000000002
 20
103.30253
 30
0.0
 40
1.041804
 50
90.0
 51
179.99996999999999
  0
ARC
  5
86
  8
0
  6
AIGENLINE002
 62
     7
 10
75.82844200000001
 20
103.342552
 30
0.0
 40
1.0818509999999999
 50
182.12011699999999
 51
267.91781900000001
  0
ARC
  5
87
  8
0
  6
AIGENLINE002
 62
     7
 10
75.749193999999974
 20
103.343187
 30
0.0
 40
1.082508
 50
272.11450200000002
 51
357.84760199999999
  0
ARC
  5
88
  8
0
 62
     7
 10
99.274998999999994
 20
205.32191599999999
 30
0.0
 40
1.515347
 50
2.1111110000000002
 51
87.882112000000006
  0
ARC
  5
89
  8
0
 62
     7
 10
99.331085000000016
 20
205.37782300000001
 30
0.0
 40
1.4584049999999991
 50
90.003383999999997
 51
180.0033939999999
  0
ARC
  5
8A
  8
0
 62
     7
 10
99.330999000000006
 20
205.377737
 30
0.0
 40
1.458318
 50
179.99996999999999
 51
270.00002000000001
  0
ARC
  5
8B
  8
0
 62
     7
 10
99.274388000000002
 20
205.434348
 30
0.0
 40
1.5159860000000001
 50
272.140084
 51
357.85992599999997
  0
ARC
  5
8C
  8
0
 62
     7
 10
166.391741
 20
94.340726999999987
 30
0.0
 40
1.2716750000000001
 50
276.01104600000002
 51
326.76740699999999
  0
LINE
  5
8D
  8
0
 62
     7
 10
167.45500000000001
 20
93.643799999999999
 30
0.0
 11
168.38900000000001
 21
95.094200000000001
 31
0.0
  0
LINE
  5
8E
  8
0
 62
     7
 10
163.697
 20
92.801799999999986
 30
0.0
 11
166.52500000000001
 21
93.075999999999993
 31
0.0
  0
ARC
  5
8F
  8
0
 62
     7
 10
164.54342299999999
 20
94.491072000000003
 30
0.0
 40
0.6033720000000001
 50
91.649604000000011
 51
170.31435099999999
  0
ARC
  5
90
  8
0
 62
     7
 10
156.67554100000001
 20
94.491479999999996
 30
0.0
 40
0.602944
 50
9.6532689999999999
 51
88.416574999999995
  0
ARC
  5
91
  8
0
 62
     7
 10
71.855809999999991
 20
94.491979999999998
 30
0.0
 40
0.602433
 50
9.6133249999999997
 51
88.456519000000014
  0
ARC
  5
92
  8
0
 62
     7
 10
79.723596000000001
 20
94.490670999999978
 30
0.0
 40
0.6037720000000001
 50
91.647890999999973
 51
170.28222500000001
  0
LINE
  5
93
  8
0
 62
     7
 10
157.60900000000001
 20
92.177599999999998
 30
0.0
 11
157.27000000000001
 21
94.592600000000004
 31
0.0
  0
LINE
  5
94
  8
0
 62
     7
 10
163.60900000000001
 20
92.177599999999998
 30
0.0
 11
163.94900000000001
 21
94.592600000000004
 31
0.0
  0
LINE
  5
95
  8
0
 62
     7
 10
157.60900000000001
 20
92.177599999999998
 30
0.0
 11
163.60900000000001
 21
92.177599999999998
 31
0.0
  0
LINE
  5
96
  8
0
 62
     7
 10
72.789100000000005
 20
92.594399999999993
 30
0.0
 11
72.449799999999996
 21
94.592600000000004
 31
0.0
  0
LINE
  5
97
  8
0
 62
     7
 10
140.19300000000001
 20
95.677800000000005
 30
0.0
 11
140.19300000000001
 21
105.761
 31
0.0
  0
ARC
  5
98
  8
0
 62
     7
 10
140.798112
 20
105.73897100000001
 30
0.0
 40
0.6060100000000001
 50
92.113807999999977
 51
177.919995
  0
LINE
  5
99
  8
0
 62
     7
 10
140.77600000000001
 20
106.345
 30
0.0
 11
179.35900000000001
 21
106.345
 31
0.0
  0
LINE
  5
9A
  8
0
 62
     7
 10
179.35900000000001
 20
106.345
 30
0.0
 11
179.35900000000001
 21
95.094200000000001
 31
0.0
  0
LINE
  5
9B
  8
0
 62
     7
 10
179.35900000000001
 20
95.094200000000001
 30
0.0
 11
140.77600000000001
 21
95.094200000000001
 31
0.0
  0
ARC
  5
9C
  8
0
 62
     7
 10
140.797798
 20
95.699477000000002
 30
0.0
 40
0.6056850000000001
 50
182.05137799999989
 51
267.91481900000002
  0
LINE
  5
9D
  8
0
 62
     7
 10
78.789100000000005
 20
92.594399999999993
 30
0.0
 11
79.128500000000003
 21
94.592600000000004
 31
0.0
  0
ARC
  5
9E
  8
0
 62
     7
 10
75.78913399999999
 20
192.044444
 30
0.0
 40
3.125065999999999
 50
0.00001
 51
89.999980000000008
  0
ARC
  5
9F
  8
0
 62
     7
 10
75.789135000000002
 20
192.044444
 30
0.0
 40
3.125065999999999
 50
90.0
 51
179.99996999999999
  0
ARC
  5
A0
  8
0
 62
     7
 10
75.78913399999999
 20
192.044444
 30
0.0
 40
3.1250650000000002
 50
179.99996999999999
 51
270.00002000000001
  0
ARC
  5
A1
  8
0
 62
     7
 10
75.78913399999999
 20
192.044445
 30
0.0
 40
3.125065999999999
 50
270.00002000000001
 51
359.99999000000003
  0
ARC
  5
A2
  8
0
 62
     7
 10
75.715560999999994
 20
191.97104999999999
 30
0.0
 40
1.9914449999999999
 50
2.112118999999999
 51
87.882720999999975
  0
ARC
  5
A3
  8
0
 62
     7
 10
75.862138999999999
 20
191.971619
 30
0.0
 40
1.9908549999999989
 50
92.101483000000002
 51
177.90363600000001
  0
ARC
  5
A4
  8
0
 62
     7
 10
75.862707999999998
 20
192.117839
 30
0.0
 40
1.9914449999999999
 50
182.112122
 51
267.88275800000002
  0
ARC
  5
A5
  8
0
 62
     7
 10
75.716130000000007
 20
192.11727099999999
 30
0.0
 40
1.990856
 50
272.10151999999999
 51
357.903639
  0
LINE
  5
A6
  8
0
 62
     7
 10
72.789100000000005
 20
92.594399999999993
 30
0.0
 11
78.789100000000005
 21
92.594399999999993
 31
0.0
  0
LINE
  5
A7
  8
0
 62
     7
 10
25.789100000000001
 20
95.677800000000005
 30
0.0
 11
25.789100000000001
 21
105.761
 31
0.0
  0
ARC
  5
A8
  8
0
 62
     7
 10
26.395116999999999
 20
105.738579
 30
0.0
 40
0.606416
 50
92.149441000000024
 51
177.88436200000001
  0
LINE
  5
A9
  8
0
 62
     7
 10
26.372399999999999
 20
106.345
 30
0.0
 11
125.206
 21
106.345
 31
0.0
  0
ARC
  5
AA
  8
0
 62
     7
 10
125.183858
 20
105.739285
 30
0.0
 40
0.6056850000000001
 50
2.0513750000000002
 51
87.914781999999974
  0
LINE
  5
AB
  8
0
 62
     7
 10
125.789
 20
105.761
 30
0.0
 11
125.789
 21
95.677800000000005
 31
0.0
  0
ARC
  5
AC
  8
0
 62
     7
 10
125.183525
 20
95.699810999999997
 30
0.0
 40
0.6060300000000001
 50
272.11558300000002
 51
357.91825999999998
  0
LINE
  5
AD
  8
0
 62
     7
 10
125.206
 20
95.094200000000001
 30
0.0
 11
26.372399999999999
 21
95.094200000000001
 31
0.0
  0
ARC
  5
AE
  8
0
 62
     7
 10
26.394411000000002
 20
95.699477000000002
 30
0.0
 40
0.6056850000000001
 50
182.05137799999989
 51
267.91481900000002
  0
ARC
  5
AF
  8
0
 62
     7
 10
52.247183999999997
 20
205.37782300000001
 30
0.0
 40
1.4584049999999991
 50
359.99662599999999
 51
89.996595999999997
  0
ARC
  5
B0
  8
0
 62
     7
 10
52.303893999999993
 20
205.321293
 30
0.0
 40
1.5159919999999989
 50
92.140516000000034
 51
177.866221
  0
ARC
  5
B1
  8
0
 62
     7
 10
52.303095999999996
 20
205.43356299999999
 30
0.0
 40
1.515172999999999
 50
182.11152799999999
 51
267.88850200000002
  0
ARC
  5
B2
  8
0
 62
     7
 10
52.24727
 20
205.37773799999999
 30
0.0
 40
1.458318
 50
270.00002000000001
 51
359.99999000000003
  0
LINE
  5
B3
  8
0
 62
     7
 10
27.872399999999999
 20
174.29499999999999
 30
0.0
 11
27.872399999999999
 21
199.37799999999999
 31
0.0
  0
ARC
  5
B4
  8
0
 62
     7
 10
28.478214999999999
 20
199.35532000000001
 30
0.0
 40
0.6062520000000001
 50
92.134481000000022
 51
177.882408
  0
LINE
  5
B5
  8
0
 62
     7
 10
28.4556
 20
199.96100000000001
 30
0.0
 11
123.123
 21
199.96100000000001
 31
0.0
  0
ARC
  5
B6
  8
0
 62
     7
 10
123.10060799999999
 20
199.355874
 30
0.0
 40
0.605679
 50
2.067156999999999
 51
87.915913999999987
  0
LINE
  5
B7
  8
0
 62
     7
 10
123.706
 20
199.37799999999999
 30
0.0
 11
123.706
 21
174.29499999999999
 31
0.0
  0
ARC
  5
B8
  8
0
 62
     7
 10
123.100272
 20
174.31651600000001
 30
0.0
 40
0.60602
 50
272.11471299999999
 51
357.919129
  0
LINE
  5
B9
  8
0
 62
     7
 10
123.123
 20
173.71100000000001
 30
0.0
 11
28.4556
 21
173.71100000000001
 31
0.0
  0
ARC
  5
BA
  8
0
 62
     7
 10
28.477672999999999
 20
174.316192
 30
0.0
 40
0.6056850000000001
 50
182.05137799999989
 51
267.91481900000002
  0
LINE
  5
BB
  8
0
 62
     7
 10
25.789100000000001
 20
172.2109999999999
 30
0.0
 11
25.789100000000001
 21
210.79400000000001
 31
0.0
  0
LINE
  5
BC
  8
0
 62
     7
 10
25.789100000000001
 20
210.79400000000001
 30
0.0
 11
125.789
 21
210.79400000000001
 31
0.0
  0
LINE
  5
BD
  8
0
 62
     7
 10
125.789
 20
210.79400000000001
 30
0.0
 11
125.789
 21
172.2109999999999
 31
0.0
  0
ARC
  5
BE
  8
0
 62
     7
 10
125.20589699999999
 20
172.210905
 30
0.0
 40
0.5832580000000001
 50
270.00002000000001
 51
359.99999000000003
  0
LINE
  5
BF
  8
0
 62
     7
 10
125.206
 20
171.62799999999999
 30
0.0
 11
26.372399999999999
 21
171.62799999999999
 31
0.0
  0
ARC
  5
C0
  8
0
 62
     7
 10
26.372373
 20
172.210904
 30
0.0
 40
0.5832580000000001
 50
179.99996999999999
 51
270.00002000000001
  0
LINE
  5
C1
  8
0
 62
     7
 10
68.759399999999985
 20
193.655
 30
0.0
 11
52.2879
 21
193.655
 31
0.0
  0
LINE
  5
C2
  8
0
 62
     7
 10
73.787199999999999
 20
198.72
 30
0.0
 11
74.755899999999997
 21
200.79499999999999
 31
0.0
  0
LINE
  5
C3
  8
0
 62
     7
 10
74.755899999999997
 20
200.79499999999999
 30
0.0
 11
72.8797
 21
199.482
 31
0.0
  0
LINE
  5
C4
  8
0
 62
     7
 10
72.8797
 20
199.482
 30
0.0
 11
73.787199999999999
 21
198.72
 31
0.0
  0
LINE
  5
C5
  8
0
 62
     7
 10
74.755899999999997
 20
200.79499999999999
 30
0.0
 11
68.759399999999985
 21
193.655
 31
0.0
  0
LINE
  5
C6
  8
0
 62
     7
 10
68.848600000000005
 20
185.10400000000001
 30
0.0
 11
62.269100000000002
 21
185.10400000000001
 31
0.0
  0
LINE
  5
C7
  8
0
 62
     7
 10
78.289599999999993
 20
195.38200000000001
 30
0.0
 11
77.144400000000005
 21
193.40000000000001
 31
0.0
  0
LINE
  5
C8
  8
0
 62
     7
 10
77.144400000000005
 20
193.40000000000001
 30
0.0
 11
79.127499999999984
 21
194.54400000000001
 31
0.0
  0
LINE
  5
C9
  8
0
 62
     7
 10
79.127499999999984
 20
194.54400000000001
 30
0.0
 11
78.289599999999993
 21
195.38200000000001
 31
0.0
  0
LINE
  5
CA
  8
0
 62
     7
 10
73.289000000000001
 20
188.70599999999999
 30
0.0
 11
74.433800000000005
 21
190.68899999999999
 31
0.0
  0
LINE
  5
CB
  8
0
 62
     7
 10
74.433800000000005
 20
190.68899999999999
 30
0.0
 11
72.450800000000001
 21
189.54400000000001
 31
0.0
  0
LINE
  5
CC
  8
0
 62
     7
 10
72.450800000000001
 20
189.54400000000001
 30
0.0
 11
73.289000000000001
 21
188.70599999999999
 31
0.0
  0
LINE
  5
CD
  8
0
 62
     7
 10
68.848600000000005
 20
185.10400000000001
 30
0.0
 11
79.9756
 21
196.23099999999999
 31
0.0
  0
LINE
  5
CE
  8
0
 62
     7
 10
28.0002
 20
151.36500000000001
 30
0.0
 11
25.789100000000001
 21
150.77199999999999
 31
0.0
  0
LINE
  5
CF
  8
0
 62
     7
 10
25.789100000000001
 20
150.77199999999999
 30
0.0
 11
28.0002
 21
150.179
 31
0.0
  0
LINE
  5
D0
  8
0
 62
     7
 10
28.0002
 20
150.179
 30
0.0
 11
28.0002
 21
151.36500000000001
 31
0.0
  0
LINE
  5
D1
  8
0
 62
     7
 10
123.577
 20
150.1929999999999
 30
0.0
 11
125.789
 21
150.78700000000001
 31
0.0
  0
LINE
  5
D2
  8
0
 62
     7
 10
125.789
 20
150.78700000000001
 30
0.0
 11
123.577
 21
151.37899999999999
 31
0.0
  0
LINE
  5
D3
  8
0
 62
     7
 10
123.577
 20
151.37899999999999
 30
0.0
 11
123.577
 21
150.1929999999999
 31
0.0
  0
LINE
  5
D4
  8
0
 62
     7
 10
25.7898
 20
150.78
 30
0.0
 11
125.788
 21
150.78
 31
0.0
  0
LINE
  5
D5
  8
0
 62
     7
 10
125.789
 20
170.78
 30
0.0
 11
125.789
 21
150.071
 31
0.0
  0
LINE
  5
D6
  8
0
 62
     7
 10
123.706
 20
172.864
 30
0.0
 11
123.706
 21
158.56100000000001
 31
0.0
  0
LINE
  5
D7
  8
0
 62
     7
 10
128.001
 20
159.85400000000001
 30
0.0
 11
125.789
 21
159.261
 31
0.0
  0
LINE
  5
D8
  8
0
 62
     7
 10
125.789
 20
159.261
 30
0.0
 11
128.001
 21
158.66800000000001
 31
0.0
  0
LINE
  5
D9
  8
0
 62
     7
 10
128.001
 20
158.66800000000001
 30
0.0
 11
128.001
 21
159.85400000000001
 31
0.0
  0
LINE
  5
DA
  8
0
 62
     7
 10
30.0838
 20
159.85400000000001
 30
0.0
 11
27.872399999999999
 21
159.261
 31
0.0
  0
LINE
  5
DB
  8
0
 62
     7
 10
27.872399999999999
 20
159.261
 30
0.0
 11
30.0838
 21
158.66800000000001
 31
0.0
  0
LINE
  5
DC
  8
0
 62
     7
 10
30.0838
 20
158.66800000000001
 30
0.0
 11
30.0838
 21
159.85400000000001
 31
0.0
  0
LINE
  5
DD
  8
0
 62
     7
 10
23.629000000000001
 20
158.66800000000001
 30
0.0
 11
25.840399999999999
 21
159.261
 31
0.0
  0
LINE
  5
DE
  8
0
 62
     7
 10
25.840399999999999
 20
159.261
 30
0.0
 11
23.629000000000001
 21
159.85400000000001
 31
0.0
  0
LINE
  5
DF
  8
0
 62
     7
 10
23.629000000000001
 20
159.85400000000001
 30
0.0
 11
23.629000000000001
 21
158.66800000000001
 31
0.0
  0
LINE
  5
E0
  8
0
 62
     7
 10
121.494
 20
158.66800000000001
 30
0.0
 11
123.706
 21
159.261
 31
0.0
  0
LINE
  5
E1
  8
0
 62
     7
 10
123.706
 20
159.261
 30
0.0
 11
121.494
 21
159.85400000000001
 31
0.0
  0
LINE
  5
E2
  8
0
 62
     7
 10
121.494
 20
159.85400000000001
 30
0.0
 11
121.494
 21
158.66800000000001
 31
0.0
  0
LINE
  5
E3
  8
0
 62
     7
 10
19.424600000000002
 20
159.261
 30
0.0
 11
132.691
 21
159.261
 31
0.0
  0
LINE
  5
E4
  8
0
 62
     7
 10
27.872399999999999
 20
172.864
 30
0.0
 11
27.872399999999999
 21
158.56100000000001
 31
0.0
  0
LINE
  5
E5
  8
0
 62
     7
 10
25.789100000000001
 20
170.78
 30
0.0
 11
25.789100000000001
 21
150.071
 31
0.0
  0
LINE
  5
E6
  8
0
 62
     7
 10
126.56399999999999
 20
171.62799999999999
 30
0.0
 11
145.25299999999999
 21
171.62799999999999
 31
0.0
  0
LINE
  5
E7
  8
0
 62
     7
 10
124.751
 20
173.71100000000001
 30
0.0
 11
137.238
 21
173.71100000000001
 31
0.0
  0
LINE
  5
E8
  8
0
 62
     7
 10
124.523
 20
199.96100000000001
 30
0.0
 11
137.238
 21
199.96100000000001
 31
0.0
  0
LINE
  5
E9
  8
0
 62
     7
 10
137.131
 20
169.416
 30
0.0
 11
136.53800000000001
 21
171.62799999999999
 31
0.0
  0
LINE
  5
EA
  8
0
 62
     7
 10
136.53800000000001
 20
171.62799999999999
 30
0.0
 11
135.946
 21
169.416
 31
0.0
  0
LINE
  5
EB
  8
0
 62
     7
 10
135.946
 20
169.416
 30
0.0
 11
137.131
 21
169.416
 31
0.0
  0
LINE
  5
EC
  8
0
 62
     7
 10
137.131
 20
197.75
 30
0.0
 11
136.53800000000001
 21
199.96100000000001
 31
0.0
  0
LINE
  5
ED
  8
0
 62
     7
 10
136.53800000000001
 20
199.96100000000001
 30
0.0
 11
135.946
 21
197.75
 31
0.0
  0
LINE
  5
EE
  8
0
 62
     7
 10
135.946
 20
197.75
 30
0.0
 11
137.131
 21
197.75
 31
0.0
  0
LINE
  5
EF
  8
0
 62
     7
 10
137.131
 20
208.583
 30
0.0
 11
136.53800000000001
 21
210.79400000000001
 31
0.0
  0
LINE
  5
F0
  8
0
 62
     7
 10
136.53800000000001
 20
210.79400000000001
 30
0.0
 11
135.946
 21
208.583
 31
0.0
  0
LINE
  5
F1
  8
0
 62
     7
 10
135.946
 20
208.583
 30
0.0
 11
137.131
 21
208.583
 31
0.0
  0
LINE
  5
F2
  8
0
 62
     7
 10
135.946
 20
202.173
 30
0.0
 11
136.53800000000001
 21
199.96100000000001
 31
0.0
  0
LINE
  5
F3
  8
0
 62
     7
 10
136.53800000000001
 20
199.96100000000001
 30
0.0
 11
137.131
 21
202.173
 31
0.0
  0
LINE
  5
F4
  8
0
 62
     7
 10
137.131
 20
202.173
 30
0.0
 11
135.946
 21
202.173
 31
0.0
  0
LINE
  5
F5
  8
0
 62
     7
 10
135.946
 20
175.923
 30
0.0
 11
136.53800000000001
 21
173.71100000000001
 31
0.0
  0
LINE
  5
F6
  8
0
 62
     7
 10
136.53800000000001
 20
173.71100000000001
 30
0.0
 11
137.131
 21
175.923
 31
0.0
  0
LINE
  5
F7
  8
0
 62
     7
 10
137.131
 20
175.923
 30
0.0
 11
135.946
 21
175.923
 31
0.0
  0
LINE
  5
F8
  8
0
 62
     7
 10
136.53800000000001
 20
210.79400000000001
 30
0.0
 11
136.53800000000001
 21
165.38399999999999
 31
0.0
  0
LINE
  5
F9
  8
0
 62
     7
 10
126.489
 20
210.79400000000001
 30
0.0
 11
145.25299999999999
 21
210.79400000000001
 31
0.0
  0
LINE
  5
FA
  8
0
 62
     7
 10
145.13800000000001
 20
208.584
 30
0.0
 11
144.54499999999999
 21
210.79499999999999
 31
0.0
  0
LINE
  5
FB
  8
0
 62
     7
 10
144.54499999999999
 20
210.79499999999999
 30
0.0
 11
143.953
 21
208.584
 31
0.0
  0
LINE
  5
FC
  8
0
 62
     7
 10
143.953
 20
208.584
 30
0.0
 11
145.13800000000001
 21
208.584
 31
0.0
  0
LINE
  5
FD
  8
0
 62
     7
 10
143.96700000000001
 20
173.83799999999999
 30
0.0
 11
144.56
 21
171.62700000000001
 31
0.0
  0
LINE
  5
FE
  8
0
 62
     7
 10
144.56
 20
171.62700000000001
 30
0.0
 11
145.15199999999999
 21
173.83799999999999
 31
0.0
  0
LINE
  5
FF
  8
0
 62
     7
 10
145.15199999999999
 20
173.83799999999999
 30
0.0
 11
143.96700000000001
 21
173.83799999999999
 31
0.0
  0
LINE
  5
100
  8
0
 62
     7
 10
144.553
 20
210.79400000000001
 30
0.0
 11
144.553
 21
171.62799999999999
 31
0.0
  0
LINE
  5
101
  8
0
 62
     7
 10
114.886
 20
213.006
 30
0.0
 11
115.479
 21
210.79400000000001
 31
0.0
  0
LINE
  5
102
  8
0
 62
     7
 10
115.479
 20
210.79400000000001
 30
0.0
 11
116.072
 21
213.006
 31
0.0
  0
LINE
  5
103
  8
0
 62
     7
 10
116.072
 20
213.006
 30
0.0
 11
114.886
 21
213.006
 31
0.0
  0
LINE
  5
104
  8
0
 62
     7
 10
116.072
 20
203.166
 30
0.0
 11
115.479
 21
205.37799999999999
 31
0.0
  0
LINE
  5
105
  8
0
 62
     7
 10
115.479
 20
205.37799999999999
 30
0.0
 11
114.886
 21
203.166
 31
0.0
  0
LINE
  5
106
  8
0
 62
     7
 10
114.886
 20
203.166
 30
0.0
 11
116.072
 21
203.166
 31
0.0
  0
LINE
  5
107
  8
0
 62
     7
 10
115.479
 20
201.619
 30
0.0
 11
115.479
 21
214.596
 31
0.0
  0
LINE
  5
108
  8
0
 62
     7
 10
105.06
 20
205.37799999999999
 30
0.0
 11
116.179
 21
205.37799999999999
 31
0.0
  0
LINE
  5
109
  8
0
 62
     7
 10
109.184
 20
215.23099999999999
 30
0.0
 11
115.764
 21
215.23099999999999
 31
0.0
  0
LINE
  5
10A
  8
0
 62
     7
 10
97.155100000000004
 20
202.364
 30
0.0
 11
98.299899999999994
 21
204.34700000000001
 31
0.0
  0
LINE
  5
10B
  8
0
 62
     7
 10
98.299899999999994
 20
204.34700000000001
 30
0.0
 11
96.316900000000004
 21
203.202
 31
0.0
  0
LINE
  5
10C
  8
0
 62
     7
 10
96.316900000000004
 20
203.202
 30
0.0
 11
97.155100000000004
 21
202.364
 31
0.0
  0
LINE
  5
10D
  8
0
 62
     7
 10
101.50700000000001
 20
208.392
 30
0.0
 11
100.36199999999999
 21
206.40899999999999
 31
0.0
  0
LINE
  5
10E
  8
0
 62
     7
 10
100.36199999999999
 20
206.40899999999999
 30
0.0
 11
102.345
 21
207.554
 31
0.0
  0
LINE
  5
10F
  8
0
 62
     7
 10
102.345
 20
207.554
 30
0.0
 11
101.50700000000001
 21
208.392
 31
0.0
  0
LINE
  5
110
  8
0
 62
     7
 10
109.184
 20
215.23099999999999
 30
0.0
 11
95.468699999999998
 21
201.51499999999999
 31
0.0
  0
LINE
  5
111
  8
0
 62
     7
 10
42.394199999999991
 20
215.23099999999999
 30
0.0
 11
35.814799999999998
 21
215.23099999999999
 31
0.0
  0
LINE
  5
112
  8
0
 62
     7
 10
54.423200000000001
 20
202.364
 30
0.0
 11
53.278399999999998
 21
204.34700000000001
 31
0.0
  0
LINE
  5
113
  8
0
 62
     7
 10
53.278399999999998
 20
204.34700000000001
 30
0.0
 11
55.261400000000002
 21
203.202
 31
0.0
  0
LINE
  5
114
  8
0
 62
     7
 10
55.261400000000002
 20
203.202
 30
0.0
 11
54.423200000000001
 21
202.364
 31
0.0
  0
LINE
  5
115
  8
0
 62
     7
 10
50.071300000000001
 20
208.392
 30
0.0
 11
51.216099999999997
 21
206.40899999999999
 31
0.0
  0
LINE
  5
116
  8
0
 62
     7
 10
51.216099999999997
 20
206.40899999999999
 30
0.0
 11
49.2331
 21
207.554
 31
0.0
  0
LINE
  5
117
  8
0
 62
     7
 10
49.2331
 20
207.554
 30
0.0
 11
50.071300000000001
 21
208.392
 31
0.0
  0
LINE
  5
118
  8
0
 62
     7
 10
42.394199999999991
 20
215.23099999999999
 30
0.0
 11
56.1096
 21
201.51599999999999
 31
0.0
  0
LINE
  5
119
  8
0
 62
     7
 10
154.39400000000001
 20
98.554500000000004
 30
0.0
 11
154.98699999999999
 21
96.342699999999994
 31
0.0
  0
LINE
  5
11A
  8
0
 62
     7
 10
154.98699999999999
 20
96.342699999999994
 30
0.0
 11
155.57900000000001
 21
98.554500000000004
 31
0.0
  0
LINE
  5
11B
  8
0
 62
     7
 10
155.57900000000001
 20
98.554500000000004
 30
0.0
 11
154.39400000000001
 21
98.554500000000004
 31
0.0
  0
LINE
  5
11C
  8
0
 62
     7
 10
155.565
 20
104.133
 30
0.0
 11
154.97200000000001
 21
106.345
 31
0.0
  0
LINE
  5
11D
  8
0
 62
     7
 10
154.97200000000001
 20
106.345
 30
0.0
 11
154.37899999999999
 21
104.133
 31
0.0
  0
LINE
  5
11E
  8
0
 62
     7
 10
154.37899999999999
 20
104.133
 30
0.0
 11
155.565
 21
104.133
 31
0.0
  0
LINE
  5
11F
  8
0
 62
     7
 10
154.9789999999999
 20
96.343400000000017
 30
0.0
 11
154.9789999999999
 21
106.343
 31
0.0
  0
LINE
  5
120
  8
0
 62
     7
 10
116.952
 20
97.732500000000002
 30
0.0
 11
116.952
 21
110.928
 31
0.0
  0
LINE
  5
121
  8
0
 62
     7
 10
109.818
 20
101.761
 30
0.0
 11
117.652
 21
101.761
 31
0.0
  0
LINE
  5
122
  8
0
 62
     7
 10
117.545
 20
99.549400000000006
 30
0.0
 11
116.952
 21
101.761
 31
0.0
  0
LINE
  5
123
  8
0
 62
     7
 10
116.952
 20
101.761
 30
0.0
 11
116.36
 21
99.549400000000006
 31
0.0
  0
LINE
  5
124
  8
0
 62
     7
 10
116.36
 20
99.549400000000006
 30
0.0
 11
117.545
 21
99.549400000000006
 31
0.0
  0
LINE
  5
125
  8
0
 62
     7
 10
116.36
 20
108.556
 30
0.0
 11
116.952
 21
106.345
 31
0.0
  0
LINE
  5
126
  8
0
 62
     7
 10
116.952
 20
106.345
 30
0.0
 11
117.545
 21
108.556
 31
0.0
  0
LINE
  5
127
  8
0
 62
     7
 10
117.545
 20
108.556
 30
0.0
 11
116.36
 21
108.556
 31
0.0
  0
LINE
  5
128
  8
0
 62
     7
 10
162.81999999999999
 20
85.0351
 30
0.0
 11
160.60900000000001
 21
84.442599999999985
 31
0.0
  0
LINE
  5
129
  8
0
 62
     7
 10
160.60900000000001
 20
84.442599999999985
 30
0.0
 11
162.81999999999999
 21
83.849999999999994
 31
0.0
  0
LINE
  5
12A
  8
0
 62
     7
 10
162.81999999999999
 20
83.849999999999994
 30
0.0
 11
162.81999999999999
 21
85.0351
 31
0.0
  0
LINE
  5
12B
  8
0
 62
     7
 10
177.149
 20
83.864500000000007
 30
0.0
 11
179.36000000000001
 21
84.456999999999994
 31
0.0
  0
LINE
  5
12C
  8
0
 62
     7
 10
179.36000000000001
 20
84.456999999999994
 30
0.0
 11
177.149
 21
85.049599999999998
 31
0.0
  0
LINE
  5
12D
  8
0
 62
     7
 10
177.149
 20
85.049599999999998
 30
0.0
 11
177.149
 21
83.864500000000007
 31
0.0
  0
LINE
  5
12E
  8
0
 62
     7
 10
160.60900000000001
 20
84.4495
 30
0.0
 11
179.35900000000001
 21
84.4495
 31
0.0
  0
LINE
  5
12F
  8
0
 62
     7
 10
179.35900000000001
 20
94.394800000000004
 30
0.0
 11
179.35900000000001
 21
83.749399999999994
 31
0.0
  0
LINE
  5
130
  8
0
 62
     7
 10
160.60900000000001
 20
89.399399999999986
 30
0.0
 11
160.60900000000001
 21
83.749399999999994
 31
0.0
  0
LINE
  5
131
  8
0
 62
     7
 10
131.43199999999999
 20
104.134
 30
0.0
 11
130.84
 21
106.346
 31
0.0
  0
LINE
  5
132
  8
0
 62
     7
 10
130.84
 20
106.346
 30
0.0
 11
130.24700000000001
 21
104.134
 31
0.0
  0
LINE
  5
133
  8
0
 62
     7
 10
130.24700000000001
 20
104.134
 30
0.0
 11
131.43199999999999
 21
104.134
 31
0.0
  0
LINE
  5
134
  8
0
 62
     7
 10
130.262
 20
97.305300000000017
 30
0.0
 11
130.85400000000001
 21
95.094200000000001
 31
0.0
  0
LINE
  5
135
  8
0
 62
     7
 10
130.85400000000001
 20
95.094200000000001
 30
0.0
 11
131.447
 21
97.305300000000017
 31
0.0
  0
LINE
  5
136
  8
0
 62
     7
 10
131.447
 20
97.305300000000017
 30
0.0
 11
130.262
 21
97.305300000000017
 31
0.0
  0
LINE
  5
137
  8
0
 62
     7
 10
130.84700000000001
 20
106.345
 30
0.0
 11
130.84700000000001
 21
95.094899999999996
 31
0.0
  0
LINE
  5
138
  8
0
 62
     7
 10
126.60599999999999
 20
95.094899999999996
 30
0.0
 11
131.547
 21
95.094899999999996
 31
0.0
  0
LINE
  5
139
  8
0
 62
     7
 10
137.46100000000001
 20
104.134
 30
0.0
 11
136.86799999999999
 21
106.346
 31
0.0
  0
LINE
  5
13A
  8
0
 62
     7
 10
136.86799999999999
 20
106.346
 30
0.0
 11
136.27500000000001
 21
104.134
 31
0.0
  0
LINE
  5
13B
  8
0
 62
     7
 10
136.27500000000001
 20
104.134
 30
0.0
 11
137.46100000000001
 21
104.134
 31
0.0
  0
LINE
  5
13C
  8
0
 62
     7
 10
136.28999999999999
 20
94.8048
 30
0.0
 11
136.88200000000001
 21
92.593699999999998
 31
0.0
  0
LINE
  5
13D
  8
0
 62
     7
 10
136.88200000000001
 20
92.593699999999998
 30
0.0
 11
137.47499999999999
 21
94.8048
 31
0.0
  0
LINE
  5
13E
  8
0
 62
     7
 10
137.47499999999999
 20
94.8048
 30
0.0
 11
136.28999999999999
 21
94.8048
 31
0.0
  0
LINE
  5
13F
  8
0
 62
     7
 10
136.875
 20
106.345
 30
0.0
 11
136.875
 21
92.594399999999993
 31
0.0
  0
LINE
  5
140
  8
0
 62
     7
 10
79.647999999999996
 20
92.594399999999993
 30
0.0
 11
137.57499999999999
 21
92.594399999999993
 31
0.0
  0
LINE
  5
141
  8
0
 62
     7
 10
126.60599999999999
 20
106.345
 30
0.0
 11
137.57499999999999
 21
106.345
 31
0.0
  0
LINE
  5
142
  8
0
 62
     7
 10
106.206
 20
104.371
 30
0.0
 11
106.206
 21
115.65600000000001
 31
0.0
  0
LINE
  5
143
  8
0
 62
     7
 10
87.455699999999979
 20
104.371
 30
0.0
 11
87.455699999999979
 21
115.65600000000001
 31
0.0
  0
LINE
  5
144
  8
0
 62
     7
 10
64.122600000000006
 20
104.371
 30
0.0
 11
64.122600000000006
 21
115.65600000000001
 31
0.0
  0
LINE
  5
145
  8
0
 62
     7
 10
89.667399999999986
 20
115.54900000000001
 30
0.0
 11
87.455699999999979
 21
114.956
 31
0.0
  0
LINE
  5
146
  8
0
 62
     7
 10
87.455699999999979
 20
114.956
 30
0.0
 11
89.667399999999986
 21
114.363
 31
0.0
  0
LINE
  5
147
  8
0
 62
     7
 10
89.667399999999986
 20
114.363
 30
0.0
 11
89.667399999999986
 21
115.54900000000001
 31
0.0
  0
LINE
  5
148
  8
0
 62
     7
 10
85.244600000000005
 20
114.363
 30
0.0
 11
87.455699999999979
 21
114.956
 31
0.0
  0
LINE
  5
149
  8
0
 62
     7
 10
87.455699999999979
 20
114.956
 30
0.0
 11
85.244600000000005
 21
115.54900000000001
 31
0.0
  0
LINE
  5
14A
  8
0
 62
     7
 10
85.244600000000005
 20
115.54900000000001
 30
0.0
 11
85.244600000000005
 21
114.363
 31
0.0
  0
LINE
  5
14B
  8
0
 62
     7
 10
66.334400000000002
 20
115.54900000000001
 30
0.0
 11
64.122600000000006
 21
114.956
 31
0.0
  0
LINE
  5
14C
  8
0
 62
     7
 10
64.122600000000006
 20
114.956
 30
0.0
 11
66.334400000000002
 21
114.363
 31
0.0
  0
LINE
  5
14D
  8
0
 62
     7
 10
66.334400000000002
 20
114.363
 30
0.0
 11
66.334400000000002
 21
115.54900000000001
 31
0.0
  0
LINE
  5
14E
  8
0
 62
     7
 10
47.583299999999987
 20
115.541
 30
0.0
 11
45.37149999999999
 21
114.94799999999999
 31
0.0
  0
LINE
  5
14F
  8
0
 62
     7
 10
45.37149999999999
 20
114.94799999999999
 30
0.0
 11
47.583299999999987
 21
114.35599999999999
 31
0.0
  0
LINE
  5
150
  8
0
 62
     7
 10
47.583299999999987
 20
114.35599999999999
 30
0.0
 11
47.583299999999987
 21
115.541
 31
0.0
  0
LINE
  5
151
  8
0
 62
     7
 10
61.911499999999997
 20
114.363
 30
0.0
 11
64.122600000000006
 21
114.956
 31
0.0
  0
LINE
  5
152
  8
0
 62
     7
 10
64.122600000000006
 20
114.956
 30
0.0
 11
61.911499999999997
 21
115.54900000000001
 31
0.0
  0
LINE
  5
153
  8
0
 62
     7
 10
61.911499999999997
 20
115.54900000000001
 30
0.0
 11
61.911499999999997
 21
114.363
 31
0.0
  0
LINE
  5
154
  8
0
 62
     7
 10
103.995
 20
114.37
 30
0.0
 11
106.206
 21
114.96299999999999
 31
0.0
  0
LINE
  5
155
  8
0
 62
     7
 10
106.206
 20
114.96299999999999
 30
0.0
 11
103.995
 21
115.55500000000001
 31
0.0
  0
LINE
  5
156
  8
0
 62
     7
 10
103.995
 20
115.55500000000001
 30
0.0
 11
103.995
 21
114.37
 31
0.0
  0
LINE
  5
157
  8
0
 62
     7
 10
45.37149999999999
 20
114.956
 30
0.0
 11
106.206
 21
114.956
 31
0.0
  0
LINE
  5
158
  8
0
 62
     7
 10
45.372500000000002
 20
104.371
 30
0.0
 11
45.372500000000002
 21
115.65600000000001
 31
0.0
  0
TEXT
  5
159
  8
_________2
 62
     7
 10
25.4451
 20
45.1004
 30
0.0
 40
3.9357000000000002
  1
※壁取付部には厚さ30mm以上の補強木を入れてください。
 41
0.5
  0
TEXT
  5
15A
  8
_________2
 62
     7
 10
25.4451
 20
40.180700000000002
 30
0.0
 40
3.9357000000000002
  1
※排水栓を閉めた状態で、水栓2台合わせて毎分10L以上吐水させないでください。
 41
0.5
  0
LINE
  5
15B
  8
_________2
 62
     7
 10
205.30099999999999
 20
127.411
 30
0.0
 11
183.55000000000001
 21
127.411
 31
0.0
  0
LINE
  5
15C
  8
_________2
 62
     7
 10
100.3
 20
-4.0910799999999998
 30
0.0
 11
100.3
 21
-21.071400000000001
 31
0.0
  0
LINE
  5
15D
  8
_________2
 62
     7
 10
100.3
 20
275.93099999999998
 30
0.0
 11
100.3
 21
258.911
 31
0.0
  0
LINE
  5
15E
  8
_________2
 62
     7
 10
17.049499999999998
 20
127.411
 30
0.0
 11
-4.70052
 21
127.411
 31
0.0
  0
LINE
  5
15F
  8
_________2
 62
     7
 10
76.741
 20
29.8047
 30
0.0
 11
74.554699999999997
 21
29.8047
 31
0.0
  0
LINE
  5
160
  8
_________2
 62
     7
 10
77.233699999999999
 20
29.8047
 30
0.0
 11
76.981499999999997
 21
29.8047
 31
0.0
  0
LINE
  5
161
  8
_________2
 62
     7
 10
77.726299999999995
 20
29.8047
 30
0.0
 11
80.651200000000003
 21
29.8047
 31
0.0
  0
LINE
  5
162
  8
_________2
 62
     7
 10
77.233699999999999
 20
29.8047
 30
0.0
 11
77.485500000000002
 21
29.8047
 31
0.0
  0
LINE
  5
163
  8
_________2
 62
     7
 10
70.837100000000007
 20
29.8047
 30
0.0
 11
68.650499999999994
 21
29.8047
 31
0.0
  0
LINE
  5
164
  8
_________2
 62
     7
 10
71.329400000000007
 20
29.8047
 30
0.0
 11
71.077600000000004
 21
29.8047
 31
0.0
  0
LINE
  5
165
  8
_________2
 62
     7
 10
71.329400000000007
 20
30.2974
 30
0.0
 11
71.329400000000007
 21
32.484400000000001
 31
0.0
  0
LINE
  5
166
  8
_________2
 62
     7
 10
71.329400000000007
 20
29.8047
 30
0.0
 11
71.329400000000007
 21
30.056899999999999
 31
0.0
  0
LINE
  5
167
  8
_________2
 62
     7
 10
71.822100000000006
 20
29.8047
 30
0.0
 11
74.009
 21
29.8047
 31
0.0
  0
LINE
  5
168
  8
_________2
 62
     7
 10
71.329400000000007
 20
29.8047
 30
0.0
 11
71.581599999999995
 21
29.8047
 31
0.0
  0
LINE
  5
169
  8
_________2
 62
     7
 10
71.329400000000007
 20
29.312799999999999
 30
0.0
 11
71.329400000000007
 21
27.125800000000002
 31
0.0
  0
LINE
  5
16A
  8
_________2
 62
     7
 10
71.329400000000007
 20
29.8047
 30
0.0
 11
71.329400000000007
 21
29.5532
 31
0.0
  0
LINE
  5
16B
  8
_________2
 62
     7
 10
75.040499999999994
 20
28.5852
 30
0.0
 11
80.218500000000006
 21
27.720400000000001
 31
0.0
  0
LINE
  5
16C
  8
_________2
 62
     7
 10
75.040499999999994
 20
31.0243
 30
0.0
 11
80.218500000000006
 21
31.889700000000001
 31
0.0
  0
LINE
  5
16D
  8
_________2
 62
     7
 10
80.218500000000006
 20
27.720400000000001
 30
0.0
 11
80.218500000000006
 21
31.889700000000001
 31
0.0
  0
LINE
  5
16E
  8
_________2
 62
     7
 10
75.040499999999994
 20
28.5852
 30
0.0
 11
75.040499999999994
 21
31.0243
 31
0.0
  0
ARC
  5
16F
  8
_________2
 62
     7
 10
71.28285600000001
 20
29.757811
 30
0.0
 40
1.2673589999999999
 50
2.122214
 51
87.893958999999995
  0
ARC
  5
170
  8
_________2
 62
     7
 10
71.375959999999992
 20
29.758213000000001
 30
0.0
 40
1.2669559999999991
 50
92.104701000000006
 51
177.89526900000001
  0
ARC
  5
171
  8
_________2
 62
     7
 10
71.376357999999996
 20
29.851671
 30
0.0
 40
1.2673680000000001
 50
182.12203600000001
 51
267.877993
  0
ARC
  5
172
  8
_________2
 62
     7
 10
71.282531999999989
 20
29.851998999999999
 30
0.0
 40
1.267695999999999
 50
272.12015300000002
 51
357.863674
  0
ARC
  5
173
  8
_________2
 62
     7
 10
71.329430000000002
 20
29.804742999999998
 30
0.0
 40
2.0849849999999992
 50
0.00001
 51
89.999980000000008
  0
ARC
  5
174
  8
_________2
 62
     7
 10
71.329603000000006
 20
29.804915000000001
 30
0.0
 40
2.084813
 50
90.004733999999999
 51
180.00474399999999
  0
ARC
  5
175
  8
_________2
 62
     7
 10
71.409106000000008
 20
29.884775999999999
 30
0.0
 40
2.1657950000000001
 50
182.11776599999999
 51
267.89173399999999
  0
ARC
  5
176
  8
_________2
 62
     7
 10
71.249459000000002
 20
29.885429999999999
 30
0.0
 40
2.1664590000000001
 50
272.11546800000002
 51
357.86560400000002
  0
TEXT
  5
177
  8
_________2
 62
     7
 10
104.605
 20
1.6794899999999999
 30
0.0
 40
3.0923400000000001
  1
図番
 41
0.5
  0
LINE
  5
178
  8
_________2
 62
     7
 10
103.55
 20
5.9087199999999989
 30
0.0
 11
183.55099999999999
 21
5.9087199999999989
 31
0.0
  0
TEXT
  5
179
  8
_________2
 62
     7
 10
104.605
 20
11.6793
 30
0.0
 40
3.0923400000000001
  1
品番
 41
0.5
  0
TEXT
  5
17A
  8
_________2
 62
     7
 10
104.605
 20
31.818100000000001
 30
0.0
 40
3.0923400000000001
  1
名称
 41
0.5
  0
TEXT
  5
17B
  8
_________2
 62
     7
 10
91.845058333333341
 20
26.821999999999999
 30
0.0
 40
3.6545800000000002
  1
mm
 41
0.5
 72
     1
 11
93.367800000000003
 21
26.821999999999999
 31
0.0
  0
TEXT
  5
17C
  8
_________2
 62
     7
 10
85.643199999999993
 20
31.818100000000001
 30
0.0
 40
3.0923400000000001
  1
単位
 41
0.5
  0
TEXT
  5
17D
  8
_________2
 62
     7
 10
85.643199999999993
 20
19.410799999999998
 30
0.0
 40
3.0923400000000001
  1
尺度
 41
0.5
  0
TEXT
  5
17E
  8
_________2
 62
     7
 10
89.939661999999998
 20
13.2179
 30
0.0
 40
3.6545800000000002
  1
1 ： 12
 41
0.5
 72
     1
 11
93.959699999999998
 21
13.2179
 31
0.0
  0
TEXT
  5
17F
  8
_________2
 62
     7
 10
132.5628375
 20
9.1078600000000005
 30
0.0
 40
3.9357000000000002
  1
DV235012N-00
 41
0.5
 72
     1
 11
143.55000000000001
 21
9.1078600000000005
 31
0.0
  0
TEXT
  5
180
  8
_________2
 62
     7
 10
135.18663749999999
 20
-0.8926299999999999
 30
0.0
 40
3.9357000000000002
  1
DV235012N
 41
0.5
 72
     1
 11
143.55000000000001
 21
-0.8926299999999999
 31
0.0
  0
TEXT
  5
181
  8
_________2
 62
     7
 10
24.5868
 20
0.707283
 30
0.0
 40
3.9357000000000002
  1
実容量：19.2L、重量：33.5kg、オーバーフロー付
 41
0.5
  0
TEXT
  5
182
  8
_________2
 62
     7
 10
109.179
 20
24.2257
 30
0.0
 40
3.9357000000000002
  1
ヴェーロエア　洗面器
 41
0.5
  0
TEXT
  5
183
  8
_________2
 62
     7
 10
39.364390666666672
 20
13.603
 30
0.0
 40
3.6545800000000002
  1
篠崎
 41
0.5
 72
     1
 11
41.313499999999998
 21
13.603
 31
0.0
  0
TEXT
  5
184
  8
_________2
 62
     7
 10
20.790090666666671
 20
13.603
 30
0.0
 40
3.6545800000000002
  1
飯塚
 41
0.5
 72
     1
 11
22.7392
 21
13.603
 31
0.0
  0
TEXT
  5
185
  8
_________2
 62
     7
 10
67.785399999999996
 20
13.2179
 30
0.0
 40
3.6545800000000002
  1
18.02.02
 41
0.5
  0
TEXT
  5
186
  8
_________2
 62
     7
 10
66.593100000000007
 20
19.410799999999998
 30
0.0
 40
3.0923400000000001
  1
日付
 41
0.5
  0
TEXT
  5
187
  8
_________2
 62
     7
 10
29.639399999999998
 20
19.410799999999998
 30
0.0
 40
3.0923400000000001
  1
検図
 41
0.5
  0
TEXT
  5
188
  8
_________2
 62
     7
 10
18.021100000000001
 20
5.21143
 30
0.0
 40
3.0923400000000001
  1
備考
 41
0.5
  0
TEXT
  5
189
  8
_________2
 62
     7
 10
18.021100000000001
 20
19.410799999999998
 30
0.0
 40
3.0923400000000001
  1
製図
 41
0.5
  0
TEXT
  5
18A
  8
_________2
 62
     7
 10
23.788465333333338
 20
27.936800000000002
 30
0.0
 40
4.4979399999999989
  1
セラトレーディング株式会社
 41
0.5
 72
     1
 11
41.180500000000002
 21
27.936800000000002
 31
0.0
  0
LINE
  5
18B
  8
_________2
 62
     7
 10
183.55099999999999
 20
-4.0910799999999998
 30
0.0
 11
17.049499999999998
 21
-4.0910799999999998
 31
0.0
  0
LINE
  5
18C
  8
_________2
 62
     7
 10
17.049499999999998
 20
-4.0910799999999998
 30
0.0
 11
17.049499999999998
 21
258.911
 31
0.0
  0
LINE
  5
18D
  8
_________2
 62
     7
 10
17.049499999999998
 20
258.911
 30
0.0
 11
183.55099999999999
 21
258.911
 31
0.0
  0
LINE
  5
18E
  8
_________2
 62
     7
 10
183.55099999999999
 20
258.911
 30
0.0
 11
183.55099999999999
 21
-4.0910799999999998
 31
0.0
  0
LINE
  5
18F
  8
_________2
 62
     7
 10
65.549599999999998
 20
9.4089600000000004
 30
0.0
 11
65.549599999999998
 21
35.908799999999999
 31
0.0
  0
LINE
  5
190
  8
_________2
 62
     7
 10
84.549700000000016
 20
9.4089600000000004
 30
0.0
 11
84.549700000000016
 21
35.908799999999999
 31
0.0
  0
LINE
  5
191
  8
_________2
 62
     7
 10
103.55
 20
-4.0910799999999998
 30
0.0
 11
103.55
 21
35.908799999999999
 31
0.0
  0
LINE
  5
192
  8
_________2
 62
     7
 10
28.549299999999999
 20
9.4089600000000004
 30
0.0
 11
28.549299999999999
 21
23.409199999999998
 31
0.0
  0
LINE
  5
193
  8
_________2
 62
     7
 10
17.049499999999998
 20
9.4089600000000004
 30
0.0
 11
103.55
 21
9.4089600000000004
 31
0.0
  0
LINE
  5
194
  8
_________2
 62
     7
 10
17.049499999999998
 20
23.409199999999998
 30
0.0
 11
103.55
 21
23.409199999999998
 31
0.0
  0
LINE
  5
195
  8
_________2
 62
     7
 10
103.55
 20
15.9085
 30
0.0
 11
183.55099999999999
 21
15.9085
 31
0.0
  0
LINE
  5
196
  8
_________2
 62
     7
 10
17.049499999999998
 20
35.908799999999999
 30
0.0
 11
183.55099999999999
 21
35.908799999999999
 31
0.0
  0
ENDSEC
  0
EOF
