  0
SECTION
  2
HEADER
  9
$ACADVER
  1
AC1009
  9
$INSBASE
 10
0.0
 20
0.0
 30
0.0
  9
$EXTMIN
 10
0.238058
 20
0.4482100000000001
 30
0.0
  9
$EXTMAX
 10
210.24000000000001
 20
297.44999999999999
 30
0.0
  9
$LIMMIN
 10
0.0
 20
0.0
  9
$LIMMAX
 10
12.0
 20
9.0
  9
$ORTHOMODE
 70
     0
  9
$REGENMODE
 70
     1
  9
$FILLMODE
 70
     1
  9
$QTEXTMODE
 70
     0
  9
$MIRRTEXT
 70
     1
  9
$DRAGMODE
 70
     2
  9
$LTSCALE
 40
1.0
  9
$OSMODE
 70
    37
  9
$ATTMODE
 70
     1
  9
$TEXTSIZE
 40
0.0
  9
$TRACEWID
 40
0.05
  9
$TEXTSTYLE
  7
STANDARD
  9
$CLAYER
  8
0
  9
$CELTYPE
  6
CONTINUOUS
  9
$CECOLOR
 62
   256
  9
$DIMSCALE
 40
1.0
  9
$DIMASZ
 40
0.18
  9
$DIMEXO
 40
0.0625
  9
$DIMDLI
 40
0.38
  9
$DIMRND
 40
0.0
  9
$DIMDLE
 40
0.0
  9
$DIMEXE
 40
0.18
  9
$DIMTP
 40
0.0
  9
$DIMTM
 40
0.0
  9
$DIMTXT
 40
0.18
  9
$DIMCEN
 40
0.09
  9
$DIMTSZ
 40
0.0
  9
$DIMTOL
 70
     0
  9
$DIMLIM
 70
     0
  9
$DIMTIH
 70
     1
  9
$DIMTOH
 70
     1
  9
$DIMSE1
 70
     0
  9
$DIMSE2
 70
     0
  9
$DIMTAD
 70
     0
  9
$DIMZIN
 70
     0
  9
$DIMBLK
  1

  9
$DIMASO
 70
     1
  9
$DIMSHO
 70
     1
  9
$DIMPOST
  1

  9
$DIMAPOST
  1

  9
$DIMALT
 70
     0
  9
$DIMALTD
 70
     2
  9
$DIMALTF
 40
25.399999999999999
  9
$DIMLFAC
 40
1.0
  9
$DIMTOFL
 70
     0
  9
$DIMTVP
 40
0.0
  9
$DIMTIX
 70
     0
  9
$DIMSOXD
 70
     0
  9
$DIMSAH
 70
     0
  9
$DIMBLK1
  1

  9
$DIMBLK2
  1

  9
$DIMSTYLE
  2
STANDARD
  9
$DIMCLRD
 70
     0
  9
$DIMCLRE
 70
     0
  9
$DIMCLRT
 70
     0
  9
$DIMTFAC
 40
1.0
  9
$DIMGAP
 40
0.09
  9
$LUNITS
 70
     2
  9
$LUPREC
 70
     4
  9
$SKETCHINC
 40
0.1
  9
$FILLETRAD
 40
0.0
  9
$AUNITS
 70
     0
  9
$AUPREC
 70
     0
  9
$MENU
  1
.
  9
$ELEVATION
 40
0.0
  9
$PELEVATION
 40
0.0
  9
$THICKNESS
 40
0.0
  9
$LIMCHECK
 70
     0
  9
$BLIPMODE
 70
     0
  9
$CHAMFERA
 40
0.0
  9
$CHAMFERB
 40
0.0
  9
$SKPOLY
 70
     0
  9
$TDCREATE
 40
2444972.375
  9
$TDUPDATE
 40
2457436.253584641
  9
$TDINDWG
 40
0.0000278009
  9
$TDUSRTIMER
 40
0.0000278009
  9
$USRTIMER
 70
     1
  9
$ANGBASE
 50
0.0
  9
$ANGDIR
 70
     0
  9
$PDMODE
 70
     0
  9
$PDSIZE
 40
0.0
  9
$PLINEWID
 40
0.0
  9
$COORDS
 70
     1
  9
$SPLFRAME
 70
     0
  9
$SPLINETYPE
 70
     6
  9
$SPLINESEGS
 70
     8
  9
$ATTDIA
 70
     1
  9
$ATTREQ
 70
     1
  9
$HANDLING
 70
     1
  9
$HANDSEED
  5
18E
  9
$SURFTAB1
 70
     6
  9
$SURFTAB2
 70
     6
  9
$SURFTYPE
 70
     6
  9
$SURFU
 70
     6
  9
$SURFV
 70
     6
  9
$UCSNAME
  2

  9
$UCSORG
 10
0.0
 20
0.0
 30
0.0
  9
$UCSXDIR
 10
1.0
 20
0.0
 30
0.0
  9
$UCSYDIR
 10
0.0
 20
1.0
 30
0.0
  9
$PUCSNAME
  2

  9
$PUCSORG
 10
0.0
 20
0.0
 30
0.0
  9
$PUCSXDIR
 10
1.0
 20
0.0
 30
0.0
  9
$PUCSYDIR
 10
0.0
 20
1.0
 30
0.0
  9
$USERI1
 70
     0
  9
$USERI2
 70
     0
  9
$USERI3
 70
     0
  9
$USERI4
 70
     0
  9
$USERI5
 70
     0
  9
$USERR1
 40
0.0
  9
$USERR2
 40
0.0
  9
$USERR3
 40
0.0
  9
$USERR4
 40
0.0
  9
$USERR5
 40
0.0
  9
$WORLDVIEW
 70
     1
  9
$SHADEDGE
 70
     3
  9
$SHADEDIF
 70
    70
  9
$TILEMODE
 70
     1
  9
$MAXACTVP
 70
    48
  9
$PLIMCHECK
 70
     0
  9
$PEXTMIN
 10
1.0000000000000000E+020
 20
1.0000000000000000E+020
 30
1.0000000000000000E+020
  9
$PEXTMAX
 10
-1.0000000000000000E+020
 20
-1.0000000000000000E+020
 30
-1.0000000000000000E+020
  9
$PLIMMIN
 10
0.0
 20
0.0
  9
$PLIMMAX
 10
12.0
 20
9.0
  9
$UNITMODE
 70
     0
  9
$VISRETAIN
 70
     1
  9
$PLINEGEN
 70
     0
  9
$PSLTSCALE
 70
     1
  0
ENDSEC
  0
SECTION
  2
TABLES
  0
TABLE
  2
VPORT
 70
     1
  0
VPORT
  2
*ACTIVE
 70
     0
 10
0.0
 20
0.0
 11
1.0
 21
1.0
 12
170.6464204695861
 22
148.72499999999991
 13
0.0
 23
0.0
 14
1.0
 24
1.0
 15
0.0
 25
0.0
 16
0.0
 26
0.0
 36
1.0
 17
0.0
 27
0.0
 37
0.0
 40
283.9561120433716
 41
2.1001926782273599
 42
50.0
 43
0.0
 44
0.0
 50
0.0
 51
0.0
 71
     0
 72
   100
 73
     1
 74
     1
 75
     0
 76
     0
 77
     0
 78
     0
  0
ENDTAB
  0
TABLE
  2
LTYPE
 70
     3
  0
LTYPE
  2
CONTINUOUS
 70
     0
  3
Solid line
 72
    65
 73
     0
 40
0.0
  0
LTYPE
  2
AIGENLINE001
 70
     0
  3
generate AI->DXF Converter
 72
    65
 73
     4
 40
5.8561449999999988
 49
3.5278
 49
-0.776115
 49
0.776115
 49
-0.776115
  0
LTYPE
  2
AIGENLINE002
 70
     0
  3
generate AI->DXF Converter
 72
    65
 73
     2
 40
1.5522299999999991
 49
0.776115
 49
-0.776115
  0
ENDTAB
  0
TABLE
  2
LAYER
 70
     2
  0
LAYER
  2
0
 70
     0
 62
     7
  6
CONTINUOUS
  0
LAYER
  2
_________2
 70
     0
 62
     7
  6
CONTINUOUS
  0
ENDTAB
  0
TABLE
  2
STYLE
 70
     1
  0
STYLE
  2
STANDARD
 70
     0
 40
0.0
 41
0.0
 50
0.0
 71
     0
 42
0.0
  3
TXT
  4
EXTFONT.SHX
  0
ENDTAB
  0
TABLE
  2
VIEW
 70
     0
  0
ENDTAB
  0
TABLE
  2
UCS
 70
     0
  0
ENDTAB
  0
TABLE
  2
APPID
 70
     3
  0
APPID
  2
ACAD
 70
     0
  0
APPID
  2
ACAD_NAV_VCDISPLAY
 70
     0
  0
APPID
  2
ACAD_MLEADERVER
 70
     0
  0
ENDTAB
  0
TABLE
  2
DIMSTYLE
 70
     1
  0
DIMSTYLE
  2
STANDARD
 70
     0
  3

  4

  5

  6

  7

 40
1.0
 41
0.18
 42
0.0625
 43
0.38
 44
0.18
 45
0.0
 46
0.0
 47
0.0
 48
0.0
140
0.18
141
0.09
142
0.0
143
25.399999999999999
144
1.0
145
0.0
146
1.0
147
0.09
 71
     0
 72
     0
 73
     1
 74
     1
 75
     0
 76
     0
 77
     0
 78
     0
170
     0
171
     2
172
     0
173
     0
174
     0
175
     0
176
     0
177
     0
178
     0
  0
ENDTAB
  0
ENDSEC
  0
SECTION
  2
BLOCKS
  0
BLOCK
  8
0
  2
$MODEL_SPACE
 70
     0
 10
0.0
 20
0.0
 30
0.0
  3
$MODEL_SPACE
  1

  0
ENDBLK
  5
1A
  8
0
  0
BLOCK
 67
     1
  8
0
  2
$PAPER_SPACE
 70
     0
 10
0.0
 20
0.0
 30
0.0
  3
$PAPER_SPACE
  1

  0
ENDBLK
  5
17
 67
     1
  8
0
  0
ENDSEC
  0
SECTION
  2
ENTITIES
  0
TEXT
  5
23
  8
0
 62
     7
 10
31.336300000000001
 20
163.93299999999999
 30
0.0
 40
3.0923400000000001
  1
10
 41
0.5
  0
TEXT
  5
24
  8
0
 62
     7
 10
143.441135
 20
163.93299999999999
 30
0.0
 40
3.0923400000000001
  1
10
 41
0.5
 72
     2
 11
145.245
 21
163.93299999999999
 31
0.0
  0
TEXT
  5
25
  8
0
 62
     7
 10
86.732882500000002
 20
157.03800000000001
 30
0.0
 40
3.0923400000000001
  1
410
 41
0.5
 72
     1
 11
88.407899999999998
 21
157.03800000000001
 31
0.0
  0
TEXT
  5
26
  8
0
 62
     7
 10
86.475187500000004
 20
163.93299999999999
 30
0.0
 40
3.0923400000000001
  1
390
 41
0.5
 72
     1
 11
88.407899999999998
 21
163.93299999999999
 31
0.0
  0
TEXT
  5
27
  8
0
 62
     7
 10
148.43700000000001
 20
123.8873725
 30
0.0
 40
3.0923400000000001
  1
30
 50
90.0
 41
0.5
 72
     1
 11
148.43700000000001
 21
125.047
 31
0.0
  0
TEXT
  5
28
  8
0
 62
     7
 10
148.43700000000001
 20
180.1503725
 30
0.0
 40
3.0923400000000001
  1
80
 50
90.0
 41
0.5
 72
     1
 11
148.43700000000001
 21
181.31
 31
0.0
  0
TEXT
  5
29
  8
0
 62
     7
 10
31.3476
 20
126.6310675
 30
0.0
 40
3.0923400000000001
  1
10
 50
90.0
 41
0.5
 72
     1
 11
31.3476
 21
127.533
 31
0.0
  0
TEXT
  5
2A
  8
0
 62
     7
 10
86.346339999999998
 20
205.80600000000001
 30
0.0
 40
3.0923400000000001
  1
373
 41
0.5
 72
     1
 11
88.407899999999998
 21
205.80600000000001
 31
0.0
  0
LINE
  5
2B
  8
0
 62
     7
 10
40.526299999999992
 20
195.81
 30
0.0
 11
43.026400000000002
 21
195.81
 31
0.0
  0
LINE
  5
2C
  8
0
 62
     7
 10
40.526299999999992
 20
195.31100000000001
 30
0.0
 11
43.026400000000002
 21
195.31100000000001
 31
0.0
  0
LINE
  5
2D
  8
0
 62
     7
 10
40.526299999999992
 20
196.56
 30
0.0
 11
43.026400000000002
 21
196.56
 31
0.0
  0
LINE
  5
2E
  8
0
 62
     7
 10
137.447
 20
155.74600000000001
 30
0.0
 11
139.65799999999999
 21
156.33799999999999
 31
0.0
  0
LINE
  5
2F
  8
0
 62
     7
 10
139.65799999999999
 20
156.33799999999999
 30
0.0
 11
137.447
 21
156.93100000000001
 31
0.0
  0
LINE
  5
30
  8
0
 62
     7
 10
137.447
 20
156.93100000000001
 30
0.0
 11
137.447
 21
155.74600000000001
 31
0.0
  0
LINE
  5
31
  8
0
 62
     7
 10
39.367899999999999
 20
156.93000000000001
 30
0.0
 11
37.157499999999999
 21
156.33799999999999
 31
0.0
  0
LINE
  5
32
  8
0
 62
     7
 10
37.157499999999999
 20
156.33799999999999
 30
0.0
 11
39.367899999999999
 21
155.745
 31
0.0
  0
LINE
  5
33
  8
0
 62
     7
 10
39.367899999999999
 20
155.745
 30
0.0
 11
39.367899999999999
 21
156.93000000000001
 31
0.0
  0
LINE
  5
34
  8
0
 62
     7
 10
139.65799999999999
 20
156.33799999999999
 30
0.0
 11
37.157499999999999
 21
156.33799999999999
 31
0.0
  0
LINE
  5
35
  8
0
 62
     7
 10
34.94680000000001
 20
162.64099999999999
 30
0.0
 11
37.157499999999999
 21
163.233
 31
0.0
  0
LINE
  5
36
  8
0
 62
     7
 10
37.157499999999999
 20
163.233
 30
0.0
 11
34.94680000000001
 21
163.82499999999999
 31
0.0
  0
LINE
  5
37
  8
0
 62
     7
 10
34.94680000000001
 20
163.82499999999999
 30
0.0
 11
34.94680000000001
 21
162.64099999999999
 31
0.0
  0
LINE
  5
38
  8
0
 62
     7
 10
134.94800000000001
 20
162.64099999999999
 30
0.0
 11
137.15799999999999
 21
163.233
 31
0.0
  0
LINE
  5
39
  8
0
 62
     7
 10
137.15799999999999
 20
163.233
 30
0.0
 11
134.94800000000001
 21
163.82499999999999
 31
0.0
  0
LINE
  5
3A
  8
0
 62
     7
 10
134.94800000000001
 20
163.82499999999999
 30
0.0
 11
134.94800000000001
 21
162.64099999999999
 31
0.0
  0
LINE
  5
3B
  8
0
 62
     7
 10
141.869
 20
163.82499999999999
 30
0.0
 11
139.65799999999999
 21
163.233
 31
0.0
  0
LINE
  5
3C
  8
0
 62
     7
 10
139.65799999999999
 20
163.233
 30
0.0
 11
141.869
 21
162.64099999999999
 31
0.0
  0
LINE
  5
3D
  8
0
 62
     7
 10
141.869
 20
162.64099999999999
 30
0.0
 11
141.869
 21
163.82499999999999
 31
0.0
  0
LINE
  5
3E
  8
0
 62
     7
 10
41.868000000000002
 20
163.82499999999999
 30
0.0
 11
39.657600000000002
 21
163.233
 31
0.0
  0
LINE
  5
3F
  8
0
 62
     7
 10
39.657600000000002
 20
163.233
 30
0.0
 11
41.868000000000002
 21
162.64099999999999
 31
0.0
  0
LINE
  5
40
  8
0
 62
     7
 10
41.868000000000002
 20
162.64099999999999
 30
0.0
 11
41.868000000000002
 21
163.82499999999999
 31
0.0
  0
LINE
  5
41
  8
0
 62
     7
 10
145.245
 20
163.233
 30
0.0
 11
31.336300000000001
 21
163.233
 31
0.0
  0
LINE
  5
42
  8
0
 62
     7
 10
39.657600000000002
 20
162.53299999999999
 30
0.0
 11
39.657600000000002
 21
170.61000000000001
 31
0.0
  0
LINE
  5
43
  8
0
 62
     7
 10
37.157499999999999
 20
155.63800000000001
 30
0.0
 11
37.157499999999999
 21
170.61000000000001
 31
0.0
  0
LINE
  5
44
  8
0
 62
     7
 10
137.15799999999999
 20
162.53299999999999
 30
0.0
 11
137.15799999999999
 21
170.61000000000001
 31
0.0
  0
LINE
  5
45
  8
0
 62
     7
 10
139.65799999999999
 20
155.63800000000001
 30
0.0
 11
139.65799999999999
 21
170.61000000000001
 31
0.0
  0
LINE
  5
46
  8
0
 62
     7
 10
148.54400000000001
 20
123.508
 30
0.0
 11
149.137
 21
121.297
 31
0.0
  0
LINE
  5
47
  8
0
 62
     7
 10
149.137
 20
121.297
 30
0.0
 11
149.72900000000001
 21
123.508
 31
0.0
  0
LINE
  5
48
  8
0
 62
     7
 10
149.72900000000001
 20
123.508
 30
0.0
 11
148.54400000000001
 21
123.508
 31
0.0
  0
LINE
  5
49
  8
0
 62
     7
 10
149.72900000000001
 20
126.587
 30
0.0
 11
149.137
 21
128.798
 31
0.0
  0
LINE
  5
4A
  8
0
 62
     7
 10
149.137
 20
128.798
 30
0.0
 11
148.54400000000001
 21
126.587
 31
0.0
  0
LINE
  5
4B
  8
0
 62
     7
 10
148.54400000000001
 20
126.587
 30
0.0
 11
149.72900000000001
 21
126.587
 31
0.0
  0
LINE
  5
4C
  8
0
 62
     7
 10
149.137
 20
121.297
 30
0.0
 11
149.137
 21
128.797
 31
0.0
  0
LINE
  5
4D
  8
0
 62
     7
 10
149.83699999999999
 20
128.797
 30
0.0
 11
140.358
 21
128.797
 31
0.0
  0
LINE
  5
4E
  8
0
 62
     7
 10
149.83699999999999
 20
121.297
 30
0.0
 11
140.358
 21
121.297
 31
0.0
  0
LINE
  5
4F
  8
0
 62
     7
 10
148.54400000000001
 20
173.52099999999999
 30
0.0
 11
149.137
 21
171.31100000000001
 31
0.0
  0
LINE
  5
50
  8
0
 62
     7
 10
149.137
 20
171.31100000000001
 30
0.0
 11
149.72900000000001
 21
173.52099999999999
 31
0.0
  0
LINE
  5
51
  8
0
 62
     7
 10
149.72900000000001
 20
173.52099999999999
 30
0.0
 11
148.54400000000001
 21
173.52099999999999
 31
0.0
  0
LINE
  5
52
  8
0
 62
     7
 10
149.72900000000001
 20
189.09999999999999
 30
0.0
 11
149.137
 21
191.31
 31
0.0
  0
LINE
  5
53
  8
0
 62
     7
 10
149.137
 20
191.31
 30
0.0
 11
148.54400000000001
 21
189.09999999999999
 31
0.0
  0
LINE
  5
54
  8
0
 62
     7
 10
148.54400000000001
 20
189.09999999999999
 30
0.0
 11
149.72900000000001
 21
189.09999999999999
 31
0.0
  0
LINE
  5
55
  8
0
 62
     7
 10
149.137
 20
171.31
 30
0.0
 11
149.137
 21
191.31
 31
0.0
  0
LINE
  5
56
  8
0
 62
     7
 10
149.83699999999999
 20
191.31
 30
0.0
 11
140.358
 21
191.31
 31
0.0
  0
LINE
  5
57
  8
0
 62
     7
 10
149.83699999999999
 20
171.31
 30
0.0
 11
140.358
 21
171.31
 31
0.0
  0
LINE
  5
58
  8
0
 62
     7
 10
32.639600000000002
 20
124.087
 30
0.0
 11
32.047699999999999
 21
126.297
 31
0.0
  0
LINE
  5
59
  8
0
 62
     7
 10
32.047699999999999
 20
126.297
 30
0.0
 11
31.455100000000002
 21
124.087
 31
0.0
  0
LINE
  5
5A
  8
0
 62
     7
 10
31.455100000000002
 20
124.087
 30
0.0
 11
32.639600000000002
 21
124.087
 31
0.0
  0
LINE
  5
5B
  8
0
 62
     7
 10
31.455500000000001
 20
131.00800000000001
 30
0.0
 11
32.047699999999999
 21
128.797
 31
0.0
  0
LINE
  5
5C
  8
0
 62
     7
 10
32.047699999999999
 20
128.797
 30
0.0
 11
32.6402
 21
131.00800000000001
 31
0.0
  0
LINE
  5
5D
  8
0
 62
     7
 10
32.6402
 20
131.00800000000001
 30
0.0
 11
31.455500000000001
 21
131.00800000000001
 31
0.0
  0
LINE
  5
5E
  8
0
 62
     7
 10
32.047699999999999
 20
122.998
 30
0.0
 11
32.047699999999999
 21
132.012
 31
0.0
  0
LINE
  5
5F
  8
0
 62
     7
 10
31.3476
 20
128.797
 30
0.0
 11
36.4574
 21
128.797
 31
0.0
  0
LINE
  5
60
  8
0
 62
     7
 10
31.3476
 20
126.297
 30
0.0
 11
39.3705
 21
126.298
 31
0.0
  0
LINE
  5
61
  8
0
 62
     7
 10
132.822
 20
204.51400000000001
 30
0.0
 11
135.03299999999999
 21
205.10599999999999
 31
0.0
  0
LINE
  5
62
  8
0
 62
     7
 10
135.03299999999999
 20
205.10599999999999
 30
0.0
 11
132.822
 21
205.69900000000001
 31
0.0
  0
LINE
  5
63
  8
0
 62
     7
 10
132.822
 20
205.69900000000001
 30
0.0
 11
132.822
 21
204.51400000000001
 31
0.0
  0
LINE
  5
64
  8
0
 62
     7
 10
43.993099999999991
 20
205.69800000000001
 30
0.0
 11
41.782699999999998
 21
205.10599999999999
 31
0.0
  0
LINE
  5
65
  8
0
 62
     7
 10
41.782699999999998
 20
205.10599999999999
 30
0.0
 11
43.993099999999991
 21
204.51400000000001
 31
0.0
  0
LINE
  5
66
  8
0
 62
     7
 10
43.993099999999991
 20
204.51400000000001
 30
0.0
 11
43.993099999999991
 21
205.69800000000001
 31
0.0
  0
LINE
  5
67
  8
0
 62
     7
 10
135.03299999999999
 20
205.10599999999999
 30
0.0
 11
41.782699999999998
 21
205.10599999999999
 31
0.0
  0
LINE
  5
68
  8
0
 62
     7
 10
41.782699999999998
 20
205.80600000000001
 30
0.0
 11
41.782699999999998
 21
197.935
 31
0.0
  0
LINE
  5
69
  8
0
 62
     7
 10
135.03299999999999
 20
205.80600000000001
 30
0.0
 11
135.03299999999999
 21
197.935
 31
0.0
  0
LINE
  5
6A
  8
0
  6
AIGENLINE001
 62
     7
 10
41.782699999999998
 20
197.23500000000001
 30
0.0
 11
41.782699999999998
 21
190.41399999999999
 31
0.0
  0
LINE
  5
6B
  8
0
 62
     7
 10
40.526299999999992
 20
195.31100000000001
 30
0.0
 11
40.526299999999992
 21
196.56
 31
0.0
  0
LINE
  5
6C
  8
0
 62
     7
 10
43.026400000000002
 20
195.31100000000001
 30
0.0
 11
43.026400000000002
 21
196.56
 31
0.0
  0
LINE
  5
6D
  8
0
 62
     7
 10
41.282499999999999
 20
191.31
 30
0.0
 11
41.282499999999999
 21
195.31100000000001
 31
0.0
  0
LINE
  5
6E
  8
0
 62
     7
 10
41.032400000000003
 20
191.31
 30
0.0
 11
41.032400000000003
 21
195.31100000000001
 31
0.0
  0
LINE
  5
6F
  8
0
 62
     7
 10
42.269899999999993
 20
191.31
 30
0.0
 11
42.269899999999993
 21
195.31100000000001
 31
0.0
  0
LINE
  5
70
  8
0
 62
     7
 10
42.520000000000003
 20
191.31
 30
0.0
 11
42.520000000000003
 21
195.31100000000001
 31
0.0
  0
LINE
  5
71
  8
0
 62
     7
 10
182.06599999999989
 20
127.554
 30
0.0
 11
182.06599999999989
 21
125.054
 31
0.0
  0
LINE
  5
72
  8
0
 62
     7
 10
181.566
 20
127.554
 30
0.0
 11
181.566
 21
125.054
 31
0.0
  0
LINE
  5
73
  8
0
 62
     7
 10
182.81700000000001
 20
127.554
 30
0.0
 11
182.81700000000001
 21
125.054
 31
0.0
  0
LINE
  5
74
  8
0
  6
AIGENLINE001
 62
     7
 10
183.4909999999999
 20
126.298
 30
0.0
 11
176.66999999999999
 21
126.298
 31
0.0
  0
LINE
  5
75
  8
0
 62
     7
 10
181.566
 20
127.554
 30
0.0
 11
182.81700000000001
 21
127.554
 31
0.0
  0
LINE
  5
76
  8
0
 62
     7
 10
181.566
 20
125.054
 30
0.0
 11
182.81700000000001
 21
125.054
 31
0.0
  0
LINE
  5
77
  8
0
 62
     7
 10
177.566
 20
126.797
 30
0.0
 11
181.566
 21
126.797
 31
0.0
  0
LINE
  5
78
  8
0
 62
     7
 10
177.566
 20
127.047
 30
0.0
 11
181.566
 21
127.047
 31
0.0
  0
LINE
  5
79
  8
0
 62
     7
 10
177.566
 20
125.81
 30
0.0
 11
181.566
 21
125.81
 31
0.0
  0
LINE
  5
7A
  8
0
 62
     7
 10
177.566
 20
125.56
 30
0.0
 11
181.566
 21
125.56
 31
0.0
  0
LINE
  5
7B
  8
0
 62
     7
 10
133.77699999999999
 20
195.81
 30
0.0
 11
136.27699999999999
 21
195.81
 31
0.0
  0
LINE
  5
7C
  8
0
 62
     7
 10
133.77699999999999
 20
195.31100000000001
 30
0.0
 11
136.27699999999999
 21
195.31100000000001
 31
0.0
  0
LINE
  5
7D
  8
0
 62
     7
 10
133.77699999999999
 20
196.56
 30
0.0
 11
136.27699999999999
 21
196.56
 31
0.0
  0
LINE
  5
7E
  8
0
  6
AIGENLINE001
 62
     7
 10
40.070500000000003
 20
126.298
 30
0.0
 11
43.430199999999999
 21
126.298
 31
0.0
  0
LINE
  5
7F
  8
0
  6
AIGENLINE001
 62
     7
 10
41.782699999999998
 20
128.06700000000001
 30
0.0
 11
41.782699999999998
 21
124.532
 31
0.0
  0
ARC
  5
80
  8
0
  6
AIGENLINE002
 62
     7
 10
41.754134000000001
 20
126.32624800000001
 30
0.0
 40
0.7794640000000001
 50
272.10226799999998
 51
357.89774199999999
  0
ARC
  5
81
  8
0
  6
AIGENLINE002
 62
     7
 10
41.81174
 20
126.325952
 30
0.0
 40
0.7791850000000001
 50
182.08129500000001
 51
267.86609700000002
  0
ARC
  5
82
  8
0
  6
AIGENLINE002
 62
     7
 10
41.811690999999989
 20
126.26869000000001
 30
0.0
 40
0.7791610000000001
 50
92.130403000000015
 51
177.86956699999999
  0
ARC
  5
83
  8
0
  6
AIGENLINE002
 62
     7
 10
41.753799999999991
 20
126.268012
 30
0.0
 40
0.779836
 50
2.1783790000000001
 51
87.874249000000006
  0
LINE
  5
84
  8
0
  6
AIGENLINE001
 62
     7
 10
133.321
 20
126.298
 30
0.0
 11
136.68100000000001
 21
126.298
 31
0.0
  0
LINE
  5
85
  8
0
  6
AIGENLINE001
 62
     7
 10
135.03299999999999
 20
197.23500000000001
 30
0.0
 11
135.03299999999999
 21
190.41399999999999
 31
0.0
  0
LINE
  5
86
  8
0
  6
AIGENLINE001
 62
     7
 10
135.03299999999999
 20
128.06700000000001
 30
0.0
 11
135.03299999999999
 21
124.532
 31
0.0
  0
ARC
  5
87
  8
0
  6
AIGENLINE002
 62
     7
 10
135.004109
 20
126.32664
 30
0.0
 40
0.779871
 50
272.12999200000002
 51
357.87001800000002
  0
ARC
  5
88
  8
0
  6
AIGENLINE002
 62
     7
 10
135.062107
 20
126.325952
 30
0.0
 40
0.7791850000000001
 50
182.08129500000001
 51
267.86609700000002
  0
ARC
  5
89
  8
0
  6
AIGENLINE002
 62
     7
 10
135.06205800000001
 20
126.26869000000001
 30
0.0
 40
0.7791610000000001
 50
92.130403000000015
 51
177.86956699999999
  0
ARC
  5
8A
  8
0
  6
AIGENLINE002
 62
     7
 10
135.00416799999999
 20
126.268012
 30
0.0
 40
0.779836
 50
2.1783790000000001
 51
87.874249000000006
  0
LINE
  5
8B
  8
0
 62
     7
 10
39.657600000000002
 20
171.31
 30
0.0
 11
39.657600000000002
 21
191.31
 31
0.0
  0
LINE
  5
8C
  8
0
 62
     7
 10
133.77699999999999
 20
195.31100000000001
 30
0.0
 11
133.77699999999999
 21
196.56
 31
0.0
  0
LINE
  5
8D
  8
0
 62
     7
 10
136.27699999999999
 20
195.31100000000001
 30
0.0
 11
136.27699999999999
 21
196.56
 31
0.0
  0
LINE
  5
8E
  8
0
 62
     7
 10
134.53399999999999
 20
191.31
 30
0.0
 11
134.53399999999999
 21
195.31100000000001
 31
0.0
  0
LINE
  5
8F
  8
0
 62
     7
 10
134.28299999999999
 20
191.31
 30
0.0
 11
134.28299999999999
 21
195.31100000000001
 31
0.0
  0
LINE
  5
90
  8
0
 62
     7
 10
135.52099999999999
 20
191.31
 30
0.0
 11
135.52099999999999
 21
195.31100000000001
 31
0.0
  0
LINE
  5
91
  8
0
 62
     7
 10
135.77099999999999
 20
191.31
 30
0.0
 11
135.77099999999999
 21
195.31100000000001
 31
0.0
  0
LINE
  5
92
  8
0
 62
     7
 10
137.15799999999999
 20
171.31
 30
0.0
 11
137.15799999999999
 21
191.31
 31
0.0
  0
LINE
  5
93
  8
0
 62
     7
 10
39.657600000000002
 20
188.81099999999989
 30
0.0
 11
137.15799999999999
 21
188.81099999999989
 31
0.0
  0
LINE
  5
94
  8
0
 62
     7
 10
39.657600000000002
 20
173.81
 30
0.0
 11
137.15799999999999
 21
173.81
 31
0.0
  0
LINE
  5
95
  8
0
 62
     7
 10
177.566
 20
121.297
 30
0.0
 11
157.566
 21
121.297
 31
0.0
  0
LINE
  5
96
  8
0
 62
     7
 10
157.566
 20
121.297
 30
0.0
 11
157.566
 21
128.797
 31
0.0
  0
LINE
  5
97
  8
0
 62
     7
 10
157.566
 20
128.797
 30
0.0
 11
177.566
 21
128.797
 31
0.0
  0
LINE
  5
98
  8
0
 62
     7
 10
177.566
 20
128.797
 30
0.0
 11
177.566
 21
121.297
 31
0.0
  0
LINE
  5
99
  8
0
 62
     7
 10
139.65799999999999
 20
121.297
 30
0.0
 11
37.157499999999999
 21
121.297
 31
0.0
  0
LINE
  5
9A
  8
0
 62
     7
 10
37.157499999999999
 20
121.297
 30
0.0
 11
37.157499999999999
 21
128.797
 31
0.0
  0
LINE
  5
9B
  8
0
 62
     7
 10
37.157499999999999
 20
128.797
 30
0.0
 11
139.65799999999999
 21
128.797
 31
0.0
  0
LINE
  5
9C
  8
0
 62
     7
 10
139.65799999999999
 20
128.797
 30
0.0
 11
139.65799999999999
 21
121.297
 31
0.0
  0
LINE
  5
9D
  8
0
 62
     7
 10
139.65799999999999
 20
171.31
 30
0.0
 11
37.157499999999999
 21
171.31
 31
0.0
  0
LINE
  5
9E
  8
0
 62
     7
 10
37.157499999999999
 20
171.31
 30
0.0
 11
37.157499999999999
 21
191.31
 31
0.0
  0
LINE
  5
9F
  8
0
 62
     7
 10
37.157499999999999
 20
191.31
 30
0.0
 11
139.65799999999999
 21
191.31
 31
0.0
  0
LINE
  5
A0
  8
0
 62
     7
 10
139.65799999999999
 20
191.31
 30
0.0
 11
139.65799999999999
 21
171.31
 31
0.0
  0
TEXT
  5
A1
  8
_________2
 62
     7
 10
29.525700000000001
 20
22.226900000000001
 30
0.0
 40
3.9357000000000002
  1
キャビネットDV611401-22専用品
 41
0.5
  0
LINE
  5
A2
  8
_________2
 62
     7
 10
210.24000000000001
 20
148.93100000000001
 30
0.0
 11
188.49000000000001
 21
148.93100000000001
 31
0.0
  0
LINE
  5
A3
  8
_________2
 62
     7
 10
105.239
 20
17.4285
 30
0.0
 11
105.239
 21
0.4482100000000001
 31
0.0
  0
LINE
  5
A4
  8
_________2
 62
     7
 10
105.239
 20
297.44999999999999
 30
0.0
 11
105.239
 21
280.43000000000001
 31
0.0
  0
LINE
  5
A5
  8
_________2
 62
     7
 10
21.988499999999998
 20
148.93100000000001
 30
0.0
 11
0.238058
 21
148.93100000000001
 31
0.0
  0
LINE
  5
A6
  8
_________2
 62
     7
 10
81.679900000000004
 20
51.324300000000001
 30
0.0
 11
79.493700000000004
 21
51.324300000000001
 31
0.0
  0
LINE
  5
A7
  8
_________2
 62
     7
 10
82.172600000000017
 20
51.324300000000001
 30
0.0
 11
81.920400000000001
 21
51.324300000000001
 31
0.0
  0
LINE
  5
A8
  8
_________2
 62
     7
 10
82.665199999999984
 20
51.324300000000001
 30
0.0
 11
85.590100000000007
 21
51.324300000000001
 31
0.0
  0
LINE
  5
A9
  8
_________2
 62
     7
 10
82.172600000000017
 20
51.324300000000001
 30
0.0
 11
82.424800000000005
 21
51.324300000000001
 31
0.0
  0
LINE
  5
AA
  8
_________2
 62
     7
 10
75.776399999999995
 20
51.324300000000001
 30
0.0
 11
73.589399999999998
 21
51.324300000000001
 31
0.0
  0
LINE
  5
AB
  8
_________2
 62
     7
 10
76.2684
 20
51.324300000000001
 30
0.0
 11
76.016900000000007
 21
51.324300000000001
 31
0.0
  0
LINE
  5
AC
  8
_________2
 62
     7
 10
76.2684
 20
51.817
 30
0.0
 11
76.2684
 21
54.003900000000002
 31
0.0
  0
LINE
  5
AD
  8
_________2
 62
     7
 10
76.2684
 20
51.324300000000001
 30
0.0
 11
76.2684
 21
51.576500000000003
 31
0.0
  0
LINE
  5
AE
  8
_________2
 62
     7
 10
76.76100000000001
 20
51.324300000000001
 30
0.0
 11
78.947999999999993
 21
51.324300000000001
 31
0.0
  0
LINE
  5
AF
  8
_________2
 62
     7
 10
76.2684
 20
51.324300000000001
 30
0.0
 11
76.520499999999998
 21
51.324300000000001
 31
0.0
  0
LINE
  5
B0
  8
_________2
 62
     7
 10
76.2684
 20
50.832399999999993
 30
0.0
 11
76.2684
 21
48.645400000000002
 31
0.0
  0
LINE
  5
B1
  8
_________2
 62
     7
 10
76.2684
 20
51.324300000000001
 30
0.0
 11
76.2684
 21
51.072800000000001
 31
0.0
  0
LINE
  5
B2
  8
_________2
 62
     7
 10
79.979399999999984
 20
50.104799999999997
 30
0.0
 11
85.157399999999996
 21
49.240000000000002
 31
0.0
  0
LINE
  5
B3
  8
_________2
 62
     7
 10
79.979399999999984
 20
52.543900000000001
 30
0.0
 11
85.157399999999996
 21
53.409300000000002
 31
0.0
  0
LINE
  5
B4
  8
_________2
 62
     7
 10
85.157399999999996
 20
49.240000000000002
 30
0.0
 11
85.157399999999996
 21
53.409300000000002
 31
0.0
  0
LINE
  5
B5
  8
_________2
 62
     7
 10
79.979399999999984
 20
50.104799999999997
 30
0.0
 11
79.979399999999984
 21
52.543900000000001
 31
0.0
  0
ARC
  5
B6
  8
_________2
 62
     7
 10
76.222110000000001
 20
51.277366999999991
 30
0.0
 40
1.2673709999999989
 50
2.1232950000000002
 51
87.909056000000007
  0
ARC
  5
B7
  8
_________2
 62
     7
 10
76.315273000000005
 20
51.277400999999998
 30
0.0
 40
1.267363
 50
92.121785999999986
 51
177.878185
  0
ARC
  5
B8
  8
_________2
 62
     7
 10
76.315273000000005
 20
51.371245999999992
 30
0.0
 40
1.267363
 50
182.121815
 51
267.87821400000001
  0
ARC
  5
B9
  8
_________2
 62
     7
 10
76.221461000000005
 20
51.371928999999987
 30
0.0
 40
1.2680439999999991
 50
272.11916400000001
 51
357.84848499999998
  0
ARC
  5
BA
  8
_________2
 62
     7
 10
76.268349999999984
 20
51.324323
 30
0.0
 40
2.0849849999999992
 50
0.00001
 51
89.999980000000008
  0
ARC
  5
BB
  8
_________2
 62
     7
 10
76.348388
 20
51.245001999999992
 30
0.0
 40
2.1657860000000002
 50
92.117855000000034
 51
177.90105299999999
  0
ARC
  5
BC
  8
_________2
 62
     7
 10
76.348354
 20
51.404327000000002
 30
0.0
 40
2.1657779999999991
 50
182.11700400000001
 51
267.88302499999998
  0
ARC
  5
BD
  8
_________2
 62
     7
 10
76.188378999999983
 20
51.405009999999997
 30
0.0
 40
2.1664590000000001
 50
272.11546800000002
 51
357.86560400000002
  0
TEXT
  5
BE
  8
_________2
 62
     7
 10
109.544
 20
23.199100000000001
 30
0.0
 40
3.0923400000000001
  1
図番
 41
0.5
  0
LINE
  5
BF
  8
_________2
 62
     7
 10
108.489
 20
27.4283
 30
0.0
 11
188.49000000000001
 21
27.4283
 31
0.0
  0
TEXT
  5
C0
  8
_________2
 62
     7
 10
109.544
 20
33.198900000000002
 30
0.0
 40
3.0923400000000001
  1
品番
 41
0.5
  0
TEXT
  5
C1
  8
_________2
 62
     7
 10
109.544
 20
53.337699999999998
 30
0.0
 40
3.0923400000000001
  1
名称
 41
0.5
  0
TEXT
  5
C2
  8
_________2
 62
     7
 10
96.784058333333334
 20
48.341500000000011
 30
0.0
 40
3.6545800000000002
  1
mm
 41
0.5
 72
     1
 11
98.306799999999996
 21
48.341500000000011
 31
0.0
  0
TEXT
  5
C3
  8
_________2
 62
     7
 10
90.582099999999997
 20
53.337699999999998
 30
0.0
 40
3.0923400000000001
  1
単位
 41
0.5
  0
TEXT
  5
C4
  8
_________2
 62
     7
 10
90.582099999999997
 20
40.930399999999999
 30
0.0
 40
3.0923400000000001
  1
尺度
 41
0.5
  0
TEXT
  5
C5
  8
_________2
 62
     7
 10
95.487658666666675
 20
34.737499999999997
 30
0.0
 40
3.6545800000000002
  1
1 ： 4
 41
0.5
 72
     1
 11
98.898600000000002
 21
34.737499999999997
 31
0.0
  0
TEXT
  5
C6
  8
_________2
 62
     7
 10
142.91342499999999
 20
30.627400000000002
 30
0.0
 40
3.9357000000000002
  1
DV9961
 41
0.5
 72
     1
 11
148.489
 21
30.627400000000002
 31
0.0
  0
TEXT
  5
C7
  8
_________2
 62
     7
 10
142.91342499999999
 20
20.626999999999999
 30
0.0
 40
3.9357000000000002
  1
DV9961
 41
0.5
 72
     1
 11
148.489
 21
20.626999999999999
 31
0.0
  0
TEXT
  5
C8
  8
_________2
 62
     7
 10
114.11799999999999
 20
45.7453
 30
0.0
 40
3.9357000000000002
  1
タオルバー
 41
0.5
  0
TEXT
  5
C9
  8
_________2
 62
     7
 10
44.364200333333329
 20
35.122599999999998
 30
0.0
 40
3.6545800000000002
  1
早川
 41
0.5
 72
     1
 11
46.252400000000002
 21
35.122599999999998
 31
0.0
  0
TEXT
  5
CA
  8
_________2
 62
     7
 10
25.729290666666671
 20
35.122599999999998
 30
0.0
 40
3.6545800000000002
  1
菅原
 41
0.5
 72
     1
 11
27.6784
 21
35.122599999999998
 31
0.0
  0
TEXT
  5
CB
  8
_________2
 62
     7
 10
72.724699999999999
 20
34.737499999999997
 30
0.0
 40
3.6545800000000002
  1
15.12.24
 41
0.5
  0
TEXT
  5
CC
  8
_________2
 62
     7
 10
71.531999999999996
 20
40.930399999999999
 30
0.0
 40
3.0923400000000001
  1
日付
 41
0.5
  0
TEXT
  5
CD
  8
_________2
 62
     7
 10
34.578299999999999
 20
40.930399999999999
 30
0.0
 40
3.0923400000000001
  1
検図
 41
0.5
  0
TEXT
  5
CE
  8
_________2
 62
     7
 10
22.960000000000001
 20
26.731000000000002
 30
0.0
 40
3.0923400000000001
  1
備考
 41
0.5
  0
TEXT
  5
CF
  8
_________2
 62
     7
 10
22.960000000000001
 20
40.930399999999999
 30
0.0
 40
3.0923400000000001
  1
製図
 41
0.5
  0
TEXT
  5
D0
  8
_________2
 62
     7
 10
28.727365333333339
 20
49.456400000000002
 30
0.0
 40
4.4979399999999989
  1
セラトレーディング株式会社
 41
0.5
 72
     1
 11
46.119399999999992
 21
49.456400000000002
 31
0.0
  0
LINE
  5
D1
  8
_________2
 62
     7
 10
188.49000000000001
 20
17.4285
 30
0.0
 11
21.988499999999998
 21
17.4285
 31
0.0
  0
LINE
  5
D2
  8
_________2
 62
     7
 10
21.988499999999998
 20
17.4285
 30
0.0
 11
21.988499999999998
 21
280.43000000000001
 31
0.0
  0
LINE
  5
D3
  8
_________2
 62
     7
 10
21.988499999999998
 20
280.43000000000001
 30
0.0
 11
188.49000000000001
 21
280.43000000000001
 31
0.0
  0
LINE
  5
D4
  8
_________2
 62
     7
 10
188.49000000000001
 20
280.43000000000001
 30
0.0
 11
188.49000000000001
 21
17.4285
 31
0.0
  0
LINE
  5
D5
  8
_________2
 62
     7
 10
70.488799999999998
 20
30.9285
 30
0.0
 11
70.488799999999998
 21
57.428400000000011
 31
0.0
  0
LINE
  5
D6
  8
_________2
 62
     7
 10
89.488600000000005
 20
30.9285
 30
0.0
 11
89.488600000000005
 21
57.428400000000011
 31
0.0
  0
LINE
  5
D7
  8
_________2
 62
     7
 10
108.489
 20
17.4285
 30
0.0
 11
108.489
 21
57.428400000000011
 31
0.0
  0
LINE
  5
D8
  8
_________2
 62
     7
 10
33.488300000000002
 20
30.9285
 30
0.0
 11
33.488300000000002
 21
44.928800000000003
 31
0.0
  0
LINE
  5
D9
  8
_________2
 62
     7
 10
21.988499999999998
 20
30.9285
 30
0.0
 11
108.489
 21
30.9285
 31
0.0
  0
LINE
  5
DA
  8
_________2
 62
     7
 10
21.988499999999998
 20
44.928800000000003
 30
0.0
 11
108.489
 21
44.928800000000003
 31
0.0
  0
LINE
  5
DB
  8
_________2
 62
     7
 10
108.489
 20
37.428100000000001
 30
0.0
 11
188.49000000000001
 21
37.428100000000001
 31
0.0
  0
LINE
  5
DC
  8
_________2
 62
     7
 10
21.988499999999998
 20
57.428400000000011
 30
0.0
 11
188.49000000000001
 21
57.428400000000011
 31
0.0
  0
ENDSEC
  0
EOF
