  0
SECTION
  2
HEADER
  9
$ACADVER
  1
AC1009
  9
$INSBASE
 10
0.0
 20
0.0
 30
0.0
  9
$EXTMIN
 10
-4.7003500000000003
 20
-21.070999999999991
 30
0.0
  9
$EXTMAX
 10
205.30099999999999
 20
275.93099999999993
 30
0.0
  9
$LIMMIN
 10
0.0
 20
0.0
  9
$LIMMAX
 10
12.0
 20
9.0
  9
$ORTHOMODE
 70
     0
  9
$REGENMODE
 70
     1
  9
$FILLMODE
 70
     1
  9
$QTEXTMODE
 70
     0
  9
$MIRRTEXT
 70
     1
  9
$DRAGMODE
 70
     2
  9
$LTSCALE
 40
1.0
  9
$OSMODE
 70
    37
  9
$ATTMODE
 70
     1
  9
$TEXTSIZE
 40
0.0
  9
$TRACEWID
 40
0.05
  9
$TEXTSTYLE
  7
STANDARD
  9
$CLAYER
  8
0
  9
$CELTYPE
  6
CONTINUOUS
  9
$CECOLOR
 62
   256
  9
$DIMSCALE
 40
1.0
  9
$DIMASZ
 40
0.18
  9
$DIMEXO
 40
0.0625
  9
$DIMDLI
 40
0.38
  9
$DIMRND
 40
0.0
  9
$DIMDLE
 40
0.0
  9
$DIMEXE
 40
0.18
  9
$DIMTP
 40
0.0
  9
$DIMTM
 40
0.0
  9
$DIMTXT
 40
0.18
  9
$DIMCEN
 40
0.09
  9
$DIMTSZ
 40
0.0
  9
$DIMTOL
 70
     0
  9
$DIMLIM
 70
     0
  9
$DIMTIH
 70
     1
  9
$DIMTOH
 70
     1
  9
$DIMSE1
 70
     0
  9
$DIMSE2
 70
     0
  9
$DIMTAD
 70
     0
  9
$DIMZIN
 70
     0
  9
$DIMBLK
  1

  9
$DIMASO
 70
     1
  9
$DIMSHO
 70
     1
  9
$DIMPOST
  1

  9
$DIMAPOST
  1

  9
$DIMALT
 70
     0
  9
$DIMALTD
 70
     2
  9
$DIMALTF
 40
25.399999999999999
  9
$DIMLFAC
 40
1.0
  9
$DIMTOFL
 70
     0
  9
$DIMTVP
 40
0.0
  9
$DIMTIX
 70
     0
  9
$DIMSOXD
 70
     0
  9
$DIMSAH
 70
     0
  9
$DIMBLK1
  1

  9
$DIMBLK2
  1

  9
$DIMSTYLE
  2
STANDARD
  9
$DIMCLRD
 70
     0
  9
$DIMCLRE
 70
     0
  9
$DIMCLRT
 70
     0
  9
$DIMTFAC
 40
1.0
  9
$DIMGAP
 40
0.09
  9
$LUNITS
 70
     2
  9
$LUPREC
 70
     4
  9
$SKETCHINC
 40
0.1
  9
$FILLETRAD
 40
0.0
  9
$AUNITS
 70
     0
  9
$AUPREC
 70
     0
  9
$MENU
  1
.
  9
$ELEVATION
 40
0.0
  9
$PELEVATION
 40
0.0
  9
$THICKNESS
 40
0.0
  9
$LIMCHECK
 70
     0
  9
$BLIPMODE
 70
     0
  9
$CHAMFERA
 40
0.0
  9
$CHAMFERB
 40
0.0
  9
$SKPOLY
 70
     0
  9
$TDCREATE
 40
2444972.375
  9
$TDUPDATE
 40
2453719.2546724882
  9
$TDINDWG
 40
0.0000109838
  9
$TDUSRTIMER
 40
0.0000109838
  9
$USRTIMER
 70
     1
  9
$ANGBASE
 50
0.0
  9
$ANGDIR
 70
     0
  9
$PDMODE
 70
     0
  9
$PDSIZE
 40
0.0
  9
$PLINEWID
 40
0.0
  9
$COORDS
 70
     1
  9
$SPLFRAME
 70
     0
  9
$SPLINETYPE
 70
     6
  9
$SPLINESEGS
 70
     8
  9
$ATTDIA
 70
     0
  9
$ATTREQ
 70
     1
  9
$HANDLING
 70
     1
  9
$HANDSEED
  5
FD
  9
$SURFTAB1
 70
     6
  9
$SURFTAB2
 70
     6
  9
$SURFTYPE
 70
     6
  9
$SURFU
 70
     6
  9
$SURFV
 70
     6
  9
$UCSNAME
  2

  9
$UCSORG
 10
0.0
 20
0.0
 30
0.0
  9
$UCSXDIR
 10
1.0
 20
0.0
 30
0.0
  9
$UCSYDIR
 10
0.0
 20
1.0
 30
0.0
  9
$PUCSNAME
  2

  9
$PUCSORG
 10
0.0
 20
0.0
 30
0.0
  9
$PUCSXDIR
 10
1.0
 20
0.0
 30
0.0
  9
$PUCSYDIR
 10
0.0
 20
1.0
 30
0.0
  9
$USERI1
 70
     0
  9
$USERI2
 70
     0
  9
$USERI3
 70
     0
  9
$USERI4
 70
     0
  9
$USERI5
 70
     0
  9
$USERR1
 40
0.0
  9
$USERR2
 40
0.0
  9
$USERR3
 40
0.0
  9
$USERR4
 40
0.0
  9
$USERR5
 40
0.0
  9
$WORLDVIEW
 70
     1
  9
$SHADEDGE
 70
     3
  9
$SHADEDIF
 70
    70
  9
$TILEMODE
 70
     1
  9
$MAXACTVP
 70
    48
  9
$PLIMCHECK
 70
     0
  9
$PEXTMIN
 10
1.0000000000000000E+020
 20
1.0000000000000000E+020
 30
1.0000000000000000E+020
  9
$PEXTMAX
 10
-1.0000000000000000E+020
 20
-1.0000000000000000E+020
 30
-1.0000000000000000E+020
  9
$PLIMMIN
 10
0.0
 20
0.0
  9
$PLIMMAX
 10
12.0
 20
9.0
  9
$UNITMODE
 70
     0
  9
$VISRETAIN
 70
     1
  9
$PLINEGEN
 70
     0
  9
$PSLTSCALE
 70
     1
  0
ENDSEC
  0
SECTION
  2
TABLES
  0
TABLE
  2
VPORT
 70
     2
  0
VPORT
  2
*ACTIVE
 70
     0
 10
0.0
 20
0.0
 11
1.0
 21
1.0
 12
189.56082129873209
 22
127.42999999999989
 13
0.0
 23
0.0
 14
1.0
 24
1.0
 15
0.0
 25
0.0
 16
0.0
 26
0.0
 36
1.0
 17
0.0
 27
0.0
 37
0.0
 40
299.24634760705283
 41
2.1842105263157889
 42
50.0
 43
0.0
 44
0.0
 50
0.0
 51
0.0
 71
     0
 72
   100
 73
     1
 74
     1
 75
     0
 76
     0
 77
     0
 78
     0
  0
ENDTAB
  0
TABLE
  2
LTYPE
 70
     4
  0
LTYPE
  2
CONTINUOUS
 70
     0
  3
Solid line
 72
    65
 73
     0
 40
0.0
  0
LTYPE
  2
AIGENLINE001
 70
     0
  3
generate AI->DXF Converter
 72
    65
 73
     4
 40
5.8561449999999988
 49
3.5278
 49
-0.776115
 49
0.776115
 49
-0.776115
  0
LTYPE
  2
AIGENLINE002
 70
     0
  3
generate AI->DXF Converter
 72
    65
 73
     6
 40
7.4083750000000004
 49
3.5278
 49
-0.776115
 49
0.776115
 49
-0.776115
 49
0.776115
 49
-0.776115
  0
LTYPE
  2
AIGENLINE003
 70
     0
  3
generate AI->DXF Converter
 72
    65
 73
     2
 40
1.5522299999999991
 49
0.776115
 49
-0.776115
  0
ENDTAB
  0
TABLE
  2
LAYER
 70
     2
  0
LAYER
  2
0
 70
     0
 62
     7
  6
CONTINUOUS
  0
LAYER
  2
_________2
 70
     0
 62
     7
  6
CONTINUOUS
  0
ENDTAB
  0
TABLE
  2
STYLE
 70
     1
  0
STYLE
  2
STANDARD
 70
     0
 40
0.0
 41
0.0
 50
0.0
 71
     0
 42
0.0
  3
TXT
  4
EXTFONT.SHX
  0
ENDTAB
  0
TABLE
  2
VIEW
 70
     0
  0
ENDTAB
  0
TABLE
  2
UCS
 70
     0
  0
ENDTAB
  0
TABLE
  2
APPID
 70
     1
  0
APPID
  2
ACAD
 70
     0
  0
ENDTAB
  0
TABLE
  2
DIMSTYLE
 70
     1
  0
DIMSTYLE
  2
STANDARD
 70
     0
  3

  4

  5

  6

  7

 40
1.0
 41
0.18
 42
0.0625
 43
0.38
 44
0.18
 45
0.0
 46
0.0
 47
0.0
 48
0.0
140
0.18
141
0.09
142
0.0
143
25.399999999999999
144
1.0
145
0.0
146
1.0
147
0.09
 71
     0
 72
     0
 73
     1
 74
     1
 75
     0
 76
     0
 77
     0
 78
     0
170
     0
171
     2
172
     0
173
     0
174
     0
175
     0
176
     0
177
     0
178
     0
  0
ENDTAB
  0
ENDSEC
  0
SECTION
  2
BLOCKS
  0
BLOCK
  8
0
  2
$MODEL_SPACE
 70
     0
 10
0.0
 20
0.0
 30
0.0
  3
$MODEL_SPACE
  1

  0
ENDBLK
  5
1A
  8
0
  0
BLOCK
 67
     1
  8
0
  2
$PAPER_SPACE
 70
     0
 10
0.0
 20
0.0
 30
0.0
  3
$PAPER_SPACE
  1

  0
ENDBLK
  5
17
 67
     1
  8
0
  0
ENDSEC
  0
SECTION
  2
ENTITIES
  0
TEXT
  5
24
  8
0
 62
     7
 10
165.86199999999991
 20
148.28
 30
0.0
 40
3.0923400000000001
  1
%%c45
 50
90.0
 41
0.5
  0
TEXT
  5
25
  8
0
 62
     7
 10
62.222799999999999
 20
165.03399999999999
 30
0.0
 40
3.0923400000000001
  1
26
 41
0.5
  0
TEXT
  5
26
  8
0
 62
     7
 10
60.905900000000003
 20
172.29799999999989
 30
0.0
 40
3.0923400000000001
  1
144
 41
0.5
  0
TEXT
  5
27
  8
0
 62
     7
 10
134.15899999999991
 20
164.75200000000001
 30
0.0
 40
3.0923400000000001
  1
60
 41
0.5
  0
LINE
  5
28
  8
0
 62
     7
 10
146.30799999999991
 20
152.434
 30
0.0
 11
147.34100000000001
 21
150.43899999999991
 31
0.0
  0
LINE
  5
29
  8
0
 62
     7
 10
147.2179999999999
 20
152.48699999999991
 30
0.0
 11
148.27799999999991
 21
150.43899999999991
 31
0.0
  0
LINE
  5
2A
  8
0
 62
     7
 10
148.155
 20
152.48699999999991
 30
0.0
 11
149.215
 21
150.43899999999991
 31
0.0
  0
LINE
  5
2B
  8
0
 62
     7
 10
149.09200000000001
 20
152.48699999999991
 30
0.0
 11
150.15199999999999
 21
150.43899999999991
 31
0.0
  0
LINE
  5
2C
  8
0
 62
     7
 10
150.03
 20
152.48699999999991
 30
0.0
 11
151.09
 21
150.43899999999991
 31
0.0
  0
LINE
  5
2D
  8
0
 62
     7
 10
150.96700000000001
 20
152.48699999999991
 30
0.0
 11
152.02699999999999
 21
150.43899999999991
 31
0.0
  0
LINE
  5
2E
  8
0
 62
     7
 10
151.90399999999991
 20
152.48699999999991
 30
0.0
 11
152.964
 21
150.43899999999991
 31
0.0
  0
LINE
  5
2F
  8
0
 62
     7
 10
152.84100000000001
 20
152.48699999999991
 30
0.0
 11
153.90100000000001
 21
150.43899999999991
 31
0.0
  0
LINE
  5
30
  8
0
 62
     7
 10
153.779
 20
152.48699999999991
 30
0.0
 11
154.83799999999991
 21
150.43899999999991
 31
0.0
  0
LINE
  5
31
  8
0
 62
     7
 10
154.71600000000001
 20
152.48699999999991
 30
0.0
 11
155.77600000000001
 21
150.43899999999991
 31
0.0
  0
LINE
  5
32
  8
0
 62
     7
 10
155.65299999999991
 20
152.48699999999991
 30
0.0
 11
156.71299999999991
 21
150.43899999999991
 31
0.0
  0
LINE
  5
33
  8
0
 62
     7
 10
156.59
 20
152.48699999999991
 30
0.0
 11
157.65000000000001
 21
150.43899999999991
 31
0.0
  0
LINE
  5
34
  8
0
 62
     7
 10
157.52699999999999
 20
152.48699999999991
 30
0.0
 11
158.58699999999999
 21
150.43899999999991
 31
0.0
  0
LINE
  5
35
  8
0
 62
     7
 10
158.68100000000001
 20
152.05299999999991
 30
0.0
 11
159.64199999999991
 21
151.46999999999991
 31
0.0
  0
LINE
  5
36
  8
0
 62
     7
 10
158.68100000000001
 20
150.886
 30
0.0
 11
159.64199999999991
 21
151.46999999999991
 31
0.0
  0
LINE
  5
37
  8
0
 62
     7
 10
146.30799999999991
 20
152.05299999999991
 30
0.0
 11
158.68100000000001
 21
152.05299999999991
 31
0.0
  0
LINE
  5
38
  8
0
 62
     7
 10
146.30799999999991
 20
150.886
 30
0.0
 11
158.68100000000001
 21
150.886
 31
0.0
  0
LINE
  5
39
  8
0
  6
AIGENLINE001
 62
     7
 10
160.45599999999999
 20
151.46999999999991
 30
0.0
 11
124.9279999999999
 21
151.46999999999991
 31
0.0
  0
ARC
  5
3A
  8
0
 62
     7
 10
123.3700529999999
 20
130.43811700000001
 30
0.0
 40
1.3342350000000001
 50
342.86002899999988
 51
359.95044000000001
  0
ARC
  5
3B
  8
0
 62
     7
 10
123.3196949999999
 20
130.385988
 30
0.0
 40
1.385530999999999
 50
2.1084239999999999
 51
87.876762999999997
  0
ARC
  5
3C
  8
0
 62
     7
 10
123.398037
 20
130.4000649999999
 30
0.0
 40
1.3707689999999999
 50
91.129028000000005
 51
161.551818
  0
LINE
  5
3D
  8
0
  6
AIGENLINE002
 62
     7
 10
80.987099999999998
 20
104.25999999999991
 30
0.0
 11
80.987099999999998
 21
129.77500000000001
 31
0.0
  0
LINE
  5
3E
  8
0
  6
AIGENLINE002
 62
     7
 10
47.210299999999989
 20
104.25999999999991
 30
0.0
 11
47.210299999999989
 21
129.77500000000001
 31
0.0
  0
LINE
  5
3F
  8
0
  6
AIGENLINE002
 62
     7
 10
47.210299999999989
 20
104.259
 30
0.0
 11
80.987099999999998
 21
104.259
 31
0.0
  0
LINE
  5
40
  8
0
 62
     7
 10
66.202600000000004
 20
163.1639999999999
 30
0.0
 11
68.4131
 21
163.756
 31
0.0
  0
LINE
  5
41
  8
0
 62
     7
 10
68.4131
 20
163.756
 30
0.0
 11
66.202600000000004
 21
164.34899999999999
 31
0.0
  0
LINE
  5
42
  8
0
 62
     7
 10
66.202600000000004
 20
164.34899999999999
 30
0.0
 11
66.202600000000004
 21
163.1639999999999
 31
0.0
  0
LINE
  5
43
  8
0
 62
     7
 10
61.957299999999996
 20
164.334
 30
0.0
 11
59.746899999999989
 21
163.74199999999999
 31
0.0
  0
LINE
  5
44
  8
0
 62
     7
 10
59.746899999999989
 20
163.74199999999999
 30
0.0
 11
61.957299999999996
 21
163.149
 31
0.0
  0
LINE
  5
45
  8
0
 62
     7
 10
61.957299999999996
 20
163.149
 30
0.0
 11
61.957299999999996
 21
164.334
 31
0.0
  0
LINE
  5
46
  8
0
 62
     7
 10
68.413300000000007
 20
163.74899999999991
 30
0.0
 11
59.7468
 21
163.74899999999991
 31
0.0
  0
LINE
  5
47
  8
0
 62
     7
 10
68.413300000000007
 20
153.697
 30
0.0
 11
68.413300000000007
 21
164.00700000000001
 31
0.0
  0
LINE
  5
48
  8
0
 62
     7
 10
59.7468
 20
153.697
 30
0.0
 11
59.7468
 21
164.00700000000001
 31
0.0
  0
LINE
  5
49
  8
0
 62
     7
 10
42.309100000000001
 20
171.82699999999991
 30
0.0
 11
40.09879999999999
 21
171.23500000000001
 31
0.0
  0
LINE
  5
4A
  8
0
 62
     7
 10
40.09879999999999
 20
171.23500000000001
 30
0.0
 11
42.309100000000001
 21
170.643
 31
0.0
  0
LINE
  5
4B
  8
0
 62
     7
 10
42.309100000000001
 20
170.643
 30
0.0
 11
42.309100000000001
 21
171.82699999999991
 31
0.0
  0
LINE
  5
4C
  8
0
 62
     7
 10
85.888299999999987
 20
170.6579999999999
 30
0.0
 11
88.098699999999994
 21
171.25
 31
0.0
  0
LINE
  5
4D
  8
0
 62
     7
 10
88.098699999999994
 20
171.25
 30
0.0
 11
85.888299999999987
 21
171.84200000000001
 31
0.0
  0
LINE
  5
4E
  8
0
 62
     7
 10
85.888299999999987
 20
171.84200000000001
 30
0.0
 11
85.888299999999987
 21
170.6579999999999
 31
0.0
  0
LINE
  5
4F
  8
0
 62
     7
 10
40.09859999999999
 20
171.24199999999999
 30
0.0
 11
88.098900000000015
 21
171.24199999999999
 31
0.0
  0
LINE
  5
50
  8
0
 62
     7
 10
88.098900000000015
 20
131.68100000000001
 30
0.0
 11
88.098900000000015
 21
171.62299999999991
 31
0.0
  0
LINE
  5
51
  8
0
 62
     7
 10
40.09859999999999
 20
151.63200000000001
 30
0.0
 11
40.09859999999999
 21
171.62299999999991
 31
0.0
  0
LINE
  5
52
  8
0
 62
     7
 10
87.430400000000006
 20
129.28399999999991
 30
0.0
 11
87.997600000000006
 21
129.851
 31
0.0
  0
LINE
  5
53
  8
0
 62
     7
 10
83.787800000000004
 20
127.77500000000001
 30
0.0
 11
45.247700000000002
 21
127.77500000000001
 31
0.0
  0
ARC
  5
54
  8
0
 62
     7
 10
83.762528000000003
 20
132.988246
 30
0.0
 40
5.2128699999999988
 50
270.27817099999999
 51
314.71740399999987
  0
ARC
  5
55
  8
0
 62
     7
 10
87.745854000000008
 20
130.0990129999999
 30
0.0
 40
0.3531849999999999
 50
315.46146399999998
 51
0.308244
  0
ARC
  5
56
  8
0
 62
     7
 10
87.334368999999995
 20
130.136222
 30
0.0
 40
0.7654790000000001
 50
357.35619800000001
 51
13.85825799999999
  0
ARC
  5
57
  8
0
 62
     7
 10
86.739774999999995
 20
129.99423899999999
 30
0.0
 40
1.376781
 50
13.668168
 51
26.275205
  0
ARC
  5
58
  8
0
 62
     7
 10
85.886756999999989
 20
129.57046
 30
0.0
 40
2.3292649999999999
 50
26.333684000000002
 51
45.971491999999991
  0
ARC
  5
59
  8
0
 62
     7
 10
85.914636999999999
 20
129.651895
 30
0.0
 40
2.2516329999999991
 50
45.041290999999987
 51
71.554208000000003
  0
ARC
  5
5A
  8
0
 62
     7
 10
86.28237
 20
130.68372400000001
 30
0.0
 40
1.156679
 50
72.661997999999997
 51
87.364638999999997
  0
ARC
  5
5B
  8
0
 62
     7
 10
86.302153000000004
 20
131.35873100000001
 30
0.0
 40
0.481608
 50
86.023235
 51
128.2107189999999
  0
LINE
  5
5C
  8
0
 62
     7
 10
40.09859999999999
 20
132.92500000000001
 30
0.0
 11
40.09859999999999
 21
149.46999999999991
 31
0.0
  0
ARC
  5
5D
  8
0
 62
     7
 10
43.513311000000002
 20
149.4165429999999
 30
0.0
 40
3.415146
 50
114.46784699999991
 51
179.10549399999991
  0
ARC
  5
5E
  8
0
 62
     7
 10
45.247652000000002
 20
132.924509
 30
0.0
 40
5.1490710000000002
 50
179.99996999999991
 51
270.00002000000001
  0
LINE
  5
5F
  8
0
 62
     7
 10
86.098799999999997
 20
132.44200000000001
 30
0.0
 11
86.098799999999997
 21
153.33699999999999
 31
0.0
  0
LINE
  5
60
  8
0
 62
     7
 10
83.432299999999998
 20
129.77500000000001
 30
0.0
 11
44.765300000000003
 21
129.77500000000001
 31
0.0
  0
ARC
  5
61
  8
0
 62
     7
 10
83.330303000000001
 20
132.54383200000001
 30
0.0
 40
2.7703820000000001
 50
272.10993400000001
 51
357.89747799999992
  0
LINE
  5
62
  8
0
 62
     7
 10
42.09859999999999
 20
132.44200000000001
 30
0.0
 11
42.09859999999999
 21
153.33699999999999
 31
0.0
  0
ARC
  5
63
  8
0
 62
     7
 10
44.867876999999993
 20
132.54455499999989
 30
0.0
 40
2.7711250000000001
 50
182.11692799999989
 51
267.87940099999992
  0
LINE
  5
64
  8
0
 62
     7
 10
71.598799999999997
 20
153.33699999999999
 30
0.0
 11
86.098799999999997
 21
153.33699999999999
 31
0.0
  0
LINE
  5
65
  8
0
 62
     7
 10
42.09859999999999
 20
153.33699999999999
 30
0.0
 11
56.598599999999998
 21
153.33699999999999
 31
0.0
  0
LINE
  5
66
  8
0
  6
AIGENLINE001
 62
     7
 10
68.413300000000007
 20
149.476
 30
0.0
 11
68.413300000000007
 21
153.31
 31
0.0
  0
LINE
  5
67
  8
0
  6
AIGENLINE001
 62
     7
 10
66.368499999999983
 20
151.46999999999991
 30
0.0
 11
70.458299999999994
 21
151.46999999999991
 31
0.0
  0
ARC
  5
68
  8
0
  6
AIGENLINE003
 62
     7
 10
68.431914000000006
 20
151.46974800000001
 30
0.0
 40
1.0001180000000001
 50
0.00001
 51
89.999980000000008
  0
ARC
  5
69
  8
0
  6
AIGENLINE003
 62
     7
 10
68.432001
 20
151.46983399999999
 30
0.0
 40
1.000032
 50
90.004935000000003
 51
180.00494499999991
  0
ARC
  5
6A
  8
0
  6
AIGENLINE003
 62
     7
 10
68.469984999999994
 20
151.5079979999999
 30
0.0
 40
1.0387200000000001
 50
182.11033399999999
 51
267.89956699999999
  0
ARC
  5
6B
  8
0
  6
AIGENLINE003
 62
     7
 10
68.393298999999999
 20
151.50872200000001
 30
0.0
 40
1.0394639999999991
 50
272.12901799999997
 51
357.85125199999987
  0
LINE
  5
6C
  8
0
  6
AIGENLINE001
 62
     7
 10
59.7468
 20
149.476
 30
0.0
 11
59.7468
 21
153.31
 31
0.0
  0
LINE
  5
6D
  8
0
  6
AIGENLINE001
 62
     7
 10
57.701799999999992
 20
151.46999999999991
 30
0.0
 11
61.791600000000003
 21
151.46999999999991
 31
0.0
  0
ARC
  5
6E
  8
0
  6
AIGENLINE003
 62
     7
 10
59.726785999999997
 20
151.43150800000001
 30
0.0
 40
1.039069
 50
2.109122999999999
 51
87.880997999999991
  0
ARC
  5
6F
  8
0
  6
AIGENLINE003
 62
     7
 10
59.765292000000002
 20
151.46983399999999
 30
0.0
 40
1.000032
 50
90.004935000000003
 51
180.00494499999991
  0
ARC
  5
70
  8
0
  6
AIGENLINE003
 62
     7
 10
59.803275999999997
 20
151.5079979999999
 30
0.0
 40
1.0387200000000001
 50
182.11033399999999
 51
267.89956699999999
  0
ARC
  5
71
  8
0
  6
AIGENLINE003
 62
     7
 10
59.726590000000002
 20
151.50854200000001
 30
0.0
 40
1.039285
 50
272.12934799999988
 51
357.86079100000001
  0
LINE
  5
72
  8
0
 62
     7
 10
71.598799999999997
 20
152.88200000000001
 30
0.0
 11
71.598799999999997
 21
154.80299999999991
 31
0.0
  0
LINE
  5
73
  8
0
 62
     7
 10
56.598599999999998
 20
152.88200000000001
 30
0.0
 11
56.598599999999998
 21
154.80299999999991
 31
0.0
  0
LINE
  5
74
  8
0
 62
     7
 10
56.598599999999998
 20
152.88200000000001
 30
0.0
 11
71.598799999999997
 21
152.88200000000001
 31
0.0
  0
ARC
  5
75
  8
0
 62
     7
 10
132.9976969999999
 20
125.584256
 30
0.0
 40
28.032536
 50
103.145231
 51
175.544038
  0
LINE
  5
76
  8
0
  6
AIGENLINE001
 62
     7
 10
64.098600000000005
 20
100.8029999999999
 30
0.0
 11
64.098600000000005
 21
160.524
 31
0.0
  0
ARC
  5
77
  8
0
 62
     7
 10
64.098817999999994
 20
151.4697459999999
 30
0.0
 40
7.5000249999999991
 50
26.392037999999999
 51
116.392008
  0
ARC
  5
78
  8
0
 62
     7
 10
64.145577000000003
 20
151.4226449999999
 30
0.0
 40
7.5630309999999987
 50
116.55071100000001
 51
153.4463429999999
  0
LINE
  5
79
  8
0
 62
     7
 10
71.598799999999997
 20
154.80299999999991
 30
0.0
 11
56.598599999999998
 21
154.80299999999991
 31
0.0
  0
LINE
  5
7A
  8
0
 62
     7
 10
167.96899999999999
 20
158.97
 30
0.0
 11
146.94499999999991
 21
158.97
 31
0.0
  0
LINE
  5
7B
  8
0
 62
     7
 10
167.96899999999999
 20
143.97
 30
0.0
 11
146.94499999999991
 21
143.97
 31
0.0
  0
LINE
  5
7C
  8
0
 62
     7
 10
166.91099999999989
 20
146.18000000000001
 30
0.0
 11
167.50399999999999
 21
143.97
 31
0.0
  0
LINE
  5
7D
  8
0
 62
     7
 10
167.50399999999999
 20
143.97
 30
0.0
 11
168.09599999999989
 21
146.18000000000001
 31
0.0
  0
LINE
  5
7E
  8
0
 62
     7
 10
168.09599999999989
 20
146.18000000000001
 30
0.0
 11
166.91099999999989
 21
146.18000000000001
 31
0.0
  0
LINE
  5
7F
  8
0
 62
     7
 10
168.0809999999999
 20
156.7589999999999
 30
0.0
 11
167.48899999999989
 21
158.97
 31
0.0
  0
LINE
  5
80
  8
0
 62
     7
 10
167.48899999999989
 20
158.97
 30
0.0
 11
166.89699999999999
 21
156.7589999999999
 31
0.0
  0
LINE
  5
81
  8
0
 62
     7
 10
166.89699999999999
 20
156.7589999999999
 30
0.0
 11
168.0809999999999
 21
156.7589999999999
 31
0.0
  0
LINE
  5
82
  8
0
 62
     7
 10
167.4959999999999
 20
143.97
 30
0.0
 11
167.4959999999999
 21
158.97
 31
0.0
  0
LINE
  5
83
  8
0
 62
     7
 10
126.30799999999989
 20
153.39699999999999
 30
0.0
 11
126.30799999999989
 21
164.29900000000001
 31
0.0
  0
LINE
  5
84
  8
0
 62
     7
 10
128.51900000000001
 20
164.334
 30
0.0
 11
126.30799999999989
 21
163.74199999999999
 31
0.0
  0
LINE
  5
85
  8
0
 62
     7
 10
126.30799999999989
 20
163.74199999999999
 30
0.0
 11
128.51900000000001
 21
163.149
 31
0.0
  0
LINE
  5
86
  8
0
 62
     7
 10
128.51900000000001
 20
163.149
 30
0.0
 11
128.51900000000001
 21
164.334
 31
0.0
  0
LINE
  5
87
  8
0
 62
     7
 10
144.0979999999999
 20
163.1639999999999
 30
0.0
 11
146.30799999999991
 21
163.756
 31
0.0
  0
LINE
  5
88
  8
0
 62
     7
 10
146.30799999999991
 20
163.756
 30
0.0
 11
144.0979999999999
 21
164.34899999999999
 31
0.0
  0
LINE
  5
89
  8
0
 62
     7
 10
144.0979999999999
 20
164.34899999999999
 30
0.0
 11
144.0979999999999
 21
163.1639999999999
 31
0.0
  0
LINE
  5
8A
  8
0
 62
     7
 10
126.30799999999989
 20
163.74899999999991
 30
0.0
 11
146.30799999999991
 21
163.74899999999991
 31
0.0
  0
LINE
  5
8B
  8
0
 62
     7
 10
105.384
 20
127.759
 30
0.0
 11
105.0499999999999
 21
127.759
 31
0.0
  0
ARC
  5
8C
  8
0
 62
     7
 10
132.981101
 20
125.6038879999999
 30
0.0
 40
27.681031000000001
 50
103.5937
 51
175.5352509999999
  0
LINE
  5
8D
  8
0
  6
AIGENLINE001
 62
     7
 10
130.994
 20
156.0079999999999
 30
0.0
 11
122.402
 21
127.18599999999989
 31
0.0
  0
ARC
  5
8E
  8
0
 62
     7
 10
129.60972100000001
 20
151.47513699999999
 30
0.0
 40
1.3653789999999999
 50
343.55996899999991
 51
359.773888
  0
ARC
  5
8F
  8
0
 62
     7
 10
129.59082399999991
 20
151.4187159999999
 30
0.0
 40
1.3852070000000001
 50
2.111308999999999
 51
87.918283999999986
  0
ARC
  5
90
  8
0
 62
     7
 10
129.669826
 20
151.4315409999999
 30
0.0
 40
1.3717680000000001
 50
91.198183
 51
162.20461
  0
ARC
  5
91
  8
0
 62
     7
 10
123.03836200000001
 20
129.14341799999991
 30
0.0
 40
1.3855930000000001
 50
165.53359
 51
251.286293
  0
ARC
  5
92
  8
0
 62
     7
 10
122.940504
 20
129.17187799999991
 30
0.0
 40
1.3849
 50
255.50240799999989
 51
341.29907700000001
  0
LINE
  5
93
  8
0
 62
     7
 10
128.364
 20
151.851
 30
0.0
 11
121.697
 21
129.49000000000001
 31
0.0
  0
LINE
  5
94
  8
0
 62
     7
 10
130.9189999999999
 20
151.089
 30
0.0
 11
124.252
 21
128.72799999999989
 31
0.0
  0
ARC
  5
95
  8
0
  6
AIGENLINE002
 62
     7
 10
122.97501
 20
122.5926019999999
 30
0.0
 40
8.0000800000000005
 50
0.001244
 51
90.001214000000004
  0
ARC
  5
96
  8
0
  6
AIGENLINE002
 62
     7
 10
122.97466799999989
 20
122.5926019999999
 30
0.0
 40
8.0000800000000005
 50
89.998766000000003
 51
179.99873700000001
  0
ARC
  5
97
  8
0
  6
AIGENLINE002
 62
     7
 10
122.9746649999999
 20
122.5929459999999
 30
0.0
 40
8.0000780000000002
 50
180.0012439999999
 51
270.00125400000002
  0
ARC
  5
98
  8
0
  6
AIGENLINE002
 62
     7
 10
122.97501
 20
122.592949
 30
0.0
 40
8.0000800000000005
 50
269.99878599999988
 51
359.99875600000001
  0
ARC
  5
99
  8
0
  6
AIGENLINE002
 62
     7
 10
122.974836
 20
122.592772
 30
0.0
 40
18.333538999999998
 50
0.00001
 51
89.999980000000008
  0
ARC
  5
9A
  8
0
  6
AIGENLINE002
 62
     7
 10
122.9748419999999
 20
122.592772
 30
0.0
 40
18.333538999999998
 50
90.0
 51
179.99996999999991
  0
ARC
  5
9B
  8
0
  6
AIGENLINE002
 62
     7
 10
122.974836
 20
122.592772
 30
0.0
 40
18.333532999999989
 50
179.99996999999991
 51
270.00002000000001
  0
ARC
  5
9C
  8
0
  6
AIGENLINE002
 62
     7
 10
122.974836
 20
122.592778
 30
0.0
 40
18.333538999999998
 50
270.00002000000001
 51
359.99998999999991
  0
LINE
  5
9D
  8
0
 62
     7
 10
130.0389999999999
 20
148.136
 30
0.0
 11
136.30799999999991
 21
148.136
 31
0.0
  0
LINE
  5
9E
  8
0
 62
     7
 10
129.64199999999991
 20
154.80299999999991
 30
0.0
 11
136.30799999999991
 21
154.80299999999991
 31
0.0
  0
ARC
  5
9F
  8
0
 62
     7
 10
129.52719999999991
 20
151.57068399999989
 30
0.0
 40
3.4489139999999989
 50
278.6563339999999
 51
358.32294000000002
  0
ARC
  5
A0
  8
0
 62
     7
 10
129.64113999999989
 20
151.46974800000001
 30
0.0
 40
3.3334959999999989
 50
0.00001
 51
89.999980000000008
  0
ARC
  5
A1
  8
0
 62
     7
 10
129.64148599999999
 20
151.47009199999991
 30
0.0
 40
3.3331519999999988
 50
90.005922000000012
 51
180.005932
  0
ARC
  5
A2
  8
0
 62
     7
 10
129.68954599999989
 20
151.491703
 30
0.0
 40
3.3812829999999998
 50
180.37205299999991
 51
229.45117799999991
  0
LINE
  5
A3
  8
0
 62
     7
 10
136.30799999999991
 20
154.01299999999989
 30
0.0
 11
139.64199999999991
 21
154.01299999999989
 31
0.0
  0
LINE
  5
A4
  8
0
 62
     7
 10
136.30799999999991
 20
148.92699999999999
 30
0.0
 11
139.64199999999991
 21
148.92699999999999
 31
0.0
  0
LINE
  5
A5
  8
0
 62
     7
 10
142.97499999999999
 20
148.136
 30
0.0
 11
139.64199999999991
 21
148.136
 31
0.0
  0
LINE
  5
A6
  8
0
 62
     7
 10
142.97499999999999
 20
154.80299999999991
 30
0.0
 11
139.64199999999991
 21
154.80299999999991
 31
0.0
  0
LINE
  5
A7
  8
0
 62
     7
 10
136.30799999999991
 20
148.136
 30
0.0
 11
136.30799999999991
 21
154.80299999999991
 31
0.0
  0
LINE
  5
A8
  8
0
 62
     7
 10
139.64199999999991
 20
148.136
 30
0.0
 11
139.64199999999991
 21
154.80299999999991
 31
0.0
  0
LINE
  5
A9
  8
0
 62
     7
 10
146.30799999999991
 20
143.97
 30
0.0
 11
142.97499999999999
 21
143.97
 31
0.0
  0
LINE
  5
AA
  8
0
 62
     7
 10
146.30799999999991
 20
158.97
 30
0.0
 11
142.97499999999999
 21
158.97
 31
0.0
  0
LINE
  5
AB
  8
0
 62
     7
 10
142.97499999999999
 20
143.97
 30
0.0
 11
142.97499999999999
 21
158.97
 31
0.0
  0
LINE
  5
AC
  8
0
 62
     7
 10
146.30799999999991
 20
159.667
 30
0.0
 11
146.30799999999991
 21
164.43000000000001
 31
0.0
  0
LINE
  5
AD
  8
0
 62
     7
 10
146.30799999999991
 20
143.97
 30
0.0
 11
146.30799999999991
 21
158.97
 31
0.0
  0
LINE
  5
AE
  8
_________2
 62
     7
 10
205.30099999999999
 20
127.411
 30
0.0
 11
183.55099999999999
 21
127.411
 31
0.0
  0
LINE
  5
AF
  8
_________2
 62
     7
 10
100.2999999999999
 20
-4.0907299999999998
 30
0.0
 11
100.2999999999999
 21
-21.070999999999991
 31
0.0
  0
LINE
  5
B0
  8
_________2
 62
     7
 10
100.2999999999999
 20
275.93099999999993
 30
0.0
 11
100.2999999999999
 21
258.911
 31
0.0
  0
LINE
  5
B1
  8
_________2
 62
     7
 10
17.049700000000001
 20
127.411
 30
0.0
 11
-4.7003500000000003
 21
127.411
 31
0.0
  0
LINE
  5
B2
  8
_________2
 62
     7
 10
76.741399999999999
 20
29.805099999999999
 30
0.0
 11
74.554900000000004
 21
29.805099999999999
 31
0.0
  0
LINE
  5
B3
  8
_________2
 62
     7
 10
77.233999999999995
 20
29.805099999999999
 30
0.0
 11
76.981800000000007
 21
29.805099999999999
 31
0.0
  0
LINE
  5
B4
  8
_________2
 62
     7
 10
77.726500000000001
 20
29.805099999999999
 30
0.0
 11
80.651600000000002
 21
29.805099999999999
 31
0.0
  0
LINE
  5
B5
  8
_________2
 62
     7
 10
77.233999999999995
 20
29.805099999999999
 30
0.0
 11
77.485900000000001
 21
29.805099999999999
 31
0.0
  0
LINE
  5
B6
  8
_________2
 62
     7
 10
70.837500000000006
 20
29.805099999999999
 30
0.0
 11
68.650700000000001
 21
29.805099999999999
 31
0.0
  0
LINE
  5
B7
  8
_________2
 62
     7
 10
71.329899999999995
 20
29.805099999999999
 30
0.0
 11
71.0779
 21
29.805099999999999
 31
0.0
  0
LINE
  5
B8
  8
_________2
 62
     7
 10
71.329899999999995
 20
30.2974
 30
0.0
 11
71.329899999999995
 21
32.484400000000001
 31
0.0
  0
LINE
  5
B9
  8
_________2
 62
     7
 10
71.329899999999995
 20
29.805099999999999
 30
0.0
 11
71.329899999999995
 21
30.057300000000001
 31
0.0
  0
LINE
  5
BA
  8
_________2
 62
     7
 10
71.822599999999994
 20
29.805099999999999
 30
0.0
 11
74.009200000000007
 21
29.805099999999999
 31
0.0
  0
LINE
  5
BB
  8
_________2
 62
     7
 10
71.329899999999995
 20
29.805099999999999
 30
0.0
 11
71.582099999999997
 21
29.805099999999999
 31
0.0
  0
LINE
  5
BC
  8
_________2
 62
     7
 10
71.329899999999995
 20
29.312799999999999
 30
0.0
 11
71.329899999999995
 21
27.125800000000002
 31
0.0
  0
LINE
  5
BD
  8
_________2
 62
     7
 10
71.329899999999995
 20
29.805099999999999
 30
0.0
 11
71.329899999999995
 21
29.5532
 31
0.0
  0
LINE
  5
BE
  8
_________2
 62
     7
 10
75.040999999999997
 20
28.5855
 30
0.0
 11
80.218699999999984
 21
27.720400000000001
 31
0.0
  0
LINE
  5
BF
  8
_________2
 62
     7
 10
75.040999999999997
 20
31.024699999999999
 30
0.0
 11
80.218699999999984
 21
31.889700000000001
 31
0.0
  0
LINE
  5
C0
  8
_________2
 62
     7
 10
80.218699999999984
 20
27.720400000000001
 30
0.0
 11
80.218699999999984
 21
31.889700000000001
 31
0.0
  0
LINE
  5
C1
  8
_________2
 62
     7
 10
75.040999999999997
 20
28.5855
 30
0.0
 11
75.040999999999997
 21
31.024699999999999
 31
0.0
  0
ARC
  5
C2
  8
_________2
 62
     7
 10
71.330033
 20
29.805001000000001
 30
0.0
 40
1.219657999999999
 50
0.004056
 51
90.004025999999996
  0
ARC
  5
C3
  8
_________2
 62
     7
 10
71.329860999999994
 20
29.805001000000001
 30
0.0
 40
1.219657999999999
 50
89.995953999999998
 51
179.99592399999989
  0
ARC
  5
C4
  8
_________2
 62
     7
 10
71.329860999999994
 20
29.805172999999989
 30
0.0
 40
1.2196569999999991
 50
180.00405599999999
 51
270.00406600000002
  0
ARC
  5
C5
  8
_________2
 62
     7
 10
71.330033
 20
29.805174000000001
 30
0.0
 40
1.219657999999999
 50
269.99597399999999
 51
359.99594400000001
  0
ARC
  5
C6
  8
_________2
 62
     7
 10
71.329947000000004
 20
29.805087
 30
0.0
 40
2.0846409999999991
 50
0.00001
 51
89.999980000000008
  0
ARC
  5
C7
  8
_________2
 62
     7
 10
71.329860999999994
 20
29.805001000000001
 30
0.0
 40
2.0847269999999991
 50
89.997632999999993
 51
179.997603
  0
ARC
  5
C8
  8
_________2
 62
     7
 10
71.409793999999991
 20
29.885114000000002
 30
0.0
 40
2.1661389999999989
 50
182.11724599999999
 51
267.88751799999989
  0
ARC
  5
C9
  8
_________2
 62
     7
 10
71.249943000000002
 20
29.88509199999999
 30
0.0
 40
2.1661229999999989
 50
272.11667999999992
 51
357.88332999999989
  0
TEXT
  5
CA
  8
_________2
 62
     7
 10
104.605
 20
1.6794899999999999
 30
0.0
 40
3.0923400000000001
  1
図番
 41
0.5
  0
LINE
  5
CB
  8
_________2
 62
     7
 10
103.55
 20
5.9087199999999989
 30
0.0
 11
183.55099999999999
 21
5.9087199999999989
 31
0.0
  0
TEXT
  5
CC
  8
_________2
 62
     7
 10
104.605
 20
11.679600000000001
 30
0.0
 40
3.0923400000000001
  1
品番
 41
0.5
  0
TEXT
  5
CD
  8
_________2
 62
     7
 10
104.605
 20
31.818100000000001
 30
0.0
 40
3.0923400000000001
  1
名称
 41
0.5
  0
TEXT
  5
CE
  8
_________2
 62
     7
 10
91.845658333333333
 20
26.821999999999989
 30
0.0
 40
3.6545800000000002
  1
mm
 41
0.5
 72
     1
 11
93.368399999999994
 21
26.821999999999989
 31
0.0
  0
TEXT
  5
CF
  8
_________2
 62
     7
 10
85.643399999999986
 20
31.818100000000001
 30
0.0
 40
3.0923400000000001
  1
単位
 41
0.5
  0
TEXT
  5
D0
  8
_________2
 62
     7
 10
85.643399999999986
 20
19.411200000000001
 30
0.0
 40
3.0923400000000001
  1
尺度
 41
0.5
  0
TEXT
  5
D1
  8
_________2
 62
     7
 10
90.549158666666656
 20
13.218199999999991
 30
0.0
 40
3.6545800000000002
  1
1 ： 3
 41
0.5
 72
     1
 11
93.960099999999997
 21
13.218199999999991
 31
0.0
  0
TEXT
  5
D2
  8
_________2
 62
     7
 10
136.17056249999999
 20
9.1078600000000005
 30
0.0
 40
3.9357000000000002
  1
EC.S0800R
 41
0.5
 72
     1
 11
143.55000000000001
 21
9.1078600000000005
 31
0.0
  0
TEXT
  5
D3
  8
_________2
 62
     7
 10
136.4985375
 20
-0.892285
 30
0.0
 40
3.9357000000000002
  1
ECS0800R
 41
0.5
 72
     1
 11
143.55000000000001
 21
-0.892285
 31
0.0
  0
TEXT
  5
D4
  8
_________2
 62
     7
 10
109.179
 20
24.226099999999999
 30
0.0
 40
3.9357000000000002
  1
エポーサ　ペーパーホルダー
 41
0.5
  0
TEXT
  5
D5
  8
_________2
 62
     7
 10
39.425500333333332
 20
13.603
 30
0.0
 40
3.6545800000000002
  1
福田
 41
0.5
 72
     1
 11
41.31369999999999
 21
13.603
 31
0.0
  0
TEXT
  5
D6
  8
_________2
 62
     7
 10
20.79039066666666
 20
13.603
 30
0.0
 40
3.6545800000000002
  1
石原
 41
0.5
 72
     1
 11
22.7395
 21
13.603
 31
0.0
  0
TEXT
  5
D7
  8
_________2
 62
     7
 10
67.785799999999995
 20
13.218199999999991
 30
0.0
 40
3.6545800000000002
  1
04.01.09
 41
0.5
  0
TEXT
  5
D8
  8
_________2
 62
     7
 10
66.593299999999999
 20
19.411200000000001
 30
0.0
 40
3.0923400000000001
  1
日付
 41
0.5
  0
TEXT
  5
D9
  8
_________2
 62
     7
 10
29.639500000000002
 20
19.411200000000001
 30
0.0
 40
3.0923400000000001
  1
検図
 41
0.5
  0
TEXT
  5
DA
  8
_________2
 62
     7
 10
18.021599999999989
 20
5.2117699999999987
 30
0.0
 40
3.0923400000000001
  1
備考
 41
0.5
  0
TEXT
  5
DB
  8
_________2
 62
     7
 10
18.021599999999989
 20
19.411200000000001
 30
0.0
 40
3.0923400000000001
  1
製図
 41
0.5
  0
TEXT
  5
DC
  8
_________2
 62
     7
 10
23.78886533333333
 20
27.936800000000002
 30
0.0
 40
4.4979399999999989
  1
セラトレーディング株式会社
 41
0.5
 72
     1
 11
41.180900000000001
 21
27.936800000000002
 31
0.0
  0
LINE
  5
DD
  8
_________2
 62
     7
 10
183.55099999999999
 20
-4.0910799999999998
 30
0.0
 11
17.049700000000001
 21
-4.0910799999999998
 31
0.0
  0
LINE
  5
DE
  8
_________2
 62
     7
 10
17.049700000000001
 20
-4.0910799999999998
 30
0.0
 11
17.049700000000001
 21
258.911
 31
0.0
  0
LINE
  5
DF
  8
_________2
 62
     7
 10
17.049700000000001
 20
258.911
 30
0.0
 11
183.55099999999999
 21
258.911
 31
0.0
  0
LINE
  5
E0
  8
_________2
 62
     7
 10
183.55099999999999
 20
258.911
 30
0.0
 11
183.55099999999999
 21
-4.0910799999999998
 31
0.0
  0
LINE
  5
E1
  8
_________2
 62
     7
 10
65.549899999999994
 20
9.4092999999999982
 30
0.0
 11
65.549899999999994
 21
35.909100000000002
 31
0.0
  0
LINE
  5
E2
  8
_________2
 62
     7
 10
84.550099999999986
 20
9.4092999999999982
 30
0.0
 11
84.550099999999986
 21
35.909100000000002
 31
0.0
  0
LINE
  5
E3
  8
_________2
 62
     7
 10
103.55
 20
-4.0910799999999998
 30
0.0
 11
103.55
 21
35.909100000000002
 31
0.0
  0
LINE
  5
E4
  8
_________2
 62
     7
 10
28.549900000000001
 20
9.4092999999999982
 30
0.0
 11
28.549900000000001
 21
23.409199999999998
 31
0.0
  0
LINE
  5
E5
  8
_________2
 62
     7
 10
17.049700000000001
 20
9.4092999999999982
 30
0.0
 11
103.55
 21
9.4092999999999982
 31
0.0
  0
LINE
  5
E6
  8
_________2
 62
     7
 10
17.049700000000001
 20
23.409199999999998
 30
0.0
 11
103.55
 21
23.409199999999998
 31
0.0
  0
LINE
  5
E7
  8
_________2
 62
     7
 10
103.55
 20
15.90889999999999
 30
0.0
 11
183.55099999999999
 21
15.90889999999999
 31
0.0
  0
LINE
  5
E8
  8
_________2
 62
     7
 10
17.049700000000001
 20
35.909100000000002
 30
0.0
 11
183.55099999999999
 21
35.909100000000002
 31
0.0
  0
ENDSEC
  0
EOF
