  0
SECTION
  2
HEADER
  9
$ACADVER
  1
AC1009
  9
$INSBASE
 10
0.0
 20
0.0
 30
0.0
  9
$EXTMIN
 10
-4.7003500000000003
 20
-21.070999999999991
 30
0.0
  9
$EXTMAX
 10
205.30099999999999
 20
275.93099999999993
 30
0.0
  9
$LIMMIN
 10
0.0
 20
0.0
  9
$LIMMAX
 10
12.0
 20
9.0
  9
$ORTHOMODE
 70
     0
  9
$REGENMODE
 70
     1
  9
$FILLMODE
 70
     1
  9
$QTEXTMODE
 70
     0
  9
$MIRRTEXT
 70
     1
  9
$DRAGMODE
 70
     2
  9
$LTSCALE
 40
1.0
  9
$OSMODE
 70
    37
  9
$ATTMODE
 70
     1
  9
$TEXTSIZE
 40
0.0
  9
$TRACEWID
 40
0.05
  9
$TEXTSTYLE
  7
STANDARD
  9
$CLAYER
  8
0
  9
$CELTYPE
  6
CONTINUOUS
  9
$CECOLOR
 62
   256
  9
$DIMSCALE
 40
1.0
  9
$DIMASZ
 40
0.18
  9
$DIMEXO
 40
0.0625
  9
$DIMDLI
 40
0.38
  9
$DIMRND
 40
0.0
  9
$DIMDLE
 40
0.0
  9
$DIMEXE
 40
0.18
  9
$DIMTP
 40
0.0
  9
$DIMTM
 40
0.0
  9
$DIMTXT
 40
0.18
  9
$DIMCEN
 40
0.09
  9
$DIMTSZ
 40
0.0
  9
$DIMTOL
 70
     0
  9
$DIMLIM
 70
     0
  9
$DIMTIH
 70
     1
  9
$DIMTOH
 70
     1
  9
$DIMSE1
 70
     0
  9
$DIMSE2
 70
     0
  9
$DIMTAD
 70
     0
  9
$DIMZIN
 70
     0
  9
$DIMBLK
  1

  9
$DIMASO
 70
     1
  9
$DIMSHO
 70
     1
  9
$DIMPOST
  1

  9
$DIMAPOST
  1

  9
$DIMALT
 70
     0
  9
$DIMALTD
 70
     2
  9
$DIMALTF
 40
25.399999999999999
  9
$DIMLFAC
 40
1.0
  9
$DIMTOFL
 70
     0
  9
$DIMTVP
 40
0.0
  9
$DIMTIX
 70
     0
  9
$DIMSOXD
 70
     0
  9
$DIMSAH
 70
     0
  9
$DIMBLK1
  1

  9
$DIMBLK2
  1

  9
$DIMSTYLE
  2
STANDARD
  9
$DIMCLRD
 70
     0
  9
$DIMCLRE
 70
     0
  9
$DIMCLRT
 70
     0
  9
$DIMTFAC
 40
1.0
  9
$DIMGAP
 40
0.09
  9
$LUNITS
 70
     2
  9
$LUPREC
 70
     4
  9
$SKETCHINC
 40
0.1
  9
$FILLETRAD
 40
0.0
  9
$AUNITS
 70
     0
  9
$AUPREC
 70
     0
  9
$MENU
  1
.
  9
$ELEVATION
 40
0.0
  9
$PELEVATION
 40
0.0
  9
$THICKNESS
 40
0.0
  9
$LIMCHECK
 70
     0
  9
$BLIPMODE
 70
     0
  9
$CHAMFERA
 40
0.0
  9
$CHAMFERB
 40
0.0
  9
$SKPOLY
 70
     0
  9
$TDCREATE
 40
2444972.375
  9
$TDUPDATE
 40
2453719.2550855321
  9
$TDINDWG
 40
0.000011875
  9
$TDUSRTIMER
 40
0.000011875
  9
$USRTIMER
 70
     1
  9
$ANGBASE
 50
0.0
  9
$ANGDIR
 70
     0
  9
$PDMODE
 70
     0
  9
$PDSIZE
 40
0.0
  9
$PLINEWID
 40
0.0
  9
$COORDS
 70
     1
  9
$SPLFRAME
 70
     0
  9
$SPLINETYPE
 70
     6
  9
$SPLINESEGS
 70
     8
  9
$ATTDIA
 70
     0
  9
$ATTREQ
 70
     1
  9
$HANDLING
 70
     1
  9
$HANDSEED
  5
13A
  9
$SURFTAB1
 70
     6
  9
$SURFTAB2
 70
     6
  9
$SURFTYPE
 70
     6
  9
$SURFU
 70
     6
  9
$SURFV
 70
     6
  9
$UCSNAME
  2

  9
$UCSORG
 10
0.0
 20
0.0
 30
0.0
  9
$UCSXDIR
 10
1.0
 20
0.0
 30
0.0
  9
$UCSYDIR
 10
0.0
 20
1.0
 30
0.0
  9
$PUCSNAME
  2

  9
$PUCSORG
 10
0.0
 20
0.0
 30
0.0
  9
$PUCSXDIR
 10
1.0
 20
0.0
 30
0.0
  9
$PUCSYDIR
 10
0.0
 20
1.0
 30
0.0
  9
$USERI1
 70
     0
  9
$USERI2
 70
     0
  9
$USERI3
 70
     0
  9
$USERI4
 70
     0
  9
$USERI5
 70
     0
  9
$USERR1
 40
0.0
  9
$USERR2
 40
0.0
  9
$USERR3
 40
0.0
  9
$USERR4
 40
0.0
  9
$USERR5
 40
0.0
  9
$WORLDVIEW
 70
     1
  9
$SHADEDGE
 70
     3
  9
$SHADEDIF
 70
    70
  9
$TILEMODE
 70
     1
  9
$MAXACTVP
 70
    48
  9
$PLIMCHECK
 70
     0
  9
$PEXTMIN
 10
1.0000000000000000E+020
 20
1.0000000000000000E+020
 30
1.0000000000000000E+020
  9
$PEXTMAX
 10
-1.0000000000000000E+020
 20
-1.0000000000000000E+020
 30
-1.0000000000000000E+020
  9
$PLIMMIN
 10
0.0
 20
0.0
  9
$PLIMMAX
 10
12.0
 20
9.0
  9
$UNITMODE
 70
     0
  9
$VISRETAIN
 70
     1
  9
$PLINEGEN
 70
     0
  9
$PSLTSCALE
 70
     1
  0
ENDSEC
  0
SECTION
  2
TABLES
  0
TABLE
  2
VPORT
 70
     2
  0
VPORT
  2
*ACTIVE
 70
     0
 10
0.0
 20
0.0
 11
1.0
 21
1.0
 12
189.56082129873209
 22
127.42999999999989
 13
0.0
 23
0.0
 14
1.0
 24
1.0
 15
0.0
 25
0.0
 16
0.0
 26
0.0
 36
1.0
 17
0.0
 27
0.0
 37
0.0
 40
299.24634760705283
 41
2.1842105263157889
 42
50.0
 43
0.0
 44
0.0
 50
0.0
 51
0.0
 71
     0
 72
   100
 73
     1
 74
     1
 75
     0
 76
     0
 77
     0
 78
     0
  0
ENDTAB
  0
TABLE
  2
LTYPE
 70
     3
  0
LTYPE
  2
CONTINUOUS
 70
     0
  3
Solid line
 72
    65
 73
     0
 40
0.0
  0
LTYPE
  2
AIGENLINE001
 70
     0
  3
generate AI->DXF Converter
 72
    65
 73
     4
 40
5.8561449999999988
 49
3.5278
 49
-0.776115
 49
0.776115
 49
-0.776115
  0
LTYPE
  2
AIGENLINE002
 70
     0
  3
generate AI->DXF Converter
 72
    65
 73
     2
 40
1.5522299999999991
 49
0.776115
 49
-0.776115
  0
ENDTAB
  0
TABLE
  2
LAYER
 70
     2
  0
LAYER
  2
0
 70
     0
 62
     7
  6
CONTINUOUS
  0
LAYER
  2
_________2
 70
     0
 62
     7
  6
CONTINUOUS
  0
ENDTAB
  0
TABLE
  2
STYLE
 70
     1
  0
STYLE
  2
STANDARD
 70
     0
 40
0.0
 41
0.0
 50
0.0
 71
     0
 42
0.0
  3
TXT
  4
EXTFONT.SHX
  0
ENDTAB
  0
TABLE
  2
VIEW
 70
     0
  0
ENDTAB
  0
TABLE
  2
UCS
 70
     0
  0
ENDTAB
  0
TABLE
  2
APPID
 70
     1
  0
APPID
  2
ACAD
 70
     0
  0
ENDTAB
  0
TABLE
  2
DIMSTYLE
 70
     1
  0
DIMSTYLE
  2
STANDARD
 70
     0
  3

  4

  5

  6

  7

 40
1.0
 41
0.18
 42
0.0625
 43
0.38
 44
0.18
 45
0.0
 46
0.0
 47
0.0
 48
0.0
140
0.18
141
0.09
142
0.0
143
25.399999999999999
144
1.0
145
0.0
146
1.0
147
0.09
 71
     0
 72
     0
 73
     1
 74
     1
 75
     0
 76
     0
 77
     0
 78
     0
170
     0
171
     2
172
     0
173
     0
174
     0
175
     0
176
     0
177
     0
178
     0
  0
ENDTAB
  0
ENDSEC
  0
SECTION
  2
BLOCKS
  0
BLOCK
  8
0
  2
$MODEL_SPACE
 70
     0
 10
0.0
 20
0.0
 30
0.0
  3
$MODEL_SPACE
  1

  0
ENDBLK
  5
1A
  8
0
  0
BLOCK
 67
     1
  8
0
  2
$PAPER_SPACE
 70
     0
 10
0.0
 20
0.0
 30
0.0
  3
$PAPER_SPACE
  1

  0
ENDBLK
  5
17
 67
     1
  8
0
  0
ENDSEC
  0
SECTION
  2
ENTITIES
  0
TEXT
  5
23
  8
0
 62
     7
 10
165.8659999999999
 20
109.93544
 30
0.0
 40
3.0923400000000001
  1
%%c45
 50
90.0
 41
0.5
 72
     1
 11
165.8659999999999
 21
111.997
 31
0.0
  0
TEXT
  5
24
  8
0
 62
     7
 10
125.2829999999999
 20
134.55228750000001
 30
0.0
 40
3.0923400000000001
  1
%%c20
 50
90.0
 41
0.5
 72
     1
 11
125.2829999999999
 21
136.48500000000001
 31
0.0
  0
TEXT
  5
25
  8
0
 62
     7
 10
165.744
 20
147.5343724999999
 30
0.0
 40
3.0923400000000001
  1
50
 50
90.0
 41
0.5
 72
     1
 11
165.744
 21
148.6939999999999
 31
0.0
  0
TEXT
  5
26
  8
0
 62
     7
 10
93.634140000000002
 20
178.078
 30
0.0
 40
3.0923400000000001
  1
628
 41
0.5
 72
     1
 11
95.695700000000002
 21
178.078
 31
0.0
  0
TEXT
  5
27
  8
0
 62
     7
 10
93.634140000000002
 20
169.738
 30
0.0
 40
3.0923400000000001
  1
583
 41
0.5
 72
     1
 11
95.695700000000002
 21
169.738
 31
0.0
  0
TEXT
  5
28
  8
0
 62
     7
 10
152.59252499999999
 20
122.55500000000001
 30
0.0
 40
3.0923400000000001
  1
26
 41
0.5
 72
     1
 11
153.88099999999989
 21
122.55500000000001
 31
0.0
  0
LINE
  5
29
  8
0
 62
     7
 10
151.71199999999999
 20
154.762
 30
0.0
 11
150.64500000000001
 21
154.143
 31
0.0
  0
LINE
  5
2A
  8
0
 62
     7
 10
151.71199999999999
 20
155.37899999999999
 30
0.0
 11
150.64500000000001
 21
154.7589999999999
 31
0.0
  0
LINE
  5
2B
  8
0
 62
     7
 10
151.71199999999999
 20
155.99600000000001
 30
0.0
 11
150.64500000000001
 21
155.376
 31
0.0
  0
LINE
  5
2C
  8
0
 62
     7
 10
151.71199999999999
 20
156.61199999999991
 30
0.0
 11
150.64500000000001
 21
155.99299999999999
 31
0.0
  0
LINE
  5
2D
  8
0
 62
     7
 10
151.71199999999999
 20
157.2289999999999
 30
0.0
 11
150.64500000000001
 21
156.61000000000001
 31
0.0
  0
LINE
  5
2E
  8
0
 62
     7
 10
151.71199999999999
 20
157.84599999999989
 30
0.0
 11
150.64500000000001
 21
157.22599999999991
 31
0.0
  0
LINE
  5
2F
  8
0
 62
     7
 10
151.71199999999999
 20
158.46199999999999
 30
0.0
 11
150.64500000000001
 21
157.8429999999999
 31
0.0
  0
LINE
  5
30
  8
0
 62
     7
 10
151.71199999999999
 20
159.07900000000001
 30
0.0
 11
150.64500000000001
 21
158.46000000000001
 31
0.0
  0
LINE
  5
31
  8
0
 62
     7
 10
151.71199999999999
 20
159.69599999999991
 30
0.0
 11
150.64500000000001
 21
159.07599999999991
 31
0.0
  0
LINE
  5
32
  8
0
 62
     7
 10
151.71199999999999
 20
160.31200000000001
 30
0.0
 11
150.64500000000001
 21
159.6929999999999
 31
0.0
  0
LINE
  5
33
  8
0
 62
     7
 10
151.71199999999999
 20
160.929
 30
0.0
 11
150.64500000000001
 21
160.30999999999989
 31
0.0
  0
LINE
  5
34
  8
0
 62
     7
 10
151.71199999999999
 20
161.54599999999991
 30
0.0
 11
150.64500000000001
 21
160.92599999999999
 31
0.0
  0
LINE
  5
35
  8
0
 62
     7
 10
151.53899999999999
 20
161.465
 30
0.0
 11
151.18999999999991
 21
162.08799999999991
 31
0.0
  0
LINE
  5
36
  8
0
 62
     7
 10
151.18999999999991
 20
162.08799999999991
 30
0.0
 11
150.83999999999989
 21
161.465
 31
0.0
  0
LINE
  5
37
  8
0
 62
     7
 10
151.53899999999999
 20
154.08799999999999
 30
0.0
 11
151.53899999999999
 21
161.465
 31
0.0
  0
LINE
  5
38
  8
0
 62
     7
 10
150.83999999999989
 20
154.08799999999999
 30
0.0
 11
150.83999999999989
 21
161.465
 31
0.0
  0
LINE
  5
39
  8
0
  6
AIGENLINE001
 62
     7
 10
151.18999999999991
 20
153.1279999999999
 30
0.0
 11
151.18999999999991
 21
162.48099999999999
 31
0.0
  0
LINE
  5
3A
  8
0
 62
     7
 10
156.91200000000001
 20
154.762
 30
0.0
 11
155.845
 21
154.143
 31
0.0
  0
LINE
  5
3B
  8
0
 62
     7
 10
156.91200000000001
 20
155.37899999999999
 30
0.0
 11
155.845
 21
154.7589999999999
 31
0.0
  0
LINE
  5
3C
  8
0
 62
     7
 10
156.91200000000001
 20
155.99600000000001
 30
0.0
 11
155.845
 21
155.376
 31
0.0
  0
LINE
  5
3D
  8
0
 62
     7
 10
156.91200000000001
 20
156.61199999999991
 30
0.0
 11
155.845
 21
155.99299999999999
 31
0.0
  0
LINE
  5
3E
  8
0
 62
     7
 10
156.91200000000001
 20
157.2289999999999
 30
0.0
 11
155.845
 21
156.61000000000001
 31
0.0
  0
LINE
  5
3F
  8
0
 62
     7
 10
156.91200000000001
 20
157.84599999999989
 30
0.0
 11
155.845
 21
157.22599999999991
 31
0.0
  0
LINE
  5
40
  8
0
 62
     7
 10
156.91200000000001
 20
158.46199999999999
 30
0.0
 11
155.845
 21
157.8429999999999
 31
0.0
  0
LINE
  5
41
  8
0
 62
     7
 10
156.91200000000001
 20
159.07900000000001
 30
0.0
 11
155.845
 21
158.46000000000001
 31
0.0
  0
LINE
  5
42
  8
0
 62
     7
 10
156.91200000000001
 20
159.69599999999991
 30
0.0
 11
155.845
 21
159.07599999999991
 31
0.0
  0
LINE
  5
43
  8
0
 62
     7
 10
156.91200000000001
 20
160.31200000000001
 30
0.0
 11
155.845
 21
159.6929999999999
 31
0.0
  0
LINE
  5
44
  8
0
 62
     7
 10
156.91200000000001
 20
160.929
 30
0.0
 11
155.845
 21
160.30999999999989
 31
0.0
  0
LINE
  5
45
  8
0
 62
     7
 10
156.91200000000001
 20
161.54599999999991
 30
0.0
 11
155.845
 21
160.92599999999999
 31
0.0
  0
LINE
  5
46
  8
0
 62
     7
 10
156.74000000000001
 20
161.465
 30
0.0
 11
156.3899999999999
 21
162.08799999999991
 31
0.0
  0
LINE
  5
47
  8
0
 62
     7
 10
156.3899999999999
 20
162.08799999999991
 30
0.0
 11
156.03999999999999
 21
161.465
 31
0.0
  0
LINE
  5
48
  8
0
 62
     7
 10
156.74000000000001
 20
154.08799999999999
 30
0.0
 11
156.74000000000001
 21
161.465
 31
0.0
  0
LINE
  5
49
  8
0
 62
     7
 10
156.03999999999999
 20
154.08799999999999
 30
0.0
 11
156.03999999999999
 21
161.465
 31
0.0
  0
LINE
  5
4A
  8
0
  6
AIGENLINE001
 62
     7
 10
156.3899999999999
 20
153.1279999999999
 30
0.0
 11
156.3899999999999
 21
162.48099999999999
 31
0.0
  0
LINE
  5
4B
  8
0
 62
     7
 10
158.9789999999999
 20
154.08799999999999
 30
0.0
 11
167.45099999999991
 21
154.08799999999999
 31
0.0
  0
LINE
  5
4C
  8
0
 62
     7
 10
167.476
 20
151.8779999999999
 30
0.0
 11
166.88399999999999
 21
154.08799999999999
 31
0.0
  0
LINE
  5
4D
  8
0
 62
     7
 10
166.88399999999999
 20
154.08799999999999
 30
0.0
 11
166.291
 21
151.8779999999999
 31
0.0
  0
LINE
  5
4E
  8
0
 62
     7
 10
166.291
 20
151.8779999999999
 30
0.0
 11
167.476
 21
151.8779999999999
 31
0.0
  0
LINE
  5
4F
  8
0
 62
     7
 10
166.3059999999999
 20
146.29900000000001
 30
0.0
 11
166.89799999999991
 21
144.089
 31
0.0
  0
LINE
  5
50
  8
0
 62
     7
 10
166.89799999999991
 20
144.089
 30
0.0
 11
167.49000000000001
 21
146.29900000000001
 31
0.0
  0
LINE
  5
51
  8
0
 62
     7
 10
167.49000000000001
 20
146.29900000000001
 30
0.0
 11
166.3059999999999
 21
146.29900000000001
 31
0.0
  0
LINE
  5
52
  8
0
 62
     7
 10
166.89099999999991
 20
154.08799999999999
 30
0.0
 11
166.89099999999991
 21
144.089
 31
0.0
  0
LINE
  5
53
  8
0
 62
     7
 10
154.53
 20
144.089
 30
0.0
 11
167.45099999999991
 21
144.089
 31
0.0
  0
LINE
  5
54
  8
0
 62
     7
 10
127.72199999999999
 20
139.8779999999999
 30
0.0
 11
127.1299999999999
 21
142.08799999999991
 31
0.0
  0
LINE
  5
55
  8
0
 62
     7
 10
127.1299999999999
 20
142.08799999999991
 30
0.0
 11
126.5379999999999
 21
139.8779999999999
 31
0.0
  0
LINE
  5
56
  8
0
 62
     7
 10
126.5379999999999
 20
139.8779999999999
 30
0.0
 11
127.72199999999999
 21
139.8779999999999
 31
0.0
  0
LINE
  5
57
  8
0
 62
     7
 10
126.55200000000001
 20
148.29900000000001
 30
0.0
 11
127.14399999999991
 21
146.08799999999991
 31
0.0
  0
LINE
  5
58
  8
0
 62
     7
 10
127.14399999999991
 20
146.08799999999991
 30
0.0
 11
127.73699999999999
 21
148.29900000000001
 31
0.0
  0
LINE
  5
59
  8
0
 62
     7
 10
127.73699999999999
 20
148.29900000000001
 30
0.0
 11
126.55200000000001
 21
148.29900000000001
 31
0.0
  0
LINE
  5
5A
  8
0
 62
     7
 10
127.137
 20
150.1999999999999
 30
0.0
 11
127.137
 21
133.322
 31
0.0
  0
LINE
  5
5B
  8
0
 62
     7
 10
167.14400000000001
 20
109.685
 30
0.0
 11
167.73599999999999
 21
107.474
 31
0.0
  0
LINE
  5
5C
  8
0
 62
     7
 10
167.73599999999999
 20
107.474
 30
0.0
 11
168.328
 21
109.685
 31
0.0
  0
LINE
  5
5D
  8
0
 62
     7
 10
168.328
 20
109.685
 30
0.0
 11
167.14400000000001
 21
109.685
 31
0.0
  0
LINE
  5
5E
  8
0
 62
     7
 10
168.31399999999999
 20
114.26300000000001
 30
0.0
 11
167.72200000000001
 21
116.4739999999999
 31
0.0
  0
LINE
  5
5F
  8
0
 62
     7
 10
167.72200000000001
 20
116.4739999999999
 30
0.0
 11
167.13
 21
114.26300000000001
 31
0.0
  0
LINE
  5
60
  8
0
 62
     7
 10
167.13
 20
114.26300000000001
 30
0.0
 11
168.31399999999999
 21
114.26300000000001
 31
0.0
  0
LINE
  5
61
  8
0
 62
     7
 10
167.72900000000001
 20
107.474
 30
0.0
 11
167.72900000000001
 21
116.4739999999999
 31
0.0
  0
LINE
  5
62
  8
0
 62
     7
 10
155.33099999999999
 20
116.4739999999999
 30
0.0
 11
168.20400000000001
 21
116.4739999999999
 31
0.0
  0
LINE
  5
63
  8
0
 62
     7
 10
155.33099999999999
 20
107.474
 30
0.0
 11
168.20400000000001
 21
107.474
 31
0.0
  0
LINE
  5
64
  8
0
 62
     7
 10
153.39999999999989
 20
121.855
 30
0.0
 11
151.18999999999991
 21
121.26299999999991
 31
0.0
  0
LINE
  5
65
  8
0
 62
     7
 10
151.18999999999991
 20
121.26299999999991
 30
0.0
 11
153.39999999999989
 21
120.67
 31
0.0
  0
LINE
  5
66
  8
0
 62
     7
 10
153.39999999999989
 20
120.67
 30
0.0
 11
153.39999999999989
 21
121.855
 31
0.0
  0
LINE
  5
67
  8
0
 62
     7
 10
154.17899999999989
 20
120.6849999999999
 30
0.0
 11
156.3899999999999
 21
121.277
 31
0.0
  0
LINE
  5
68
  8
0
 62
     7
 10
156.3899999999999
 20
121.277
 30
0.0
 11
154.17899999999989
 21
121.869
 31
0.0
  0
LINE
  5
69
  8
0
 62
     7
 10
154.17899999999989
 20
121.869
 30
0.0
 11
154.17899999999989
 21
120.6849999999999
 31
0.0
  0
LINE
  5
6A
  8
0
 62
     7
 10
151.18999999999991
 20
121.2699999999999
 30
0.0
 11
156.3899999999999
 21
121.2699999999999
 31
0.0
  0
LINE
  5
6B
  8
0
 62
     7
 10
156.3899999999999
 20
113.2579999999999
 30
0.0
 11
156.3899999999999
 21
121.682
 31
0.0
  0
LINE
  5
6C
  8
0
 62
     7
 10
151.18999999999991
 20
113.2579999999999
 30
0.0
 11
151.18999999999991
 21
121.652
 31
0.0
  0
LINE
  5
6D
  8
0
 62
     7
 10
156.07900000000001
 20
176.43000000000001
 30
0.0
 11
158.2889999999999
 21
177.02199999999999
 31
0.0
  0
LINE
  5
6E
  8
0
 62
     7
 10
158.2889999999999
 20
177.02199999999999
 30
0.0
 11
156.07900000000001
 21
177.614
 31
0.0
  0
LINE
  5
6F
  8
0
 62
     7
 10
156.07900000000001
 20
177.614
 30
0.0
 11
156.07900000000001
 21
176.43000000000001
 31
0.0
  0
LINE
  5
70
  8
0
 62
     7
 10
34.8994
 20
177.59999999999991
 30
0.0
 11
32.689
 21
177.00700000000001
 31
0.0
  0
LINE
  5
71
  8
0
 62
     7
 10
32.689
 20
177.00700000000001
 30
0.0
 11
34.8994
 21
176.41499999999991
 31
0.0
  0
LINE
  5
72
  8
0
 62
     7
 10
34.8994
 20
176.41499999999991
 30
0.0
 11
34.8994
 21
177.59999999999991
 31
0.0
  0
LINE
  5
73
  8
0
 62
     7
 10
158.2889999999999
 20
177.0149999999999
 30
0.0
 11
32.688800000000001
 21
177.0149999999999
 31
0.0
  0
LINE
  5
74
  8
0
 62
     7
 10
39.399399999999993
 20
169.28200000000001
 30
0.0
 11
37.189
 21
168.69
 31
0.0
  0
LINE
  5
75
  8
0
 62
     7
 10
37.189
 20
168.69
 30
0.0
 11
39.399399999999993
 21
168.0979999999999
 31
0.0
  0
LINE
  5
76
  8
0
 62
     7
 10
39.399399999999993
 20
168.0979999999999
 30
0.0
 11
39.399399999999993
 21
169.28200000000001
 31
0.0
  0
LINE
  5
77
  8
0
 62
     7
 10
151.57900000000001
 20
168.11199999999991
 30
0.0
 11
153.7889999999999
 21
168.70500000000001
 31
0.0
  0
LINE
  5
78
  8
0
 62
     7
 10
153.7889999999999
 20
168.70500000000001
 30
0.0
 11
151.57900000000001
 21
169.297
 31
0.0
  0
LINE
  5
79
  8
0
 62
     7
 10
151.57900000000001
 20
169.297
 30
0.0
 11
151.57900000000001
 21
168.11199999999991
 31
0.0
  0
LINE
  5
7A
  8
0
 62
     7
 10
37.188800000000001
 20
168.697
 30
0.0
 11
153.7889999999999
 21
168.697
 31
0.0
  0
LINE
  5
7B
  8
0
  6
AIGENLINE001
 62
     7
 10
156.3899999999999
 20
110.976
 30
0.0
 11
156.3899999999999
 21
113.0649999999999
 31
0.0
  0
ARC
  5
7C
  8
0
  6
AIGENLINE002
 62
     7
 10
156.366219
 20
111.951104
 30
0.0
 40
0.623369
 50
2.0948000000000002
 51
87.839369999999988
  0
ARC
  5
7D
  8
0
  6
AIGENLINE002
 62
     7
 10
156.41253499999999
 20
111.951076
 30
0.0
 40
0.623372
 50
92.097397000000015
 51
177.9025729999999
  0
ARC
  5
7E
  8
0
  6
AIGENLINE002
 62
     7
 10
156.41223400000001
 20
111.996762
 30
0.0
 40
0.623073
 50
182.10369499999999
 51
267.92923500000001
  0
ARC
  5
7F
  8
0
  6
AIGENLINE002
 62
     7
 10
156.367074
 20
111.996179
 30
0.0
 40
0.622495
 50
272.08484700000002
 51
357.948082
  0
LINE
  5
80
  8
0
  6
AIGENLINE001
 62
     7
 10
151.18999999999991
 20
110.976
 30
0.0
 11
151.18999999999991
 21
113.0649999999999
 31
0.0
  0
ARC
  5
81
  8
0
  6
AIGENLINE002
 62
     7
 10
151.1668249999999
 20
111.95105599999999
 30
0.0
 40
0.6233920000000001
 50
2.099199
 51
87.900792000000024
  0
ARC
  5
82
  8
0
  6
AIGENLINE002
 62
     7
 10
151.21250499999991
 20
111.95104599999991
 30
0.0
 40
0.6234029999999999
 50
92.100058999999973
 51
177.89991099999989
  0
ARC
  5
83
  8
0
  6
AIGENLINE002
 62
     7
 10
151.21217399999989
 20
111.996762
 30
0.0
 40
0.623073
 50
182.10369499999999
 51
267.92923500000001
  0
ARC
  5
84
  8
0
  6
AIGENLINE002
 62
     7
 10
151.16723400000001
 20
111.9966739999999
 30
0.0
 40
0.622983
 50
272.0630129999999
 51
357.90409699999998
  0
LINE
  5
85
  8
0
 62
     7
 10
153.7889999999999
 20
169.2229999999999
 30
0.0
 11
153.7889999999999
 21
155.5629999999999
 31
0.0
  0
LINE
  5
86
  8
0
 62
     7
 10
147.99299999999991
 20
113.9739999999999
 30
0.0
 11
147.99299999999991
 21
109.9739999999999
 31
0.0
  0
LINE
  5
87
  8
0
 62
     7
 10
148.53499999999991
 20
113.9739999999999
 30
0.0
 11
148.53499999999991
 21
109.9739999999999
 31
0.0
  0
ARC
  5
88
  8
0
 62
     7
 10
153.7895179999999
 20
111.9740629999999
 30
0.0
 40
2.000062999999999
 50
269.99508500000002
 51
359.99505499999992
  0
ARC
  5
89
  8
0
 62
     7
 10
153.71320800000001
 20
111.8973959999999
 30
0.0
 40
2.0777809999999999
 50
2.109856999999999
 51
87.900001999999986
  0
ARC
  5
8A
  8
0
 62
     7
 10
153.78940899999989
 20
111.974422
 30
0.0
 40
4.5005600000000001
 50
206.37069099999999
 51
296.36713399999991
  0
ARC
  5
8B
  8
0
 62
     7
 10
153.68808000000001
 20
112.03660000000001
 30
0.0
 40
4.601704999999999
 50
297.15371899999991
 51
359.21918499999992
  0
ARC
  5
8C
  8
0
 62
     7
 10
153.789345
 20
111.9738899999999
 30
0.0
 40
4.500013
 50
0.00001
 51
89.999980000000008
  0
ARC
  5
8D
  8
0
 62
     7
 10
153.851472
 20
111.8732899999999
 30
0.0
 40
4.601032
 50
90.773658999999995
 51
152.856101
  0
LINE
  5
8E
  8
0
  6
AIGENLINE001
 62
     7
 10
153.7889999999999
 20
106.1599999999999
 30
0.0
 11
153.7889999999999
 21
117.788
 31
0.0
  0
LINE
  5
8F
  8
0
 62
     7
 10
147.99299999999991
 20
146.08799999999991
 30
0.0
 11
147.99299999999991
 21
142.08799999999991
 31
0.0
  0
LINE
  5
90
  8
0
 62
     7
 10
148.53499999999991
 20
146.08799999999991
 30
0.0
 11
148.53499999999991
 21
142.08799999999991
 31
0.0
  0
LINE
  5
91
  8
0
 62
     7
 10
152.29099999999991
 20
148.08799999999991
 30
0.0
 11
152.29099999999991
 21
150.089
 31
0.0
  0
LINE
  5
92
  8
0
 62
     7
 10
155.28700000000001
 20
148.08799999999991
 30
0.0
 11
155.28700000000001
 21
150.089
 31
0.0
  0
LINE
  5
93
  8
0
  6
AIGENLINE001
 62
     7
 10
153.7889999999999
 20
144.089
 30
0.0
 11
153.7889999999999
 21
155.1929999999999
 31
0.0
  0
LINE
  5
94
  8
0
 62
     7
 10
151.78999999999999
 20
150.089
 30
0.0
 11
151.78999999999999
 21
152.08799999999999
 31
0.0
  0
LINE
  5
95
  8
0
 62
     7
 10
151.78999999999999
 20
146.08799999999991
 30
0.0
 11
151.78999999999999
 21
148.08799999999991
 31
0.0
  0
LINE
  5
96
  8
0
 62
     7
 10
155.78999999999999
 20
150.089
 30
0.0
 11
155.78999999999999
 21
152.08799999999999
 31
0.0
  0
LINE
  5
97
  8
0
 62
     7
 10
155.78999999999999
 20
142.08799999999991
 30
0.0
 11
155.78999999999999
 21
148.08799999999991
 31
0.0
  0
LINE
  5
98
  8
0
 62
     7
 10
149.2889999999999
 20
152.08799999999999
 30
0.0
 11
149.2889999999999
 21
154.08799999999999
 31
0.0
  0
LINE
  5
99
  8
0
 62
     7
 10
158.2889999999999
 20
152.08799999999999
 30
0.0
 11
158.2889999999999
 21
154.08799999999999
 31
0.0
  0
LINE
  5
9A
  8
0
 62
     7
 10
155.7889999999999
 20
148.08799999999991
 30
0.0
 11
151.78999999999999
 21
148.08799999999991
 31
0.0
  0
LINE
  5
9B
  8
0
 62
     7
 10
155.78999999999999
 20
150.089
 30
0.0
 11
151.78999999999999
 21
150.089
 31
0.0
  0
LINE
  5
9C
  8
0
 62
     7
 10
158.2889999999999
 20
152.08799999999999
 30
0.0
 11
149.2889999999999
 21
152.08799999999999
 31
0.0
  0
LINE
  5
9D
  8
0
 62
     7
 10
158.2889999999999
 20
154.08799999999999
 30
0.0
 11
149.2889999999999
 21
154.08799999999999
 31
0.0
  0
LINE
  5
9E
  8
0
  6
AIGENLINE001
 62
     7
 10
34.588799999999999
 20
110.976
 30
0.0
 11
34.588799999999999
 21
113.0649999999999
 31
0.0
  0
ARC
  5
9F
  8
0
  6
AIGENLINE002
 62
     7
 10
34.56597
 20
111.95105599999999
 30
0.0
 40
0.6233920000000001
 50
2.099199
 51
87.900792000000024
  0
ARC
  5
A0
  8
0
  6
AIGENLINE002
 62
     7
 10
34.611654999999992
 20
111.9510409999999
 30
0.0
 40
0.623408
 50
92.100503000000003
 51
177.8994669999999
  0
ARC
  5
A1
  8
0
  6
AIGENLINE002
 62
     7
 10
34.611516999999999
 20
111.99696
 30
0.0
 40
0.623278
 50
182.121184
 51
267.91174599999999
  0
ARC
  5
A2
  8
0
  6
AIGENLINE002
 62
     7
 10
34.566378999999998
 20
111.9966739999999
 30
0.0
 40
0.622983
 50
272.0630129999999
 51
357.90409699999998
  0
LINE
  5
A3
  8
0
  6
AIGENLINE001
 62
     7
 10
39.788899999999991
 20
110.976
 30
0.0
 11
39.788899999999991
 21
113.0649999999999
 31
0.0
  0
ARC
  5
A4
  8
0
  6
AIGENLINE002
 62
     7
 10
39.765696999999989
 20
111.95108
 30
0.0
 40
0.6233800000000001
 50
2.0969989999999998
 51
87.870091000000002
  0
ARC
  5
A5
  8
0
  6
AIGENLINE002
 62
     7
 10
39.811715
 20
111.9510409999999
 30
0.0
 40
0.623408
 50
92.100503000000003
 51
177.8994669999999
  0
ARC
  5
A6
  8
0
  6
AIGENLINE002
 62
     7
 10
39.811577
 20
111.99696
 30
0.0
 40
0.623278
 50
182.121184
 51
267.91174599999999
  0
ARC
  5
A7
  8
0
  6
AIGENLINE002
 62
     7
 10
39.766449000000001
 20
111.996307
 30
0.0
 40
0.6226149999999999
 50
272.06332200000003
 51
357.936688
  0
LINE
  5
A8
  8
0
 62
     7
 10
158.2889999999999
 20
177.50599999999989
 30
0.0
 11
158.2889999999999
 21
154.44999999999999
 31
0.0
  0
LINE
  5
A9
  8
0
 62
     7
 10
32.688800000000001
 20
177.50599999999989
 30
0.0
 11
32.688800000000001
 21
154.44999999999999
 31
0.0
  0
LINE
  5
AA
  8
0
 62
     7
 10
37.188800000000001
 20
169.2229999999999
 30
0.0
 11
37.188800000000001
 21
155.5629999999999
 31
0.0
  0
LINE
  5
AB
  8
0
  6
AIGENLINE001
 62
     7
 10
31.436900000000001
 20
111.9739999999999
 30
0.0
 11
159.75399999999991
 21
111.9739999999999
 31
0.0
  0
LINE
  5
AC
  8
0
 62
     7
 10
42.985199999999992
 20
113.9739999999999
 30
0.0
 11
42.985199999999992
 21
109.9739999999999
 31
0.0
  0
LINE
  5
AD
  8
0
 62
     7
 10
42.442999999999998
 20
113.9739999999999
 30
0.0
 11
42.442999999999998
 21
109.9739999999999
 31
0.0
  0
LINE
  5
AE
  8
0
 62
     7
 10
37.188800000000001
 20
109.9739999999999
 30
0.0
 11
153.7889999999999
 21
109.9739999999999
 31
0.0
  0
LINE
  5
AF
  8
0
 62
     7
 10
37.188800000000001
 20
113.9739999999999
 30
0.0
 11
153.7889999999999
 21
113.9739999999999
 31
0.0
  0
ARC
  5
B0
  8
0
 62
     7
 10
37.265315000000001
 20
111.89741100000001
 30
0.0
 40
2.077777999999999
 50
92.109434999999991
 51
177.890535
  0
ARC
  5
B1
  8
0
 62
     7
 10
37.188834999999997
 20
111.9738899999999
 30
0.0
 40
1.9998899999999999
 50
179.99996999999991
 51
270.00002000000001
  0
ARC
  5
B2
  8
0
 62
     7
 10
37.188834999999997
 20
111.9738889999999
 30
0.0
 40
4.4999599999999988
 50
26.366925999999999
 51
116.366896
  0
ARC
  5
B3
  8
0
 62
     7
 10
37.188662000000001
 20
111.97371799999991
 30
0.0
 40
4.5000359999999988
 50
116.363957
 51
206.36400699999999
  0
ARC
  5
B4
  8
0
 62
     7
 10
37.188726000000003
 20
111.9742489999999
 30
0.0
 40
4.5003289999999989
 50
206.36969999999999
 51
296.36614300000002
  0
ARC
  5
B5
  8
0
 62
     7
 10
37.160928999999989
 20
112.0017959999999
 30
0.0
 40
4.5373720000000004
 50
296.52614799999992
 51
333.473861
  0
LINE
  5
B6
  8
0
  6
AIGENLINE001
 62
     7
 10
37.188800000000001
 20
106.1599999999999
 30
0.0
 11
37.188800000000001
 21
117.788
 31
0.0
  0
LINE
  5
B7
  8
0
 62
     7
 10
35.111400000000003
 20
154.762
 30
0.0
 11
34.0441
 21
154.143
 31
0.0
  0
LINE
  5
B8
  8
0
 62
     7
 10
35.111400000000003
 20
155.37899999999999
 30
0.0
 11
34.0441
 21
154.7589999999999
 31
0.0
  0
LINE
  5
B9
  8
0
 62
     7
 10
35.111400000000003
 20
155.99600000000001
 30
0.0
 11
34.0441
 21
155.376
 31
0.0
  0
LINE
  5
BA
  8
0
 62
     7
 10
35.111400000000003
 20
156.61199999999991
 30
0.0
 11
34.0441
 21
155.99299999999999
 31
0.0
  0
LINE
  5
BB
  8
0
 62
     7
 10
35.111400000000003
 20
157.2289999999999
 30
0.0
 11
34.0441
 21
156.61000000000001
 31
0.0
  0
LINE
  5
BC
  8
0
 62
     7
 10
35.111400000000003
 20
157.84599999999989
 30
0.0
 11
34.0441
 21
157.22599999999991
 31
0.0
  0
LINE
  5
BD
  8
0
 62
     7
 10
35.111400000000003
 20
158.46199999999999
 30
0.0
 11
34.0441
 21
157.8429999999999
 31
0.0
  0
LINE
  5
BE
  8
0
 62
     7
 10
35.111400000000003
 20
159.07900000000001
 30
0.0
 11
34.0441
 21
158.46000000000001
 31
0.0
  0
LINE
  5
BF
  8
0
 62
     7
 10
35.111400000000003
 20
159.69599999999991
 30
0.0
 11
34.0441
 21
159.07599999999991
 31
0.0
  0
LINE
  5
C0
  8
0
 62
     7
 10
35.111400000000003
 20
160.31200000000001
 30
0.0
 11
34.0441
 21
159.6929999999999
 31
0.0
  0
LINE
  5
C1
  8
0
 62
     7
 10
35.111400000000003
 20
160.929
 30
0.0
 11
34.0441
 21
160.30999999999989
 31
0.0
  0
LINE
  5
C2
  8
0
 62
     7
 10
35.111400000000003
 20
161.54599999999991
 30
0.0
 11
34.0441
 21
160.92599999999999
 31
0.0
  0
LINE
  5
C3
  8
0
 62
     7
 10
34.938499999999998
 20
161.465
 30
0.0
 11
34.588799999999999
 21
162.08799999999991
 31
0.0
  0
LINE
  5
C4
  8
0
 62
     7
 10
34.588799999999999
 20
162.08799999999991
 30
0.0
 11
34.238799999999998
 21
161.465
 31
0.0
  0
LINE
  5
C5
  8
0
 62
     7
 10
34.938499999999998
 20
154.08799999999999
 30
0.0
 11
34.938499999999998
 21
161.465
 31
0.0
  0
LINE
  5
C6
  8
0
 62
     7
 10
34.238799999999998
 20
154.08799999999999
 30
0.0
 11
34.238799999999998
 21
161.465
 31
0.0
  0
LINE
  5
C7
  8
0
  6
AIGENLINE001
 62
     7
 10
34.588799999999999
 20
153.1279999999999
 30
0.0
 11
34.588799999999999
 21
162.48099999999999
 31
0.0
  0
LINE
  5
C8
  8
0
 62
     7
 10
40.311500000000002
 20
154.762
 30
0.0
 11
39.2438
 21
154.143
 31
0.0
  0
LINE
  5
C9
  8
0
 62
     7
 10
40.311500000000002
 20
155.37899999999999
 30
0.0
 11
39.2438
 21
154.7589999999999
 31
0.0
  0
LINE
  5
CA
  8
0
 62
     7
 10
40.311500000000002
 20
155.99600000000001
 30
0.0
 11
39.2438
 21
155.376
 31
0.0
  0
LINE
  5
CB
  8
0
 62
     7
 10
40.311500000000002
 20
156.61199999999991
 30
0.0
 11
39.2438
 21
155.99299999999999
 31
0.0
  0
LINE
  5
CC
  8
0
 62
     7
 10
40.311500000000002
 20
157.2289999999999
 30
0.0
 11
39.2438
 21
156.61000000000001
 31
0.0
  0
LINE
  5
CD
  8
0
 62
     7
 10
40.311500000000002
 20
157.84599999999989
 30
0.0
 11
39.2438
 21
157.22599999999991
 31
0.0
  0
LINE
  5
CE
  8
0
 62
     7
 10
40.311500000000002
 20
158.46199999999999
 30
0.0
 11
39.2438
 21
157.8429999999999
 31
0.0
  0
LINE
  5
CF
  8
0
 62
     7
 10
40.311500000000002
 20
159.07900000000001
 30
0.0
 11
39.2438
 21
158.46000000000001
 31
0.0
  0
LINE
  5
D0
  8
0
 62
     7
 10
40.311500000000002
 20
159.69599999999991
 30
0.0
 11
39.2438
 21
159.07599999999991
 31
0.0
  0
LINE
  5
D1
  8
0
 62
     7
 10
40.311500000000002
 20
160.31200000000001
 30
0.0
 11
39.2438
 21
159.6929999999999
 31
0.0
  0
LINE
  5
D2
  8
0
 62
     7
 10
40.311500000000002
 20
160.929
 30
0.0
 11
39.2438
 21
160.30999999999989
 31
0.0
  0
LINE
  5
D3
  8
0
 62
     7
 10
40.311500000000002
 20
161.54599999999991
 30
0.0
 11
39.2438
 21
160.92599999999999
 31
0.0
  0
LINE
  5
D4
  8
0
 62
     7
 10
40.138899999999992
 20
161.465
 30
0.0
 11
39.788899999999991
 21
162.08799999999991
 31
0.0
  0
LINE
  5
D5
  8
0
 62
     7
 10
39.788899999999991
 20
162.08799999999991
 30
0.0
 11
39.438800000000001
 21
161.465
 31
0.0
  0
LINE
  5
D6
  8
0
 62
     7
 10
40.138899999999992
 20
154.08799999999999
 30
0.0
 11
40.138899999999992
 21
161.465
 31
0.0
  0
LINE
  5
D7
  8
0
 62
     7
 10
39.438800000000001
 20
154.08799999999999
 30
0.0
 11
39.438800000000001
 21
161.465
 31
0.0
  0
LINE
  5
D8
  8
0
  6
AIGENLINE001
 62
     7
 10
39.788899999999991
 20
153.1279999999999
 30
0.0
 11
39.788899999999991
 21
162.48099999999999
 31
0.0
  0
LINE
  5
D9
  8
0
 62
     7
 10
42.985199999999992
 20
146.08799999999991
 30
0.0
 11
42.985199999999992
 21
142.08799999999991
 31
0.0
  0
LINE
  5
DA
  8
0
 62
     7
 10
42.442999999999998
 20
146.08799999999991
 30
0.0
 11
42.442999999999998
 21
142.08799999999991
 31
0.0
  0
LINE
  5
DB
  8
0
 62
     7
 10
155.78999999999999
 20
142.08799999999991
 30
0.0
 11
35.18889999999999
 21
142.08799999999991
 31
0.0
  0
LINE
  5
DC
  8
0
  6
AIGENLINE001
 62
     7
 10
153.7889999999999
 20
144.089
 30
0.0
 11
37.188800000000001
 21
144.089
 31
0.0
  0
LINE
  5
DD
  8
0
 62
     7
 10
151.78999999999999
 20
146.08799999999991
 30
0.0
 11
39.188699999999997
 21
146.08799999999991
 31
0.0
  0
LINE
  5
DE
  8
0
 62
     7
 10
38.686399999999999
 20
148.08799999999991
 30
0.0
 11
38.686399999999999
 21
150.089
 31
0.0
  0
LINE
  5
DF
  8
0
 62
     7
 10
35.690899999999999
 20
148.08799999999991
 30
0.0
 11
35.690899999999999
 21
150.089
 31
0.0
  0
LINE
  5
E0
  8
0
  6
AIGENLINE001
 62
     7
 10
37.188800000000001
 20
144.089
 30
0.0
 11
37.188800000000001
 21
155.1929999999999
 31
0.0
  0
LINE
  5
E1
  8
0
 62
     7
 10
39.188699999999997
 20
150.089
 30
0.0
 11
39.188699999999997
 21
152.08799999999999
 31
0.0
  0
LINE
  5
E2
  8
0
 62
     7
 10
39.188699999999997
 20
146.08799999999991
 30
0.0
 11
39.188699999999997
 21
148.08799999999991
 31
0.0
  0
LINE
  5
E3
  8
0
 62
     7
 10
35.18889999999999
 20
150.089
 30
0.0
 11
35.18889999999999
 21
152.08799999999999
 31
0.0
  0
LINE
  5
E4
  8
0
 62
     7
 10
35.18889999999999
 20
142.08799999999991
 30
0.0
 11
35.18889999999999
 21
148.08799999999991
 31
0.0
  0
LINE
  5
E5
  8
0
 62
     7
 10
41.688800000000001
 20
152.08799999999999
 30
0.0
 11
41.688800000000001
 21
154.08799999999999
 31
0.0
  0
LINE
  5
E6
  8
0
 62
     7
 10
32.688800000000001
 20
152.08799999999999
 30
0.0
 11
32.688800000000001
 21
154.08799999999999
 31
0.0
  0
LINE
  5
E7
  8
0
 62
     7
 10
35.18889999999999
 20
148.08799999999991
 30
0.0
 11
39.188699999999997
 21
148.08799999999991
 31
0.0
  0
LINE
  5
E8
  8
0
 62
     7
 10
35.18889999999999
 20
150.089
 30
0.0
 11
39.188699999999997
 21
150.089
 31
0.0
  0
LINE
  5
E9
  8
0
 62
     7
 10
32.688800000000001
 20
152.08799999999999
 30
0.0
 11
41.688800000000001
 21
152.08799999999999
 31
0.0
  0
LINE
  5
EA
  8
0
 62
     7
 10
32.688800000000001
 20
154.08799999999999
 30
0.0
 11
41.688800000000001
 21
154.08799999999999
 31
0.0
  0
LINE
  5
EB
  8
_________2
 62
     7
 10
205.30099999999999
 20
127.411
 30
0.0
 11
183.55099999999999
 21
127.411
 31
0.0
  0
LINE
  5
EC
  8
_________2
 62
     7
 10
100.2999999999999
 20
-4.0907299999999998
 30
0.0
 11
100.2999999999999
 21
-21.070999999999991
 31
0.0
  0
LINE
  5
ED
  8
_________2
 62
     7
 10
100.2999999999999
 20
275.93099999999993
 30
0.0
 11
100.2999999999999
 21
258.911
 31
0.0
  0
LINE
  5
EE
  8
_________2
 62
     7
 10
17.049700000000001
 20
127.411
 30
0.0
 11
-4.7003500000000003
 21
127.411
 31
0.0
  0
LINE
  5
EF
  8
_________2
 62
     7
 10
76.741399999999999
 20
29.805099999999999
 30
0.0
 11
74.554900000000004
 21
29.805099999999999
 31
0.0
  0
LINE
  5
F0
  8
_________2
 62
     7
 10
77.233999999999995
 20
29.805099999999999
 30
0.0
 11
76.981800000000007
 21
29.805099999999999
 31
0.0
  0
LINE
  5
F1
  8
_________2
 62
     7
 10
77.726500000000001
 20
29.805099999999999
 30
0.0
 11
80.651600000000002
 21
29.805099999999999
 31
0.0
  0
LINE
  5
F2
  8
_________2
 62
     7
 10
77.233999999999995
 20
29.805099999999999
 30
0.0
 11
77.485900000000001
 21
29.805099999999999
 31
0.0
  0
LINE
  5
F3
  8
_________2
 62
     7
 10
70.837500000000006
 20
29.805099999999999
 30
0.0
 11
68.650700000000001
 21
29.805099999999999
 31
0.0
  0
LINE
  5
F4
  8
_________2
 62
     7
 10
71.329899999999995
 20
29.805099999999999
 30
0.0
 11
71.0779
 21
29.805099999999999
 31
0.0
  0
LINE
  5
F5
  8
_________2
 62
     7
 10
71.329899999999995
 20
30.2974
 30
0.0
 11
71.329899999999995
 21
32.484400000000001
 31
0.0
  0
LINE
  5
F6
  8
_________2
 62
     7
 10
71.329899999999995
 20
29.805099999999999
 30
0.0
 11
71.329899999999995
 21
30.057300000000001
 31
0.0
  0
LINE
  5
F7
  8
_________2
 62
     7
 10
71.822599999999994
 20
29.805099999999999
 30
0.0
 11
74.009200000000007
 21
29.805099999999999
 31
0.0
  0
LINE
  5
F8
  8
_________2
 62
     7
 10
71.329899999999995
 20
29.805099999999999
 30
0.0
 11
71.582099999999997
 21
29.805099999999999
 31
0.0
  0
LINE
  5
F9
  8
_________2
 62
     7
 10
71.329899999999995
 20
29.312799999999999
 30
0.0
 11
71.329899999999995
 21
27.125800000000002
 31
0.0
  0
LINE
  5
FA
  8
_________2
 62
     7
 10
71.329899999999995
 20
29.805099999999999
 30
0.0
 11
71.329899999999995
 21
29.5532
 31
0.0
  0
LINE
  5
FB
  8
_________2
 62
     7
 10
75.040999999999997
 20
28.5855
 30
0.0
 11
80.218699999999984
 21
27.720400000000001
 31
0.0
  0
LINE
  5
FC
  8
_________2
 62
     7
 10
75.040999999999997
 20
31.024699999999999
 30
0.0
 11
80.218699999999984
 21
31.889700000000001
 31
0.0
  0
LINE
  5
FD
  8
_________2
 62
     7
 10
80.218699999999984
 20
27.720400000000001
 30
0.0
 11
80.218699999999984
 21
31.889700000000001
 31
0.0
  0
LINE
  5
FE
  8
_________2
 62
     7
 10
75.040999999999997
 20
28.5855
 30
0.0
 11
75.040999999999997
 21
31.024699999999999
 31
0.0
  0
ARC
  5
FF
  8
_________2
 62
     7
 10
71.330033
 20
29.805001000000001
 30
0.0
 40
1.219657999999999
 50
0.004056
 51
90.004025999999996
  0
ARC
  5
100
  8
_________2
 62
     7
 10
71.329860999999994
 20
29.805001000000001
 30
0.0
 40
1.219657999999999
 50
89.995953999999998
 51
179.99592399999989
  0
ARC
  5
101
  8
_________2
 62
     7
 10
71.329860999999994
 20
29.805172999999989
 30
0.0
 40
1.2196569999999991
 50
180.00405599999999
 51
270.00406600000002
  0
ARC
  5
102
  8
_________2
 62
     7
 10
71.330033
 20
29.805174000000001
 30
0.0
 40
1.219657999999999
 50
269.99597399999999
 51
359.99594400000001
  0
ARC
  5
103
  8
_________2
 62
     7
 10
71.329947000000004
 20
29.805087
 30
0.0
 40
2.0846409999999991
 50
0.00001
 51
89.999980000000008
  0
ARC
  5
104
  8
_________2
 62
     7
 10
71.329860999999994
 20
29.805001000000001
 30
0.0
 40
2.0847269999999991
 50
89.997632999999993
 51
179.997603
  0
ARC
  5
105
  8
_________2
 62
     7
 10
71.409793999999991
 20
29.885114000000002
 30
0.0
 40
2.1661389999999989
 50
182.11724599999999
 51
267.88751799999989
  0
ARC
  5
106
  8
_________2
 62
     7
 10
71.249943000000002
 20
29.88509199999999
 30
0.0
 40
2.1661229999999989
 50
272.11667999999992
 51
357.88332999999989
  0
TEXT
  5
107
  8
_________2
 62
     7
 10
104.605
 20
1.6794899999999999
 30
0.0
 40
3.0923400000000001
  1
図番
 41
0.5
  0
LINE
  5
108
  8
_________2
 62
     7
 10
103.55
 20
5.9087199999999989
 30
0.0
 11
183.55099999999999
 21
5.9087199999999989
 31
0.0
  0
TEXT
  5
109
  8
_________2
 62
     7
 10
104.605
 20
11.679600000000001
 30
0.0
 40
3.0923400000000001
  1
品番
 41
0.5
  0
TEXT
  5
10A
  8
_________2
 62
     7
 10
104.605
 20
31.818100000000001
 30
0.0
 40
3.0923400000000001
  1
名称
 41
0.5
  0
TEXT
  5
10B
  8
_________2
 62
     7
 10
91.845658333333333
 20
26.821999999999989
 30
0.0
 40
3.6545800000000002
  1
mm
 41
0.5
 72
     1
 11
93.368399999999994
 21
26.821999999999989
 31
0.0
  0
TEXT
  5
10C
  8
_________2
 62
     7
 10
85.643399999999986
 20
31.818100000000001
 30
0.0
 40
3.0923400000000001
  1
単位
 41
0.5
  0
TEXT
  5
10D
  8
_________2
 62
     7
 10
85.643399999999986
 20
19.411200000000001
 30
0.0
 40
3.0923400000000001
  1
尺度
 41
0.5
  0
TEXT
  5
10E
  8
_________2
 62
     7
 10
90.549158666666656
 20
13.218199999999991
 30
0.0
 40
3.6545800000000002
  1
1 ： 5
 41
0.5
 72
     1
 11
93.960099999999997
 21
13.218199999999991
 31
0.0
  0
TEXT
  5
10F
  8
_________2
 62
     7
 10
136.17056249999999
 20
9.1078600000000005
 30
0.0
 40
3.9357000000000002
  1
EC.S0861R
 41
0.5
 72
     1
 11
143.55000000000001
 21
9.1078600000000005
 31
0.0
  0
TEXT
  5
110
  8
_________2
 62
     7
 10
136.4985375
 20
-0.892285
 30
0.0
 40
3.9357000000000002
  1
ECS0861R
 41
0.5
 72
     1
 11
143.55000000000001
 21
-0.892285
 31
0.0
  0
TEXT
  5
111
  8
_________2
 62
     7
 10
109.179
 20
24.226099999999999
 30
0.0
 40
3.9357000000000002
  1
エポーサ　タオルバー
 41
0.5
  0
TEXT
  5
112
  8
_________2
 62
     7
 10
39.425500333333332
 20
13.603
 30
0.0
 40
3.6545800000000002
  1
福田
 41
0.5
 72
     1
 11
41.31369999999999
 21
13.603
 31
0.0
  0
TEXT
  5
113
  8
_________2
 62
     7
 10
20.79039066666666
 20
13.603
 30
0.0
 40
3.6545800000000002
  1
石原
 41
0.5
 72
     1
 11
22.7395
 21
13.603
 31
0.0
  0
TEXT
  5
114
  8
_________2
 62
     7
 10
67.785799999999995
 20
13.218199999999991
 30
0.0
 40
3.6545800000000002
  1
04.01.09
 41
0.5
  0
TEXT
  5
115
  8
_________2
 62
     7
 10
66.593299999999999
 20
19.411200000000001
 30
0.0
 40
3.0923400000000001
  1
日付
 41
0.5
  0
TEXT
  5
116
  8
_________2
 62
     7
 10
29.639500000000002
 20
19.411200000000001
 30
0.0
 40
3.0923400000000001
  1
検図
 41
0.5
  0
TEXT
  5
117
  8
_________2
 62
     7
 10
18.021599999999989
 20
5.2117699999999987
 30
0.0
 40
3.0923400000000001
  1
備考
 41
0.5
  0
TEXT
  5
118
  8
_________2
 62
     7
 10
18.021599999999989
 20
19.411200000000001
 30
0.0
 40
3.0923400000000001
  1
製図
 41
0.5
  0
TEXT
  5
119
  8
_________2
 62
     7
 10
23.78886533333333
 20
27.936800000000002
 30
0.0
 40
4.4979399999999989
  1
セラトレーディング株式会社
 41
0.5
 72
     1
 11
41.180900000000001
 21
27.936800000000002
 31
0.0
  0
LINE
  5
11A
  8
_________2
 62
     7
 10
183.55099999999999
 20
-4.0910799999999998
 30
0.0
 11
17.049700000000001
 21
-4.0910799999999998
 31
0.0
  0
LINE
  5
11B
  8
_________2
 62
     7
 10
17.049700000000001
 20
-4.0910799999999998
 30
0.0
 11
17.049700000000001
 21
258.911
 31
0.0
  0
LINE
  5
11C
  8
_________2
 62
     7
 10
17.049700000000001
 20
258.911
 30
0.0
 11
183.55099999999999
 21
258.911
 31
0.0
  0
LINE
  5
11D
  8
_________2
 62
     7
 10
183.55099999999999
 20
258.911
 30
0.0
 11
183.55099999999999
 21
-4.0910799999999998
 31
0.0
  0
LINE
  5
11E
  8
_________2
 62
     7
 10
65.549899999999994
 20
9.4092999999999982
 30
0.0
 11
65.549899999999994
 21
35.909100000000002
 31
0.0
  0
LINE
  5
11F
  8
_________2
 62
     7
 10
84.550099999999986
 20
9.4092999999999982
 30
0.0
 11
84.550099999999986
 21
35.909100000000002
 31
0.0
  0
LINE
  5
120
  8
_________2
 62
     7
 10
103.55
 20
-4.0910799999999998
 30
0.0
 11
103.55
 21
35.909100000000002
 31
0.0
  0
LINE
  5
121
  8
_________2
 62
     7
 10
28.549900000000001
 20
9.4092999999999982
 30
0.0
 11
28.549900000000001
 21
23.409199999999998
 31
0.0
  0
LINE
  5
122
  8
_________2
 62
     7
 10
17.049700000000001
 20
9.4092999999999982
 30
0.0
 11
103.55
 21
9.4092999999999982
 31
0.0
  0
LINE
  5
123
  8
_________2
 62
     7
 10
17.049700000000001
 20
23.409199999999998
 30
0.0
 11
103.55
 21
23.409199999999998
 31
0.0
  0
LINE
  5
124
  8
_________2
 62
     7
 10
103.55
 20
15.90889999999999
 30
0.0
 11
183.55099999999999
 21
15.90889999999999
 31
0.0
  0
LINE
  5
125
  8
_________2
 62
     7
 10
17.049700000000001
 20
35.909100000000002
 30
0.0
 11
183.55099999999999
 21
35.909100000000002
 31
0.0
  0
ENDSEC
  0
EOF
