  0
SECTION
  2
HEADER
  9
$ACADVER
  1
AC1009
  9
$INSBASE
 10
0.0
 20
0.0
 30
0.0
  9
$EXTMIN
 10
-4.7003500000000003
 20
-21.070999999999991
 30
0.0
  9
$EXTMAX
 10
205.30099999999999
 20
275.93099999999993
 30
0.0
  9
$LIMMIN
 10
0.0
 20
0.0
  9
$LIMMAX
 10
12.0
 20
9.0
  9
$ORTHOMODE
 70
     0
  9
$REGENMODE
 70
     1
  9
$FILLMODE
 70
     1
  9
$QTEXTMODE
 70
     0
  9
$MIRRTEXT
 70
     1
  9
$DRAGMODE
 70
     2
  9
$LTSCALE
 40
1.0
  9
$OSMODE
 70
    37
  9
$ATTMODE
 70
     1
  9
$TEXTSIZE
 40
0.0
  9
$TRACEWID
 40
0.05
  9
$TEXTSTYLE
  7
STANDARD
  9
$CLAYER
  8
0
  9
$CELTYPE
  6
CONTINUOUS
  9
$CECOLOR
 62
   256
  9
$DIMSCALE
 40
1.0
  9
$DIMASZ
 40
0.18
  9
$DIMEXO
 40
0.0625
  9
$DIMDLI
 40
0.38
  9
$DIMRND
 40
0.0
  9
$DIMDLE
 40
0.0
  9
$DIMEXE
 40
0.18
  9
$DIMTP
 40
0.0
  9
$DIMTM
 40
0.0
  9
$DIMTXT
 40
0.18
  9
$DIMCEN
 40
0.09
  9
$DIMTSZ
 40
0.0
  9
$DIMTOL
 70
     0
  9
$DIMLIM
 70
     0
  9
$DIMTIH
 70
     1
  9
$DIMTOH
 70
     1
  9
$DIMSE1
 70
     0
  9
$DIMSE2
 70
     0
  9
$DIMTAD
 70
     0
  9
$DIMZIN
 70
     0
  9
$DIMBLK
  1

  9
$DIMASO
 70
     1
  9
$DIMSHO
 70
     1
  9
$DIMPOST
  1

  9
$DIMAPOST
  1

  9
$DIMALT
 70
     0
  9
$DIMALTD
 70
     2
  9
$DIMALTF
 40
25.399999999999999
  9
$DIMLFAC
 40
1.0
  9
$DIMTOFL
 70
     0
  9
$DIMTVP
 40
0.0
  9
$DIMTIX
 70
     0
  9
$DIMSOXD
 70
     0
  9
$DIMSAH
 70
     0
  9
$DIMBLK1
  1

  9
$DIMBLK2
  1

  9
$DIMSTYLE
  2
STANDARD
  9
$DIMCLRD
 70
     0
  9
$DIMCLRE
 70
     0
  9
$DIMCLRT
 70
     0
  9
$DIMTFAC
 40
1.0
  9
$DIMGAP
 40
0.09
  9
$LUNITS
 70
     2
  9
$LUPREC
 70
     4
  9
$SKETCHINC
 40
0.1
  9
$FILLETRAD
 40
0.0
  9
$AUNITS
 70
     0
  9
$AUPREC
 70
     0
  9
$MENU
  1
.
  9
$ELEVATION
 40
0.0
  9
$PELEVATION
 40
0.0
  9
$THICKNESS
 40
0.0
  9
$LIMCHECK
 70
     0
  9
$BLIPMODE
 70
     0
  9
$CHAMFERA
 40
0.0
  9
$CHAMFERB
 40
0.0
  9
$SKPOLY
 70
     0
  9
$TDCREATE
 40
2444972.375
  9
$TDUPDATE
 40
2453719.2552379859
  9
$TDINDWG
 40
0.0000118866
  9
$TDUSRTIMER
 40
0.0000118866
  9
$USRTIMER
 70
     1
  9
$ANGBASE
 50
0.0
  9
$ANGDIR
 70
     0
  9
$PDMODE
 70
     0
  9
$PDSIZE
 40
0.0
  9
$PLINEWID
 40
0.0
  9
$COORDS
 70
     1
  9
$SPLFRAME
 70
     0
  9
$SPLINETYPE
 70
     6
  9
$SPLINESEGS
 70
     8
  9
$ATTDIA
 70
     0
  9
$ATTREQ
 70
     1
  9
$HANDLING
 70
     1
  9
$HANDSEED
  5
13A
  9
$SURFTAB1
 70
     6
  9
$SURFTAB2
 70
     6
  9
$SURFTYPE
 70
     6
  9
$SURFU
 70
     6
  9
$SURFV
 70
     6
  9
$UCSNAME
  2

  9
$UCSORG
 10
0.0
 20
0.0
 30
0.0
  9
$UCSXDIR
 10
1.0
 20
0.0
 30
0.0
  9
$UCSYDIR
 10
0.0
 20
1.0
 30
0.0
  9
$PUCSNAME
  2

  9
$PUCSORG
 10
0.0
 20
0.0
 30
0.0
  9
$PUCSXDIR
 10
1.0
 20
0.0
 30
0.0
  9
$PUCSYDIR
 10
0.0
 20
1.0
 30
0.0
  9
$USERI1
 70
     0
  9
$USERI2
 70
     0
  9
$USERI3
 70
     0
  9
$USERI4
 70
     0
  9
$USERI5
 70
     0
  9
$USERR1
 40
0.0
  9
$USERR2
 40
0.0
  9
$USERR3
 40
0.0
  9
$USERR4
 40
0.0
  9
$USERR5
 40
0.0
  9
$WORLDVIEW
 70
     1
  9
$SHADEDGE
 70
     3
  9
$SHADEDIF
 70
    70
  9
$TILEMODE
 70
     1
  9
$MAXACTVP
 70
    48
  9
$PLIMCHECK
 70
     0
  9
$PEXTMIN
 10
1.0000000000000000E+020
 20
1.0000000000000000E+020
 30
1.0000000000000000E+020
  9
$PEXTMAX
 10
-1.0000000000000000E+020
 20
-1.0000000000000000E+020
 30
-1.0000000000000000E+020
  9
$PLIMMIN
 10
0.0
 20
0.0
  9
$PLIMMAX
 10
12.0
 20
9.0
  9
$UNITMODE
 70
     0
  9
$VISRETAIN
 70
     1
  9
$PLINEGEN
 70
     0
  9
$PSLTSCALE
 70
     1
  0
ENDSEC
  0
SECTION
  2
TABLES
  0
TABLE
  2
VPORT
 70
     2
  0
VPORT
  2
*ACTIVE
 70
     0
 10
0.0
 20
0.0
 11
1.0
 21
1.0
 12
189.56082129873209
 22
127.42999999999989
 13
0.0
 23
0.0
 14
1.0
 24
1.0
 15
0.0
 25
0.0
 16
0.0
 26
0.0
 36
1.0
 17
0.0
 27
0.0
 37
0.0
 40
299.24634760705283
 41
2.1842105263157889
 42
50.0
 43
0.0
 44
0.0
 50
0.0
 51
0.0
 71
     0
 72
   100
 73
     1
 74
     1
 75
     0
 76
     0
 77
     0
 78
     0
  0
ENDTAB
  0
TABLE
  2
LTYPE
 70
     3
  0
LTYPE
  2
CONTINUOUS
 70
     0
  3
Solid line
 72
    65
 73
     0
 40
0.0
  0
LTYPE
  2
AIGENLINE001
 70
     0
  3
generate AI->DXF Converter
 72
    65
 73
     4
 40
5.8561449999999988
 49
3.5278
 49
-0.776115
 49
0.776115
 49
-0.776115
  0
LTYPE
  2
AIGENLINE002
 70
     0
  3
generate AI->DXF Converter
 72
    65
 73
     2
 40
1.5522299999999991
 49
0.776115
 49
-0.776115
  0
ENDTAB
  0
TABLE
  2
LAYER
 70
     2
  0
LAYER
  2
0
 70
     0
 62
     7
  6
CONTINUOUS
  0
LAYER
  2
_________2
 70
     0
 62
     7
  6
CONTINUOUS
  0
ENDTAB
  0
TABLE
  2
STYLE
 70
     1
  0
STYLE
  2
STANDARD
 70
     0
 40
0.0
 41
0.0
 50
0.0
 71
     0
 42
0.0
  3
TXT
  4
EXTFONT.SHX
  0
ENDTAB
  0
TABLE
  2
VIEW
 70
     0
  0
ENDTAB
  0
TABLE
  2
UCS
 70
     0
  0
ENDTAB
  0
TABLE
  2
APPID
 70
     1
  0
APPID
  2
ACAD
 70
     0
  0
ENDTAB
  0
TABLE
  2
DIMSTYLE
 70
     1
  0
DIMSTYLE
  2
STANDARD
 70
     0
  3

  4

  5

  6

  7

 40
1.0
 41
0.18
 42
0.0625
 43
0.38
 44
0.18
 45
0.0
 46
0.0
 47
0.0
 48
0.0
140
0.18
141
0.09
142
0.0
143
25.399999999999999
144
1.0
145
0.0
146
1.0
147
0.09
 71
     0
 72
     0
 73
     1
 74
     1
 75
     0
 76
     0
 77
     0
 78
     0
170
     0
171
     2
172
     0
173
     0
174
     0
175
     0
176
     0
177
     0
178
     0
  0
ENDTAB
  0
ENDSEC
  0
SECTION
  2
BLOCKS
  0
BLOCK
  8
0
  2
$MODEL_SPACE
 70
     0
 10
0.0
 20
0.0
 30
0.0
  3
$MODEL_SPACE
  1

  0
ENDBLK
  5
1A
  8
0
  0
BLOCK
 67
     1
  8
0
  2
$PAPER_SPACE
 70
     0
 10
0.0
 20
0.0
 30
0.0
  3
$PAPER_SPACE
  1

  0
ENDBLK
  5
17
 67
     1
  8
0
  0
ENDSEC
  0
SECTION
  2
ENTITIES
  0
TEXT
  5
23
  8
0
 62
     7
 10
154.1879999999999
 20
98.331439999999986
 30
0.0
 40
3.0923400000000001
  1
%%c45
 50
90.0
 41
0.5
 72
     1
 11
154.1879999999999
 21
100.3929999999999
 31
0.0
  0
TEXT
  5
24
  8
0
 62
     7
 10
111.52200000000001
 20
129.7862874999999
 30
0.0
 40
3.0923400000000001
  1
%%c20
 50
90.0
 41
0.5
 72
     1
 11
111.52200000000001
 21
131.71899999999991
 31
0.0
  0
TEXT
  5
25
  8
0
 62
     7
 10
154.78999999999999
 20
147.88537249999999
 30
0.0
 40
3.0923400000000001
  1
50
 50
90.0
 41
0.5
 72
     1
 11
154.78999999999999
 21
149.0449999999999
 31
0.0
  0
TEXT
  5
26
  8
0
 62
     7
 10
92.384087500000007
 20
187.072
 30
0.0
 40
3.0923400000000001
  1
308
 41
0.5
 72
     1
 11
94.316800000000001
 21
187.072
 31
0.0
  0
TEXT
  5
27
  8
0
 62
     7
 10
92.255240000000001
 20
178.5149999999999
 30
0.0
 40
3.0923400000000001
  1
263
 41
0.5
 72
     1
 11
94.316800000000001
 21
178.5149999999999
 31
0.0
  0
TEXT
  5
28
  8
0
 62
     7
 10
137.17852500000001
 20
117.46899999999999
 30
0.0
 40
3.0923400000000001
  1
26
 41
0.5
 72
     1
 11
138.46700000000001
 21
117.46899999999999
 31
0.0
  0
LINE
  5
29
  8
0
 62
     7
 10
134.80500000000001
 20
158.53999999999991
 30
0.0
 11
133.02699999999999
 21
157.5079999999999
 31
0.0
  0
LINE
  5
2A
  8
0
 62
     7
 10
134.80500000000001
 20
159.5679999999999
 30
0.0
 11
133.02699999999999
 21
158.536
 31
0.0
  0
LINE
  5
2B
  8
0
 62
     7
 10
134.80500000000001
 20
160.596
 30
0.0
 11
133.02699999999999
 21
159.56399999999991
 31
0.0
  0
LINE
  5
2C
  8
0
 62
     7
 10
134.80500000000001
 20
161.62399999999991
 30
0.0
 11
133.02699999999999
 21
160.59200000000001
 31
0.0
  0
LINE
  5
2D
  8
0
 62
     7
 10
134.80500000000001
 20
162.65100000000001
 30
0.0
 11
133.02699999999999
 21
161.619
 31
0.0
  0
LINE
  5
2E
  8
0
 62
     7
 10
134.80500000000001
 20
163.67899999999989
 30
0.0
 11
133.02699999999999
 21
162.64699999999999
 31
0.0
  0
LINE
  5
2F
  8
0
 62
     7
 10
134.80500000000001
 20
164.70699999999999
 30
0.0
 11
133.02699999999999
 21
163.67500000000001
 31
0.0
  0
LINE
  5
30
  8
0
 62
     7
 10
134.80500000000001
 20
165.73500000000001
 30
0.0
 11
133.02699999999999
 21
164.70299999999989
 31
0.0
  0
LINE
  5
31
  8
0
 62
     7
 10
134.80500000000001
 20
166.762
 30
0.0
 11
133.02699999999999
 21
165.72999999999999
 31
0.0
  0
LINE
  5
32
  8
0
 62
     7
 10
134.80500000000001
 20
167.78999999999991
 30
0.0
 11
133.02699999999999
 21
166.7579999999999
 31
0.0
  0
LINE
  5
33
  8
0
 62
     7
 10
134.80500000000001
 20
168.8179999999999
 30
0.0
 11
133.02699999999999
 21
167.78599999999989
 31
0.0
  0
LINE
  5
34
  8
0
 62
     7
 10
134.80500000000001
 20
169.84599999999989
 30
0.0
 11
133.02699999999999
 21
168.81399999999999
 31
0.0
  0
LINE
  5
35
  8
0
 62
     7
 10
134.518
 20
169.71199999999999
 30
0.0
 11
133.93399999999991
 21
170.75099999999989
 31
0.0
  0
LINE
  5
36
  8
0
 62
     7
 10
133.93399999999991
 20
170.75099999999989
 30
0.0
 11
133.35099999999991
 21
169.71199999999999
 31
0.0
  0
LINE
  5
37
  8
0
 62
     7
 10
134.518
 20
157.417
 30
0.0
 11
134.518
 21
169.71199999999999
 31
0.0
  0
LINE
  5
38
  8
0
 62
     7
 10
133.35099999999991
 20
157.417
 30
0.0
 11
133.35099999999991
 21
169.71199999999999
 31
0.0
  0
LINE
  5
39
  8
0
  6
AIGENLINE001
 62
     7
 10
133.93399999999991
 20
155.81599999999989
 30
0.0
 11
133.93399999999991
 21
171.404
 31
0.0
  0
LINE
  5
3A
  8
0
 62
     7
 10
143.47200000000001
 20
158.53999999999991
 30
0.0
 11
141.6929999999999
 21
157.5079999999999
 31
0.0
  0
LINE
  5
3B
  8
0
 62
     7
 10
143.47200000000001
 20
159.5679999999999
 30
0.0
 11
141.6929999999999
 21
158.536
 31
0.0
  0
LINE
  5
3C
  8
0
 62
     7
 10
143.47200000000001
 20
160.596
 30
0.0
 11
141.6929999999999
 21
159.56399999999991
 31
0.0
  0
LINE
  5
3D
  8
0
 62
     7
 10
143.47200000000001
 20
161.62399999999991
 30
0.0
 11
141.6929999999999
 21
160.59200000000001
 31
0.0
  0
LINE
  5
3E
  8
0
 62
     7
 10
143.47200000000001
 20
162.65100000000001
 30
0.0
 11
141.6929999999999
 21
161.619
 31
0.0
  0
LINE
  5
3F
  8
0
 62
     7
 10
143.47200000000001
 20
163.67899999999989
 30
0.0
 11
141.6929999999999
 21
162.64699999999999
 31
0.0
  0
LINE
  5
40
  8
0
 62
     7
 10
143.47200000000001
 20
164.70699999999999
 30
0.0
 11
141.6929999999999
 21
163.67500000000001
 31
0.0
  0
LINE
  5
41
  8
0
 62
     7
 10
143.47200000000001
 20
165.73500000000001
 30
0.0
 11
141.6929999999999
 21
164.70299999999989
 31
0.0
  0
LINE
  5
42
  8
0
 62
     7
 10
143.47200000000001
 20
166.762
 30
0.0
 11
141.6929999999999
 21
165.72999999999999
 31
0.0
  0
LINE
  5
43
  8
0
 62
     7
 10
143.47200000000001
 20
167.78999999999991
 30
0.0
 11
141.6929999999999
 21
166.7579999999999
 31
0.0
  0
LINE
  5
44
  8
0
 62
     7
 10
143.47200000000001
 20
168.8179999999999
 30
0.0
 11
141.6929999999999
 21
167.78599999999989
 31
0.0
  0
LINE
  5
45
  8
0
 62
     7
 10
143.47200000000001
 20
169.84599999999989
 30
0.0
 11
141.6929999999999
 21
168.81399999999999
 31
0.0
  0
LINE
  5
46
  8
0
 62
     7
 10
143.185
 20
169.71199999999999
 30
0.0
 11
142.60099999999991
 21
170.75099999999989
 31
0.0
  0
LINE
  5
47
  8
0
 62
     7
 10
142.60099999999991
 20
170.75099999999989
 30
0.0
 11
142.018
 21
169.71199999999999
 31
0.0
  0
LINE
  5
48
  8
0
 62
     7
 10
143.185
 20
157.417
 30
0.0
 11
143.185
 21
169.71199999999999
 31
0.0
  0
LINE
  5
49
  8
0
 62
     7
 10
142.018
 20
157.417
 30
0.0
 11
142.018
 21
169.71199999999999
 31
0.0
  0
LINE
  5
4A
  8
0
  6
AIGENLINE001
 62
     7
 10
142.60099999999991
 20
155.81599999999989
 30
0.0
 11
142.60099999999991
 21
171.404
 31
0.0
  0
LINE
  5
4B
  8
0
 62
     7
 10
146.917
 20
157.417
 30
0.0
 11
156.80799999999991
 21
157.417
 31
0.0
  0
LINE
  5
4C
  8
0
 62
     7
 10
156.459
 20
155.20699999999999
 30
0.0
 11
155.86600000000001
 21
157.417
 31
0.0
  0
LINE
  5
4D
  8
0
 62
     7
 10
155.86600000000001
 20
157.417
 30
0.0
 11
155.274
 21
155.20699999999999
 31
0.0
  0
LINE
  5
4E
  8
0
 62
     7
 10
155.274
 20
155.20699999999999
 30
0.0
 11
156.459
 21
155.20699999999999
 31
0.0
  0
LINE
  5
4F
  8
0
 62
     7
 10
155.2889999999999
 20
142.96100000000001
 30
0.0
 11
155.881
 21
140.751
 31
0.0
  0
LINE
  5
50
  8
0
 62
     7
 10
155.881
 20
140.751
 30
0.0
 11
156.4729999999999
 21
142.96100000000001
 31
0.0
  0
LINE
  5
51
  8
0
 62
     7
 10
156.4729999999999
 20
142.96100000000001
 30
0.0
 11
155.2889999999999
 21
142.96100000000001
 31
0.0
  0
LINE
  5
52
  8
0
 62
     7
 10
155.874
 20
157.417
 30
0.0
 11
155.874
 21
140.751
 31
0.0
  0
LINE
  5
53
  8
0
 62
     7
 10
139.50200000000001
 20
140.751
 30
0.0
 11
156.80799999999991
 21
140.751
 31
0.0
  0
LINE
  5
54
  8
0
 62
     7
 10
114.0149999999999
 20
135.20599999999999
 30
0.0
 11
113.4229999999999
 21
137.417
 31
0.0
  0
LINE
  5
55
  8
0
 62
     7
 10
113.4229999999999
 20
137.417
 30
0.0
 11
112.831
 21
135.20599999999999
 31
0.0
  0
LINE
  5
56
  8
0
 62
     7
 10
112.831
 20
135.20599999999999
 30
0.0
 11
114.0149999999999
 21
135.20599999999999
 31
0.0
  0
LINE
  5
57
  8
0
 62
     7
 10
112.846
 20
146.2939999999999
 30
0.0
 11
113.4379999999999
 21
144.084
 31
0.0
  0
LINE
  5
58
  8
0
 62
     7
 10
113.4379999999999
 20
144.084
 30
0.0
 11
114.03
 21
146.2939999999999
 31
0.0
  0
LINE
  5
59
  8
0
 62
     7
 10
114.03
 20
146.2939999999999
 30
0.0
 11
112.846
 21
146.2939999999999
 31
0.0
  0
LINE
  5
5A
  8
0
 62
     7
 10
113.43000000000001
 20
150.93499999999989
 30
0.0
 11
113.43000000000001
 21
127.5679999999999
 31
0.0
  0
LINE
  5
5B
  8
0
 62
     7
 10
155.2889999999999
 20
95.390100000000004
 30
0.0
 11
155.881
 21
93.179400000000001
 31
0.0
  0
LINE
  5
5C
  8
0
 62
     7
 10
155.881
 20
93.179400000000001
 30
0.0
 11
156.4729999999999
 21
95.390100000000004
 31
0.0
  0
LINE
  5
5D
  8
0
 62
     7
 10
156.4729999999999
 20
95.390100000000004
 30
0.0
 11
155.2889999999999
 21
95.390100000000004
 31
0.0
  0
LINE
  5
5E
  8
0
 62
     7
 10
156.459
 20
105.96899999999999
 30
0.0
 11
155.86600000000001
 21
108.18000000000001
 31
0.0
  0
LINE
  5
5F
  8
0
 62
     7
 10
155.86600000000001
 20
108.18000000000001
 30
0.0
 11
155.274
 21
105.96899999999999
 31
0.0
  0
LINE
  5
60
  8
0
 62
     7
 10
155.274
 20
105.96899999999999
 30
0.0
 11
156.459
 21
105.96899999999999
 31
0.0
  0
LINE
  5
61
  8
0
 62
     7
 10
155.874
 20
93.179400000000001
 30
0.0
 11
155.874
 21
108.179
 31
0.0
  0
LINE
  5
62
  8
0
 62
     7
 10
140.83799999999999
 20
108.179
 30
0.0
 11
156.6639999999999
 21
108.179
 31
0.0
  0
LINE
  5
63
  8
0
 62
     7
 10
140.83799999999999
 20
93.179400000000001
 30
0.0
 11
156.6639999999999
 21
93.179400000000001
 31
0.0
  0
LINE
  5
64
  8
0
 62
     7
 10
136.14500000000001
 20
116.75699999999991
 30
0.0
 11
133.93399999999991
 21
116.16500000000001
 31
0.0
  0
LINE
  5
65
  8
0
 62
     7
 10
133.93399999999991
 20
116.16500000000001
 30
0.0
 11
136.14500000000001
 21
115.57299999999989
 31
0.0
  0
LINE
  5
66
  8
0
 62
     7
 10
136.14500000000001
 20
115.57299999999989
 30
0.0
 11
136.14500000000001
 21
116.75699999999991
 31
0.0
  0
LINE
  5
67
  8
0
 62
     7
 10
140.39099999999991
 20
115.5869999999999
 30
0.0
 11
142.60099999999991
 21
116.18000000000001
 31
0.0
  0
LINE
  5
68
  8
0
 62
     7
 10
142.60099999999991
 20
116.18000000000001
 30
0.0
 11
140.39099999999991
 21
116.77200000000001
 31
0.0
  0
LINE
  5
69
  8
0
 62
     7
 10
140.39099999999991
 20
116.77200000000001
 30
0.0
 11
140.39099999999991
 21
115.5869999999999
 31
0.0
  0
LINE
  5
6A
  8
0
 62
     7
 10
133.93399999999991
 20
116.172
 30
0.0
 11
142.60099999999991
 21
116.172
 31
0.0
  0
LINE
  5
6B
  8
0
 62
     7
 10
142.60099999999991
 20
102.81999999999999
 30
0.0
 11
142.60099999999991
 21
116.86
 31
0.0
  0
LINE
  5
6C
  8
0
 62
     7
 10
133.93399999999991
 20
102.81999999999999
 30
0.0
 11
133.93399999999991
 21
116.81
 31
0.0
  0
LINE
  5
6D
  8
0
 62
     7
 10
143.55699999999999
 20
185.423
 30
0.0
 11
145.768
 21
186.0149999999999
 31
0.0
  0
LINE
  5
6E
  8
0
 62
     7
 10
145.768
 20
186.0149999999999
 30
0.0
 11
143.55699999999999
 21
186.608
 31
0.0
  0
LINE
  5
6F
  8
0
 62
     7
 10
143.55699999999999
 20
186.608
 30
0.0
 11
143.55699999999999
 21
185.423
 31
0.0
  0
LINE
  5
70
  8
0
 62
     7
 10
45.311399999999992
 20
186.5929999999999
 30
0.0
 11
43.101000000000013
 21
186.00099999999989
 31
0.0
  0
LINE
  5
71
  8
0
 62
     7
 10
43.101000000000013
 20
186.00099999999989
 30
0.0
 11
45.311399999999992
 21
185.40899999999999
 31
0.0
  0
LINE
  5
72
  8
0
 62
     7
 10
45.311399999999992
 20
185.40899999999999
 30
0.0
 11
45.311399999999992
 21
186.5929999999999
 31
0.0
  0
LINE
  5
73
  8
0
 62
     7
 10
145.768
 20
186.0079999999999
 30
0.0
 11
43.1008
 21
186.0079999999999
 31
0.0
  0
LINE
  5
74
  8
0
 62
     7
 10
52.811100000000003
 20
178.0749999999999
 30
0.0
 11
50.600700000000003
 21
177.483
 31
0.0
  0
LINE
  5
75
  8
0
 62
     7
 10
50.600700000000003
 20
177.483
 30
0.0
 11
52.811100000000003
 21
176.89099999999991
 31
0.0
  0
LINE
  5
76
  8
0
 62
     7
 10
52.811100000000003
 20
176.89099999999991
 30
0.0
 11
52.811100000000003
 21
178.0749999999999
 31
0.0
  0
LINE
  5
77
  8
0
 62
     7
 10
136.05699999999999
 20
176.905
 30
0.0
 11
138.268
 21
177.49799999999999
 31
0.0
  0
LINE
  5
78
  8
0
 62
     7
 10
138.268
 20
177.49799999999999
 30
0.0
 11
136.05699999999999
 21
178.09
 31
0.0
  0
LINE
  5
79
  8
0
 62
     7
 10
136.05699999999999
 20
178.09
 30
0.0
 11
136.05699999999999
 21
176.905
 31
0.0
  0
LINE
  5
7A
  8
0
 62
     7
 10
50.600499999999997
 20
177.49000000000001
 30
0.0
 11
138.268
 21
177.49000000000001
 31
0.0
  0
LINE
  5
7B
  8
0
  6
AIGENLINE001
 62
     7
 10
142.60099999999991
 20
99.015799999999999
 30
0.0
 11
142.60099999999991
 21
102.498
 31
0.0
  0
ARC
  5
7C
  8
0
  6
AIGENLINE002
 62
     7
 10
142.56235899999999
 20
100.6408069999999
 30
0.0
 40
1.039458999999999
 50
2.1287349999999989
 51
87.851515000000006
  0
ARC
  5
7D
  8
0
  6
AIGENLINE002
 62
     7
 10
142.63996199999991
 20
100.640783
 30
0.0
 40
1.0394709999999989
 50
92.130042000000003
 51
177.86992799999999
  0
ARC
  5
7E
  8
0
  6
AIGENLINE002
 62
     7
 10
142.639624
 20
100.71807200000001
 30
0.0
 40
1.0391330000000001
 50
182.1318259999999
 51
267.887944
  0
ARC
  5
7F
  8
0
  6
AIGENLINE002
 62
     7
 10
142.56269800000001
 20
100.7180479999999
 30
0.0
 40
1.0391209999999991
 50
272.13049699999999
 51
357.86951299999993
  0
LINE
  5
80
  8
0
  6
AIGENLINE001
 62
     7
 10
133.93399999999991
 20
99.015799999999999
 30
0.0
 11
133.93399999999991
 21
102.498
 31
0.0
  0
ARC
  5
81
  8
0
  6
AIGENLINE002
 62
     7
 10
133.89581100000001
 20
100.640783
 30
0.0
 40
1.0394709999999989
 50
2.1300520000000001
 51
87.869938000000005
  0
ARC
  5
82
  8
0
  6
AIGENLINE002
 62
     7
 10
133.9730909999999
 20
100.640773
 30
0.0
 40
1.039480999999999
 50
92.130589000000001
 51
177.86938199999989
  0
ARC
  5
83
  8
0
  6
AIGENLINE002
 62
     7
 10
133.9727419999999
 20
100.71807200000001
 30
0.0
 40
1.0391330000000001
 50
182.1318259999999
 51
267.887944
  0
ARC
  5
84
  8
0
  6
AIGENLINE002
 62
     7
 10
133.895825
 20
100.718397
 30
0.0
 40
1.0394699999999999
 50
272.12929100000002
 51
357.850979
  0
LINE
  5
85
  8
0
 62
     7
 10
138.268
 20
178.36699999999999
 30
0.0
 11
138.268
 21
159.875
 31
0.0
  0
LINE
  5
86
  8
0
 62
     7
 10
128.607
 20
104.01299999999991
 30
0.0
 11
128.607
 21
97.3459
 31
0.0
  0
LINE
  5
87
  8
0
 62
     7
 10
129.51099999999991
 20
104.01299999999991
 30
0.0
 11
129.51099999999991
 21
97.3459
 31
0.0
  0
ARC
  5
88
  8
0
 62
     7
 10
138.267886
 20
100.679591
 30
0.0
 40
3.3333239999999988
 50
269.99705899999992
 51
359.99702899999988
  0
ARC
  5
89
  8
0
 62
     7
 10
138.2677139999999
 20
100.679417
 30
0.0
 40
3.3334959999999989
 50
0.00001
 51
89.999980000000008
  0
ARC
  5
8A
  8
0
 62
     7
 10
138.26807600000001
 20
100.68015200000001
 30
0.0
 40
7.5005309999999987
 50
206.369947
 51
296.36353199999991
  0
ARC
  5
8B
  8
0
 62
     7
 10
138.100043
 20
100.783427
 30
0.0
 40
7.6683969999999988
 50
297.14580799999999
 51
359.22285399999993
  0
ARC
  5
8C
  8
0
 62
     7
 10
138.2677129999999
 20
100.679417
 30
0.0
 40
7.5000220000000004
 50
0.00001
 51
89.999980000000008
  0
ARC
  5
8D
  8
0
 62
     7
 10
138.371636
 20
100.5118879999999
 30
0.0
 40
7.6682539999999992
 50
90.776494999999997
 51
152.85482300000001
  0
LINE
  5
8E
  8
0
  6
AIGENLINE001
 62
     7
 10
138.268
 20
90.989699999999985
 30
0.0
 11
138.268
 21
110.369
 31
0.0
  0
LINE
  5
8F
  8
0
 62
     7
 10
128.607
 20
144.084
 30
0.0
 11
128.607
 21
137.417
 31
0.0
  0
LINE
  5
90
  8
0
 62
     7
 10
129.51099999999991
 20
144.084
 30
0.0
 11
129.51099999999991
 21
137.417
 31
0.0
  0
LINE
  5
91
  8
0
 62
     7
 10
135.77199999999999
 20
147.41699999999989
 30
0.0
 11
135.77199999999999
 21
150.751
 31
0.0
  0
LINE
  5
92
  8
0
 62
     7
 10
140.76400000000001
 20
147.41699999999989
 30
0.0
 11
140.76400000000001
 21
150.751
 31
0.0
  0
LINE
  5
93
  8
0
  6
AIGENLINE001
 62
     7
 10
138.268
 20
140.751
 30
0.0
 11
138.268
 21
159.25700000000001
 31
0.0
  0
LINE
  5
94
  8
0
 62
     7
 10
134.935
 20
150.751
 30
0.0
 11
134.935
 21
154.084
 31
0.0
  0
LINE
  5
95
  8
0
 62
     7
 10
134.935
 20
144.084
 30
0.0
 11
134.935
 21
147.41699999999989
 31
0.0
  0
LINE
  5
96
  8
0
 62
     7
 10
141.60099999999991
 20
150.75
 30
0.0
 11
141.60099999999991
 21
154.084
 31
0.0
  0
LINE
  5
97
  8
0
 62
     7
 10
141.60099999999991
 20
137.417
 30
0.0
 11
141.60099999999991
 21
147.41699999999989
 31
0.0
  0
LINE
  5
98
  8
0
 62
     7
 10
130.76799999999989
 20
154.084
 30
0.0
 11
130.76799999999989
 21
157.417
 31
0.0
  0
LINE
  5
99
  8
0
 62
     7
 10
145.768
 20
154.084
 30
0.0
 11
145.768
 21
157.417
 31
0.0
  0
LINE
  5
9A
  8
0
 62
     7
 10
141.60099999999991
 20
147.41699999999989
 30
0.0
 11
134.935
 21
147.41699999999989
 31
0.0
  0
LINE
  5
9B
  8
0
 62
     7
 10
141.60099999999991
 20
150.751
 30
0.0
 11
134.935
 21
150.751
 31
0.0
  0
LINE
  5
9C
  8
0
 62
     7
 10
145.768
 20
154.084
 30
0.0
 11
130.76799999999989
 21
154.084
 31
0.0
  0
LINE
  5
9D
  8
0
 62
     7
 10
145.768
 20
157.417
 30
0.0
 11
130.76799999999989
 21
157.417
 31
0.0
  0
LINE
  5
9E
  8
0
  6
AIGENLINE001
 62
     7
 10
46.267200000000003
 20
99.015799999999999
 30
0.0
 11
46.267200000000003
 21
102.498
 31
0.0
  0
ARC
  5
9F
  8
0
  6
AIGENLINE002
 62
     7
 10
46.228993000000003
 20
100.641175
 30
0.0
 40
1.0390639999999991
 50
2.1092529999999989
 51
87.890737000000016
  0
ARC
  5
A0
  8
0
  6
AIGENLINE002
 62
     7
 10
46.305880000000002
 20
100.640952
 30
0.0
 40
1.0393019999999991
 50
92.130919000000006
 51
177.87891999999999
  0
ARC
  5
A1
  8
0
  6
AIGENLINE002
 62
     7
 10
46.305306000000002
 20
100.71766699999991
 30
0.0
 40
1.0387200000000001
 50
182.11033399999999
 51
267.89956699999999
  0
ARC
  5
A2
  8
0
  6
AIGENLINE002
 62
     7
 10
46.228619999999999
 20
100.71839199999999
 30
0.0
 40
1.0394639999999991
 50
272.12901799999997
 51
357.85125199999987
  0
LINE
  5
A3
  8
0
  6
AIGENLINE001
 62
     7
 10
54.934100000000001
 20
99.015799999999999
 30
0.0
 11
54.934100000000001
 21
102.498
 31
0.0
  0
ARC
  5
A4
  8
0
  6
AIGENLINE002
 62
     7
 10
54.895541000000001
 20
100.6411989999999
 30
0.0
 40
1.0390520000000001
 50
2.1079340000000002
 51
87.872315999999998
  0
ARC
  5
A5
  8
0
  6
AIGENLINE002
 62
     7
 10
54.972752
 20
100.640783
 30
0.0
 40
1.0394709999999989
 50
92.130042000000003
 51
177.86992799999999
  0
ARC
  5
A6
  8
0
  6
AIGENLINE002
 62
     7
 10
54.972020999999991
 20
100.71768
 30
0.0
 40
1.038726
 50
182.11099300000001
 51
267.90877699999987
  0
ARC
  5
A7
  8
0
  6
AIGENLINE002
 62
     7
 10
54.895493000000002
 20
100.71804299999999
 30
0.0
 40
1.039115999999999
 50
272.13022399999988
 51
357.86978599999992
  0
LINE
  5
A8
  8
0
 62
     7
 10
145.768
 20
186.828
 30
0.0
 11
145.768
 21
158.02099999999999
 31
0.0
  0
LINE
  5
A9
  8
0
 62
     7
 10
43.10049999999999
 20
186.828
 30
0.0
 11
43.10049999999999
 21
158.02099999999999
 31
0.0
  0
LINE
  5
AA
  8
0
 62
     7
 10
50.600499999999997
 20
178.36699999999999
 30
0.0
 11
50.600499999999997
 21
159.875
 31
0.0
  0
LINE
  5
AB
  8
0
  6
AIGENLINE001
 62
     7
 10
41.013800000000003
 20
100.679
 30
0.0
 11
148.209
 21
100.679
 31
0.0
  0
LINE
  5
AC
  8
0
 62
     7
 10
60.261600000000001
 20
104.01299999999991
 30
0.0
 11
60.261600000000001
 21
97.3459
 31
0.0
  0
LINE
  5
AD
  8
0
 62
     7
 10
59.357599999999998
 20
104.01299999999991
 30
0.0
 11
59.357599999999998
 21
97.3459
 31
0.0
  0
LINE
  5
AE
  8
0
 62
     7
 10
50.600499999999997
 20
97.346300000000014
 30
0.0
 11
138.268
 21
97.346300000000014
 31
0.0
  0
LINE
  5
AF
  8
0
 62
     7
 10
50.600499999999997
 20
104.01299999999991
 30
0.0
 11
138.268
 21
104.01299999999991
 31
0.0
  0
ARC
  5
B0
  8
0
 62
     7
 10
50.600677000000012
 20
100.67958999999991
 30
0.0
 40
3.3333239999999988
 50
90.002961000000013
 51
180.002971
  0
ARC
  5
B1
  8
0
 62
     7
 10
50.600504000000001
 20
100.679417
 30
0.0
 40
3.3331499999999989
 50
179.99996999999991
 51
270.00002000000001
  0
ARC
  5
B2
  8
0
 62
     7
 10
50.600613000000003
 20
100.67940299999999
 30
0.0
 40
7.5002509999999987
 50
26.367792999999999
 51
116.365646
  0
ARC
  5
B3
  8
0
 62
     7
 10
50.600582000000003
 20
100.67962199999999
 30
0.0
 40
7.5000410000000004
 50
116.366176
 51
206.36728299999999
  0
ARC
  5
B4
  8
0
 62
     7
 10
50.600865999999989
 20
100.68015200000001
 30
0.0
 40
7.5005309999999987
 50
206.369947
 51
296.36353199999991
  0
ARC
  5
B5
  8
0
 62
     7
 10
50.552036999999991
 20
100.72823
 30
0.0
 40
7.5653240000000004
 50
296.53318400000001
 51
333.46682599999991
  0
LINE
  5
B6
  8
0
  6
AIGENLINE001
 62
     7
 10
50.600499999999997
 20
90.989699999999985
 30
0.0
 11
50.600499999999997
 21
110.369
 31
0.0
  0
LINE
  5
B7
  8
0
 62
     7
 10
47.138199999999998
 20
158.53999999999991
 30
0.0
 11
45.359400000000001
 21
157.5079999999999
 31
0.0
  0
LINE
  5
B8
  8
0
 62
     7
 10
47.138199999999998
 20
159.5679999999999
 30
0.0
 11
45.359400000000001
 21
158.536
 31
0.0
  0
LINE
  5
B9
  8
0
 62
     7
 10
47.138199999999998
 20
160.596
 30
0.0
 11
45.359400000000001
 21
159.56399999999991
 31
0.0
  0
LINE
  5
BA
  8
0
 62
     7
 10
47.138199999999998
 20
161.62399999999991
 30
0.0
 11
45.359400000000001
 21
160.59200000000001
 31
0.0
  0
LINE
  5
BB
  8
0
 62
     7
 10
47.138199999999998
 20
162.65100000000001
 30
0.0
 11
45.359400000000001
 21
161.619
 31
0.0
  0
LINE
  5
BC
  8
0
 62
     7
 10
47.138199999999998
 20
163.67899999999989
 30
0.0
 11
45.359400000000001
 21
162.64699999999999
 31
0.0
  0
LINE
  5
BD
  8
0
 62
     7
 10
47.138199999999998
 20
164.70699999999999
 30
0.0
 11
45.359400000000001
 21
163.67500000000001
 31
0.0
  0
LINE
  5
BE
  8
0
 62
     7
 10
47.138199999999998
 20
165.73500000000001
 30
0.0
 11
45.359400000000001
 21
164.70299999999989
 31
0.0
  0
LINE
  5
BF
  8
0
 62
     7
 10
47.138199999999998
 20
166.762
 30
0.0
 11
45.359400000000001
 21
165.72999999999999
 31
0.0
  0
LINE
  5
C0
  8
0
 62
     7
 10
47.138199999999998
 20
167.78999999999991
 30
0.0
 11
45.359400000000001
 21
166.7579999999999
 31
0.0
  0
LINE
  5
C1
  8
0
 62
     7
 10
47.138199999999998
 20
168.8179999999999
 30
0.0
 11
45.359400000000001
 21
167.78599999999989
 31
0.0
  0
LINE
  5
C2
  8
0
 62
     7
 10
47.138199999999998
 20
169.84599999999989
 30
0.0
 11
45.359400000000001
 21
168.81399999999999
 31
0.0
  0
LINE
  5
C3
  8
0
 62
     7
 10
46.85049999999999
 20
169.71199999999999
 30
0.0
 11
46.267200000000003
 21
170.75099999999989
 31
0.0
  0
LINE
  5
C4
  8
0
 62
     7
 10
46.267200000000003
 20
170.75099999999989
 30
0.0
 11
45.68399999999999
 21
169.71199999999999
 31
0.0
  0
LINE
  5
C5
  8
0
 62
     7
 10
46.85049999999999
 20
157.417
 30
0.0
 11
46.85049999999999
 21
169.71199999999999
 31
0.0
  0
LINE
  5
C6
  8
0
 62
     7
 10
45.68399999999999
 20
157.417
 30
0.0
 11
45.68399999999999
 21
169.71199999999999
 31
0.0
  0
LINE
  5
C7
  8
0
  6
AIGENLINE001
 62
     7
 10
46.267200000000003
 20
155.81599999999989
 30
0.0
 11
46.267200000000003
 21
171.404
 31
0.0
  0
LINE
  5
C8
  8
0
 62
     7
 10
55.805
 20
158.53999999999991
 30
0.0
 11
54.026000000000003
 21
157.5079999999999
 31
0.0
  0
LINE
  5
C9
  8
0
 62
     7
 10
55.805
 20
159.5679999999999
 30
0.0
 11
54.026000000000003
 21
158.536
 31
0.0
  0
LINE
  5
CA
  8
0
 62
     7
 10
55.805
 20
160.596
 30
0.0
 11
54.026000000000003
 21
159.56399999999991
 31
0.0
  0
LINE
  5
CB
  8
0
 62
     7
 10
55.805
 20
161.62399999999991
 30
0.0
 11
54.026000000000003
 21
160.59200000000001
 31
0.0
  0
LINE
  5
CC
  8
0
 62
     7
 10
55.805
 20
162.65100000000001
 30
0.0
 11
54.026000000000003
 21
161.619
 31
0.0
  0
LINE
  5
CD
  8
0
 62
     7
 10
55.805
 20
163.67899999999989
 30
0.0
 11
54.026000000000003
 21
162.64699999999999
 31
0.0
  0
LINE
  5
CE
  8
0
 62
     7
 10
55.805
 20
164.70699999999999
 30
0.0
 11
54.026000000000003
 21
163.67500000000001
 31
0.0
  0
LINE
  5
CF
  8
0
 62
     7
 10
55.805
 20
165.73500000000001
 30
0.0
 11
54.026000000000003
 21
164.70299999999989
 31
0.0
  0
LINE
  5
D0
  8
0
 62
     7
 10
55.805
 20
166.762
 30
0.0
 11
54.026000000000003
 21
165.72999999999999
 31
0.0
  0
LINE
  5
D1
  8
0
 62
     7
 10
55.805
 20
167.78999999999991
 30
0.0
 11
54.026000000000003
 21
166.7579999999999
 31
0.0
  0
LINE
  5
D2
  8
0
 62
     7
 10
55.805
 20
168.8179999999999
 30
0.0
 11
54.026000000000003
 21
167.78599999999989
 31
0.0
  0
LINE
  5
D3
  8
0
 62
     7
 10
55.805
 20
169.84599999999989
 30
0.0
 11
54.026000000000003
 21
168.81399999999999
 31
0.0
  0
LINE
  5
D4
  8
0
 62
     7
 10
55.517400000000002
 20
169.71199999999999
 30
0.0
 11
54.934100000000001
 21
170.75099999999989
 31
0.0
  0
LINE
  5
D5
  8
0
 62
     7
 10
54.934100000000001
 20
170.75099999999989
 30
0.0
 11
54.350700000000003
 21
169.71199999999999
 31
0.0
  0
LINE
  5
D6
  8
0
 62
     7
 10
55.517400000000002
 20
157.417
 30
0.0
 11
55.517400000000002
 21
169.71199999999999
 31
0.0
  0
LINE
  5
D7
  8
0
 62
     7
 10
54.350700000000003
 20
157.417
 30
0.0
 11
54.350700000000003
 21
169.71199999999999
 31
0.0
  0
LINE
  5
D8
  8
0
  6
AIGENLINE001
 62
     7
 10
54.934100000000001
 20
155.81599999999989
 30
0.0
 11
54.934100000000001
 21
171.404
 31
0.0
  0
LINE
  5
D9
  8
0
 62
     7
 10
60.261600000000001
 20
144.084
 30
0.0
 11
60.261600000000001
 21
137.417
 31
0.0
  0
LINE
  5
DA
  8
0
 62
     7
 10
59.357599999999998
 20
144.084
 30
0.0
 11
59.357599999999998
 21
137.417
 31
0.0
  0
LINE
  5
DB
  8
0
 62
     7
 10
141.60099999999991
 20
137.417
 30
0.0
 11
47.267400000000002
 21
137.417
 31
0.0
  0
LINE
  5
DC
  8
0
  6
AIGENLINE001
 62
     7
 10
138.268
 20
140.751
 30
0.0
 11
50.600499999999997
 21
140.751
 31
0.0
  0
LINE
  5
DD
  8
0
 62
     7
 10
134.935
 20
144.084
 30
0.0
 11
53.93399999999999
 21
144.084
 31
0.0
  0
LINE
  5
DE
  8
0
 62
     7
 10
53.096800000000002
 20
147.41699999999989
 30
0.0
 11
53.096800000000002
 21
150.751
 31
0.0
  0
LINE
  5
DF
  8
0
 62
     7
 10
48.104500000000002
 20
147.41699999999989
 30
0.0
 11
48.104500000000002
 21
150.751
 31
0.0
  0
LINE
  5
E0
  8
0
  6
AIGENLINE001
 62
     7
 10
50.600499999999997
 20
140.751
 30
0.0
 11
50.600499999999997
 21
159.25700000000001
 31
0.0
  0
LINE
  5
E1
  8
0
 62
     7
 10
53.93399999999999
 20
150.751
 30
0.0
 11
53.93399999999999
 21
154.084
 31
0.0
  0
LINE
  5
E2
  8
0
 62
     7
 10
53.93399999999999
 20
144.084
 30
0.0
 11
53.93399999999999
 21
147.41699999999989
 31
0.0
  0
LINE
  5
E3
  8
0
 62
     7
 10
47.267400000000002
 20
150.75
 30
0.0
 11
47.267400000000002
 21
154.084
 31
0.0
  0
LINE
  5
E4
  8
0
 62
     7
 10
47.267400000000002
 20
137.417
 30
0.0
 11
47.267400000000002
 21
147.41699999999989
 31
0.0
  0
LINE
  5
E5
  8
0
 62
     7
 10
58.100700000000003
 20
154.084
 30
0.0
 11
58.100700000000003
 21
157.417
 31
0.0
  0
LINE
  5
E6
  8
0
 62
     7
 10
43.10049999999999
 20
154.084
 30
0.0
 11
43.10049999999999
 21
157.417
 31
0.0
  0
LINE
  5
E7
  8
0
 62
     7
 10
47.267400000000002
 20
147.41699999999989
 30
0.0
 11
53.93399999999999
 21
147.41699999999989
 31
0.0
  0
LINE
  5
E8
  8
0
 62
     7
 10
47.267400000000002
 20
150.751
 30
0.0
 11
53.93399999999999
 21
150.751
 31
0.0
  0
LINE
  5
E9
  8
0
 62
     7
 10
43.10049999999999
 20
154.084
 30
0.0
 11
58.100700000000003
 21
154.084
 31
0.0
  0
LINE
  5
EA
  8
0
 62
     7
 10
43.10049999999999
 20
157.417
 30
0.0
 11
58.100700000000003
 21
157.417
 31
0.0
  0
LINE
  5
EB
  8
_________2
 62
     7
 10
205.30099999999999
 20
127.411
 30
0.0
 11
183.55099999999999
 21
127.411
 31
0.0
  0
LINE
  5
EC
  8
_________2
 62
     7
 10
100.2999999999999
 20
-4.0907299999999998
 30
0.0
 11
100.2999999999999
 21
-21.070999999999991
 31
0.0
  0
LINE
  5
ED
  8
_________2
 62
     7
 10
100.2999999999999
 20
275.93099999999993
 30
0.0
 11
100.2999999999999
 21
258.911
 31
0.0
  0
LINE
  5
EE
  8
_________2
 62
     7
 10
17.049700000000001
 20
127.411
 30
0.0
 11
-4.7003500000000003
 21
127.411
 31
0.0
  0
LINE
  5
EF
  8
_________2
 62
     7
 10
76.741399999999999
 20
29.805099999999999
 30
0.0
 11
74.554900000000004
 21
29.805099999999999
 31
0.0
  0
LINE
  5
F0
  8
_________2
 62
     7
 10
77.233999999999995
 20
29.805099999999999
 30
0.0
 11
76.981800000000007
 21
29.805099999999999
 31
0.0
  0
LINE
  5
F1
  8
_________2
 62
     7
 10
77.726500000000001
 20
29.805099999999999
 30
0.0
 11
80.651600000000002
 21
29.805099999999999
 31
0.0
  0
LINE
  5
F2
  8
_________2
 62
     7
 10
77.233999999999995
 20
29.805099999999999
 30
0.0
 11
77.485900000000001
 21
29.805099999999999
 31
0.0
  0
LINE
  5
F3
  8
_________2
 62
     7
 10
70.837500000000006
 20
29.805099999999999
 30
0.0
 11
68.650700000000001
 21
29.805099999999999
 31
0.0
  0
LINE
  5
F4
  8
_________2
 62
     7
 10
71.329899999999995
 20
29.805099999999999
 30
0.0
 11
71.0779
 21
29.805099999999999
 31
0.0
  0
LINE
  5
F5
  8
_________2
 62
     7
 10
71.329899999999995
 20
30.297699999999999
 30
0.0
 11
71.329899999999995
 21
32.484699999999989
 31
0.0
  0
LINE
  5
F6
  8
_________2
 62
     7
 10
71.329899999999995
 20
29.805099999999999
 30
0.0
 11
71.329899999999995
 21
30.057300000000001
 31
0.0
  0
LINE
  5
F7
  8
_________2
 62
     7
 10
71.822599999999994
 20
29.805099999999999
 30
0.0
 11
74.009200000000007
 21
29.805099999999999
 31
0.0
  0
LINE
  5
F8
  8
_________2
 62
     7
 10
71.329899999999995
 20
29.805099999999999
 30
0.0
 11
71.582099999999997
 21
29.805099999999999
 31
0.0
  0
LINE
  5
F9
  8
_________2
 62
     7
 10
71.329899999999995
 20
29.313099999999991
 30
0.0
 11
71.329899999999995
 21
27.126200000000001
 31
0.0
  0
LINE
  5
FA
  8
_________2
 62
     7
 10
71.329899999999995
 20
29.805099999999999
 30
0.0
 11
71.329899999999995
 21
29.553599999999999
 31
0.0
  0
LINE
  5
FB
  8
_________2
 62
     7
 10
75.040999999999997
 20
28.5855
 30
0.0
 11
80.218699999999984
 21
27.720800000000001
 31
0.0
  0
LINE
  5
FC
  8
_________2
 62
     7
 10
75.040999999999997
 20
31.024699999999999
 30
0.0
 11
80.218699999999984
 21
31.8901
 31
0.0
  0
LINE
  5
FD
  8
_________2
 62
     7
 10
80.218699999999984
 20
27.720800000000001
 30
0.0
 11
80.218699999999984
 21
31.8901
 31
0.0
  0
LINE
  5
FE
  8
_________2
 62
     7
 10
75.040999999999997
 20
28.5855
 30
0.0
 11
75.040999999999997
 21
31.024699999999999
 31
0.0
  0
ARC
  5
FF
  8
_________2
 62
     7
 10
71.283206000000007
 20
29.758168000000001
 30
0.0
 40
1.267353
 50
2.121672999999999
 51
87.886409
  0
ARC
  5
100
  8
_________2
 62
     7
 10
71.376468000000003
 20
29.758388
 30
0.0
 40
1.2671250000000001
 50
92.103989999999996
 51
177.88788799999989
  0
ARC
  5
101
  8
_________2
 62
     7
 10
71.376707999999994
 20
29.852027
 30
0.0
 40
1.267374
 50
182.12257700000001
 51
267.88554499999998
  0
ARC
  5
102
  8
_________2
 62
     7
 10
71.283039000000002
 20
29.852173999999991
 30
0.0
 40
1.2675270000000001
 50
272.12086899999991
 51
357.87104900000003
  0
ARC
  5
103
  8
_________2
 62
     7
 10
71.329774999999984
 20
29.805259
 30
0.0
 40
2.084813
 50
359.99527599999988
 51
89.995245999999995
  0
ARC
  5
104
  8
_________2
 62
     7
 10
71.330033999999984
 20
29.805172999999989
 30
0.0
 40
2.0848990000000001
 50
90.002367000000007
 51
180.00237699999991
  0
ARC
  5
105
  8
_________2
 62
     7
 10
71.409456000000006
 20
29.885133
 30
0.0
 40
2.1658009999999992
 50
182.11808199999999
 51
267.89615199999997
  0
ARC
  5
106
  8
_________2
 62
     7
 10
71.249966999999998
 20
29.885425999999999
 30
0.0
 40
2.166110999999999
 50
272.11604699999998
 51
357.87449299999997
  0
TEXT
  5
107
  8
_________2
 62
     7
 10
104.605
 20
1.67984
 30
0.0
 40
3.0923400000000001
  1
図番
 41
0.5
  0
LINE
  5
108
  8
_________2
 62
     7
 10
103.55
 20
5.9090699999999989
 30
0.0
 11
183.55099999999999
 21
5.9090699999999989
 31
0.0
  0
TEXT
  5
109
  8
_________2
 62
     7
 10
104.605
 20
11.679600000000001
 30
0.0
 40
3.0923400000000001
  1
品番
 41
0.5
  0
TEXT
  5
10A
  8
_________2
 62
     7
 10
104.605
 20
31.8184
 30
0.0
 40
3.0923400000000001
  1
名称
 41
0.5
  0
TEXT
  5
10B
  8
_________2
 62
     7
 10
91.845658333333333
 20
26.822299999999998
 30
0.0
 40
3.6545800000000002
  1
mm
 41
0.5
 72
     1
 11
93.368399999999994
 21
26.822299999999998
 31
0.0
  0
TEXT
  5
10C
  8
_________2
 62
     7
 10
85.643399999999986
 20
31.8184
 30
0.0
 40
3.0923400000000001
  1
単位
 41
0.5
  0
TEXT
  5
10D
  8
_________2
 62
     7
 10
85.643399999999986
 20
19.411200000000001
 30
0.0
 40
3.0923400000000001
  1
尺度
 41
0.5
  0
TEXT
  5
10E
  8
_________2
 62
     7
 10
90.549158666666656
 20
13.218199999999991
 30
0.0
 40
3.6545800000000002
  1
1 ： 3
 41
0.5
 72
     1
 11
93.960099999999997
 21
13.218199999999991
 31
0.0
  0
TEXT
  5
10F
  8
_________2
 62
     7
 10
136.00657499999991
 20
9.1082000000000001
 30
0.0
 40
3.9357000000000002
  1
EC.S0870R
 41
0.5
 72
     1
 11
143.55000000000001
 21
9.1082000000000001
 31
0.0
  0
TEXT
  5
110
  8
_________2
 62
     7
 10
136.33455000000001
 20
-0.892285
 30
0.0
 40
3.9357000000000002
  1
ECS0870R
 41
0.5
 72
     1
 11
143.55000000000001
 21
-0.892285
 31
0.0
  0
TEXT
  5
111
  8
_________2
 62
     7
 10
109.179
 20
24.226099999999999
 30
0.0
 40
3.9357000000000002
  1
エポーサ　タオルバー
 41
0.5
  0
TEXT
  5
112
  8
_________2
 62
     7
 10
39.425500333333332
 20
13.603400000000001
 30
0.0
 40
3.6545800000000002
  1
福田
 41
0.5
 72
     1
 11
41.31369999999999
 21
13.603400000000001
 31
0.0
  0
TEXT
  5
113
  8
_________2
 62
     7
 10
20.79039066666666
 20
13.603400000000001
 30
0.0
 40
3.6545800000000002
  1
石原
 41
0.5
 72
     1
 11
22.7395
 21
13.603400000000001
 31
0.0
  0
TEXT
  5
114
  8
_________2
 62
     7
 10
67.785799999999995
 20
13.218199999999991
 30
0.0
 40
3.6545800000000002
  1
04.01.09
 41
0.5
  0
TEXT
  5
115
  8
_________2
 62
     7
 10
66.593299999999999
 20
19.411200000000001
 30
0.0
 40
3.0923400000000001
  1
日付
 41
0.5
  0
TEXT
  5
116
  8
_________2
 62
     7
 10
29.639500000000002
 20
19.411200000000001
 30
0.0
 40
3.0923400000000001
  1
検図
 41
0.5
  0
TEXT
  5
117
  8
_________2
 62
     7
 10
18.021599999999989
 20
5.2117699999999987
 30
0.0
 40
3.0923400000000001
  1
備考
 41
0.5
  0
TEXT
  5
118
  8
_________2
 62
     7
 10
18.021599999999989
 20
19.411200000000001
 30
0.0
 40
3.0923400000000001
  1
製図
 41
0.5
  0
TEXT
  5
119
  8
_________2
 62
     7
 10
23.78886533333333
 20
27.937100000000001
 30
0.0
 40
4.4979399999999989
  1
セラトレーディング株式会社
 41
0.5
 72
     1
 11
41.180900000000001
 21
27.937100000000001
 31
0.0
  0
LINE
  5
11A
  8
_________2
 62
     7
 10
183.55099999999999
 20
-4.0907299999999998
 30
0.0
 11
17.049700000000001
 21
-4.0907299999999998
 31
0.0
  0
LINE
  5
11B
  8
_________2
 62
     7
 10
17.049700000000001
 20
-4.0907299999999998
 30
0.0
 11
17.049700000000001
 21
258.911
 31
0.0
  0
LINE
  5
11C
  8
_________2
 62
     7
 10
17.049700000000001
 20
258.911
 30
0.0
 11
183.55099999999999
 21
258.911
 31
0.0
  0
LINE
  5
11D
  8
_________2
 62
     7
 10
183.55099999999999
 20
258.911
 30
0.0
 11
183.55099999999999
 21
-4.0907299999999998
 31
0.0
  0
LINE
  5
11E
  8
_________2
 62
     7
 10
65.549899999999994
 20
9.4092999999999982
 30
0.0
 11
65.549899999999994
 21
35.909100000000002
 31
0.0
  0
LINE
  5
11F
  8
_________2
 62
     7
 10
84.550099999999986
 20
9.4092999999999982
 30
0.0
 11
84.550099999999986
 21
35.909100000000002
 31
0.0
  0
LINE
  5
120
  8
_________2
 62
     7
 10
103.55
 20
-4.0907299999999998
 30
0.0
 11
103.55
 21
35.909100000000002
 31
0.0
  0
LINE
  5
121
  8
_________2
 62
     7
 10
28.549900000000001
 20
9.4092999999999982
 30
0.0
 11
28.549900000000001
 21
23.409600000000001
 31
0.0
  0
LINE
  5
122
  8
_________2
 62
     7
 10
17.049700000000001
 20
9.4092999999999982
 30
0.0
 11
103.55
 21
9.4092999999999982
 31
0.0
  0
LINE
  5
123
  8
_________2
 62
     7
 10
17.049700000000001
 20
23.409600000000001
 30
0.0
 11
103.55
 21
23.409600000000001
 31
0.0
  0
LINE
  5
124
  8
_________2
 62
     7
 10
103.55
 20
15.90889999999999
 30
0.0
 11
183.55099999999999
 21
15.90889999999999
 31
0.0
  0
LINE
  5
125
  8
_________2
 62
     7
 10
17.049700000000001
 20
35.909100000000002
 30
0.0
 11
183.55099999999999
 21
35.909100000000002
 31
0.0
  0
ENDSEC
  0
EOF
