  0
SECTION
  2
HEADER
  9
$ACADVER
  1
AC1009
  9
$INSBASE
 10
0.0
 20
0.0
 30
0.0
  9
$EXTMIN
 10
-4.7003500000000003
 20
-21.070999999999991
 30
0.0
  9
$EXTMAX
 10
205.30099999999999
 20
275.93099999999993
 30
0.0
  9
$LIMMIN
 10
0.0
 20
0.0
  9
$LIMMAX
 10
12.0
 20
9.0
  9
$ORTHOMODE
 70
     0
  9
$REGENMODE
 70
     1
  9
$FILLMODE
 70
     1
  9
$QTEXTMODE
 70
     0
  9
$MIRRTEXT
 70
     1
  9
$DRAGMODE
 70
     2
  9
$LTSCALE
 40
1.0
  9
$OSMODE
 70
    37
  9
$ATTMODE
 70
     1
  9
$TEXTSIZE
 40
0.0
  9
$TRACEWID
 40
0.05
  9
$TEXTSTYLE
  7
STANDARD
  9
$CLAYER
  8
0
  9
$CELTYPE
  6
CONTINUOUS
  9
$CECOLOR
 62
   256
  9
$DIMSCALE
 40
1.0
  9
$DIMASZ
 40
0.18
  9
$DIMEXO
 40
0.0625
  9
$DIMDLI
 40
0.38
  9
$DIMRND
 40
0.0
  9
$DIMDLE
 40
0.0
  9
$DIMEXE
 40
0.18
  9
$DIMTP
 40
0.0
  9
$DIMTM
 40
0.0
  9
$DIMTXT
 40
0.18
  9
$DIMCEN
 40
0.09
  9
$DIMTSZ
 40
0.0
  9
$DIMTOL
 70
     0
  9
$DIMLIM
 70
     0
  9
$DIMTIH
 70
     1
  9
$DIMTOH
 70
     1
  9
$DIMSE1
 70
     0
  9
$DIMSE2
 70
     0
  9
$DIMTAD
 70
     0
  9
$DIMZIN
 70
     0
  9
$DIMBLK
  1

  9
$DIMASO
 70
     1
  9
$DIMSHO
 70
     1
  9
$DIMPOST
  1

  9
$DIMAPOST
  1

  9
$DIMALT
 70
     0
  9
$DIMALTD
 70
     2
  9
$DIMALTF
 40
25.399999999999999
  9
$DIMLFAC
 40
1.0
  9
$DIMTOFL
 70
     0
  9
$DIMTVP
 40
0.0
  9
$DIMTIX
 70
     0
  9
$DIMSOXD
 70
     0
  9
$DIMSAH
 70
     0
  9
$DIMBLK1
  1

  9
$DIMBLK2
  1

  9
$DIMSTYLE
  2
STANDARD
  9
$DIMCLRD
 70
     0
  9
$DIMCLRE
 70
     0
  9
$DIMCLRT
 70
     0
  9
$DIMTFAC
 40
1.0
  9
$DIMGAP
 40
0.09
  9
$LUNITS
 70
     2
  9
$LUPREC
 70
     4
  9
$SKETCHINC
 40
0.1
  9
$FILLETRAD
 40
0.0
  9
$AUNITS
 70
     0
  9
$AUPREC
 70
     0
  9
$MENU
  1
.
  9
$ELEVATION
 40
0.0
  9
$PELEVATION
 40
0.0
  9
$THICKNESS
 40
0.0
  9
$LIMCHECK
 70
     0
  9
$BLIPMODE
 70
     0
  9
$CHAMFERA
 40
0.0
  9
$CHAMFERB
 40
0.0
  9
$SKPOLY
 70
     0
  9
$TDCREATE
 40
2444972.375
  9
$TDUPDATE
 40
2456827.2472636341
  9
$TDINDWG
 40
0.0000051273
  9
$TDUSRTIMER
 40
0.0000051273
  9
$USRTIMER
 70
     1
  9
$ANGBASE
 50
0.0
  9
$ANGDIR
 70
     0
  9
$PDMODE
 70
     0
  9
$PDSIZE
 40
0.0
  9
$PLINEWID
 40
0.0
  9
$COORDS
 70
     1
  9
$SPLFRAME
 70
     0
  9
$SPLINETYPE
 70
     6
  9
$SPLINESEGS
 70
     8
  9
$ATTDIA
 70
     0
  9
$ATTREQ
 70
     1
  9
$HANDLING
 70
     1
  9
$HANDSEED
  5
AE
  9
$SURFTAB1
 70
     6
  9
$SURFTAB2
 70
     6
  9
$SURFTYPE
 70
     6
  9
$SURFU
 70
     6
  9
$SURFV
 70
     6
  9
$UCSNAME
  2

  9
$UCSORG
 10
0.0
 20
0.0
 30
0.0
  9
$UCSXDIR
 10
1.0
 20
0.0
 30
0.0
  9
$UCSYDIR
 10
0.0
 20
1.0
 30
0.0
  9
$PUCSNAME
  2

  9
$PUCSORG
 10
0.0
 20
0.0
 30
0.0
  9
$PUCSXDIR
 10
1.0
 20
0.0
 30
0.0
  9
$PUCSYDIR
 10
0.0
 20
1.0
 30
0.0
  9
$USERI1
 70
     0
  9
$USERI2
 70
     0
  9
$USERI3
 70
     0
  9
$USERI4
 70
     0
  9
$USERI5
 70
     0
  9
$USERR1
 40
0.0
  9
$USERR2
 40
0.0
  9
$USERR3
 40
0.0
  9
$USERR4
 40
0.0
  9
$USERR5
 40
0.0
  9
$WORLDVIEW
 70
     1
  9
$SHADEDGE
 70
     3
  9
$SHADEDIF
 70
    70
  9
$TILEMODE
 70
     1
  9
$MAXACTVP
 70
    48
  9
$PLIMCHECK
 70
     0
  9
$PEXTMIN
 10
1.0000000000000000E+020
 20
1.0000000000000000E+020
 30
1.0000000000000000E+020
  9
$PEXTMAX
 10
-1.0000000000000000E+020
 20
-1.0000000000000000E+020
 30
-1.0000000000000000E+020
  9
$PLIMMIN
 10
0.0
 20
0.0
  9
$PLIMMAX
 10
12.0
 20
9.0
  9
$UNITMODE
 70
     0
  9
$VISRETAIN
 70
     1
  9
$PLINEGEN
 70
     0
  9
$PSLTSCALE
 70
     1
  0
ENDSEC
  0
SECTION
  2
TABLES
  0
TABLE
  2
VPORT
 70
     2
  0
VPORT
  2
*ACTIVE
 70
     0
 10
0.0
 20
0.0
 11
1.0
 21
1.0
 12
202.006731769564
 22
127.42999999999989
 13
0.0
 23
0.0
 14
1.0
 24
1.0
 15
0.0
 25
0.0
 16
0.0
 26
0.0
 36
1.0
 17
0.0
 27
0.0
 37
0.0
 40
299.45318569463541
 41
2.2894736842105261
 42
50.0
 43
0.0
 44
0.0
 50
0.0
 51
0.0
 71
     0
 72
   100
 73
     1
 74
     1
 75
     0
 76
     0
 77
     0
 78
     0
  0
ENDTAB
  0
TABLE
  2
LTYPE
 70
     2
  0
LTYPE
  2
CONTINUOUS
 70
     0
  3
Solid line
 72
    65
 73
     0
 40
0.0
  0
LTYPE
  2
AIGENLINE001
 70
     0
  3
generate AI->DXF Converter
 72
    65
 73
     4
 40
5.8561449999999988
 49
3.5278
 49
-0.776115
 49
0.776115
 49
-0.776115
  0
ENDTAB
  0
TABLE
  2
LAYER
 70
     2
  0
LAYER
  2
0
 70
     0
 62
     7
  6
CONTINUOUS
  0
LAYER
  2
_________2
 70
     0
 62
     7
  6
CONTINUOUS
  0
ENDTAB
  0
TABLE
  2
STYLE
 70
     1
  0
STYLE
  2
STANDARD
 70
     0
 40
0.0
 41
0.0
 50
0.0
 71
     0
 42
0.0
  3
TXT
  4
EXTFONT.SHX
  0
ENDTAB
  0
TABLE
  2
VIEW
 70
     0
  0
ENDTAB
  0
TABLE
  2
UCS
 70
     0
  0
ENDTAB
  0
TABLE
  2
APPID
 70
     1
  0
APPID
  2
ACAD
 70
     0
  0
ENDTAB
  0
TABLE
  2
DIMSTYLE
 70
     1
  0
DIMSTYLE
  2
STANDARD
 70
     0
  3

  4

  5

  6

  7

 40
1.0
 41
0.18
 42
0.0625
 43
0.38
 44
0.18
 45
0.0
 46
0.0
 47
0.0
 48
0.0
140
0.18
141
0.09
142
0.0
143
25.399999999999999
144
1.0
145
0.0
146
1.0
147
0.09
 71
     0
 72
     0
 73
     1
 74
     1
 75
     0
 76
     0
 77
     0
 78
     0
170
     0
171
     2
172
     0
173
     0
174
     0
175
     0
176
     0
177
     0
178
     0
  0
ENDTAB
  0
ENDSEC
  0
SECTION
  2
BLOCKS
  0
BLOCK
  8
0
  2
$MODEL_SPACE
 70
     0
 10
0.0
 20
0.0
 30
0.0
  3
$MODEL_SPACE
  1

  0
ENDBLK
  5
1A
  8
0
  0
BLOCK
 67
     1
  8
0
  2
$PAPER_SPACE
 70
     0
 10
0.0
 20
0.0
 30
0.0
  3
$PAPER_SPACE
  1

  0
ENDBLK
  5
17
 67
     1
  8
0
  0
ENDSEC
  0
SECTION
  2
ENTITIES
  0
TEXT
  5
22
  8
0
 62
     7
 10
143.48325766666659
 20
158.63599999999991
 30
0.0
 40
3.660169999999999
  1
（樹脂プラグ付）
 41
0.5
 72
     2
 11
159.46600000000001
 21
158.63599999999991
 31
0.0
  0
TEXT
  5
23
  8
0
 62
     7
 10
141.04314433333329
 20
164.47599999999991
 30
0.0
 40
3.660169999999999
  1
%%c4 SUS専用ネジ
 41
0.5
 72
     2
 11
159.46600000000001
 21
164.47599999999991
 31
0.0
  0
TEXT
  5
24
  8
0
 62
     7
 10
74.079499999999996
 20
140.61190083333329
 30
0.0
 40
3.660169999999999
  1
%%c16
 50
90.0
 41
0.5
 72
     1
 11
74.079499999999996
 21
142.74700000000001
 31
0.0
  0
TEXT
  5
25
  8
0
 62
     7
 10
108.8379291666666
 20
123.4709999999999
 30
0.0
 40
3.660169999999999
  1
45
 41
0.5
 72
     1
 11
110.363
 21
123.4709999999999
 31
0.0
  0
ARC
  5
26
  8
0
 62
     7
 10
89.810158999999999
 20
135.6660479999999
 30
0.0
 40
1.000030999999999
 50
180.00494499999991
 51
270.004954
  0
ARC
  5
27
  8
0
 62
     7
 10
89.810158999999999
 20
149.66579899999991
 30
0.0
 40
1.000032
 50
89.995064999999997
 51
179.995036
  0
LINE
  5
28
  8
0
 62
     7
 10
159.46600000000001
 20
162.89899999999989
 30
0.0
 11
137.44799999999989
 21
162.89899999999989
 31
0.0
  0
LINE
  5
29
  8
0
 62
     7
 10
140.86600000000001
 20
147.571
 30
0.0
 11
142.0
 21
145.584
 31
0.0
  0
LINE
  5
2A
  8
0
 62
     7
 10
142.0
 20
145.584
 30
0.0
 11
142.01300000000001
 21
147.87299999999991
 31
0.0
  0
LINE
  5
2B
  8
0
 62
     7
 10
142.01300000000001
 20
147.87299999999991
 30
0.0
 11
140.86600000000001
 21
147.571
 31
0.0
  0
LINE
  5
2C
  8
0
 62
     7
 10
141.99299999999991
 20
145.58199999999991
 30
0.0
 11
137.44799999999989
 21
162.89899999999989
 31
0.0
  0
LINE
  5
2D
  8
0
 62
     7
 10
88.810100000000006
 20
121.52200000000001
 30
0.0
 11
88.810100000000006
 21
133.32699999999991
 31
0.0
  0
LINE
  5
2E
  8
0
 62
     7
 10
133.81
 20
121.52200000000001
 30
0.0
 11
133.81
 21
133.32699999999991
 31
0.0
  0
LINE
  5
2F
  8
0
 62
     7
 10
131.59999999999999
 20
121.883
 30
0.0
 11
133.81
 21
122.47499999999999
 31
0.0
  0
LINE
  5
30
  8
0
 62
     7
 10
133.81
 20
122.47499999999999
 30
0.0
 11
131.59999999999999
 21
123.06699999999999
 31
0.0
  0
LINE
  5
31
  8
0
 62
     7
 10
131.59999999999999
 20
123.06699999999999
 30
0.0
 11
131.59999999999999
 21
121.883
 31
0.0
  0
LINE
  5
32
  8
0
 62
     7
 10
91.020499999999998
 20
123.0529999999999
 30
0.0
 11
88.810100000000006
 21
122.45999999999989
 31
0.0
  0
LINE
  5
33
  8
0
 62
     7
 10
88.810100000000006
 20
122.45999999999989
 30
0.0
 11
91.020499999999998
 21
121.8679999999999
 31
0.0
  0
LINE
  5
34
  8
0
 62
     7
 10
91.020499999999998
 20
121.8679999999999
 30
0.0
 11
91.020499999999998
 21
123.0529999999999
 31
0.0
  0
LINE
  5
35
  8
0
 62
     7
 10
133.81
 20
122.4679999999999
 30
0.0
 11
88.810100000000006
 21
122.4679999999999
 31
0.0
  0
LINE
  5
36
  8
0
 62
     7
 10
137.05000000000001
 20
139.6699999999999
 30
0.0
 11
133.81
 21
144.964
 31
0.0
  0
LINE
  5
37
  8
0
 62
     7
 10
139.90600000000001
 20
139.6699999999999
 30
0.0
 11
136.28700000000001
 21
145.584
 31
0.0
  0
LINE
  5
38
  8
0
 62
     7
 10
142.762
 20
139.6699999999999
 30
0.0
 11
139.14299999999989
 21
145.584
 31
0.0
  0
LINE
  5
39
  8
0
 62
     7
 10
145.61799999999991
 20
139.6699999999999
 30
0.0
 11
142.0
 21
145.584
 31
0.0
  0
LINE
  5
3A
  8
0
 62
     7
 10
148.47499999999999
 20
139.6699999999999
 30
0.0
 11
144.85599999999999
 21
145.584
 31
0.0
  0
LINE
  5
3B
  8
0
 62
     7
 10
151.33099999999999
 20
139.6699999999999
 30
0.0
 11
147.71299999999999
 21
145.584
 31
0.0
  0
LINE
  5
3C
  8
0
 62
     7
 10
154.1879999999999
 20
139.6699999999999
 30
0.0
 11
150.5689999999999
 21
145.584
 31
0.0
  0
LINE
  5
3D
  8
0
 62
     7
 10
157.0439999999999
 20
139.6699999999999
 30
0.0
 11
153.42599999999999
 21
145.584
 31
0.0
  0
LINE
  5
3E
  8
0
 62
     7
 10
159.90000000000001
 20
139.6699999999999
 30
0.0
 11
156.28200000000001
 21
145.584
 31
0.0
  0
LINE
  5
3F
  8
0
 62
     7
 10
162.756
 20
139.6699999999999
 30
0.0
 11
159.13800000000001
 21
145.584
 31
0.0
  0
LINE
  5
40
  8
0
 62
     7
 10
165.613
 20
139.6699999999999
 30
0.0
 11
161.99399999999989
 21
145.584
 31
0.0
  0
LINE
  5
41
  8
0
 62
     7
 10
165.17500000000001
 20
140.91599999999991
 30
0.0
 11
168.81099999999989
 21
142.666
 31
0.0
  0
LINE
  5
42
  8
0
 62
     7
 10
168.81099999999989
 20
142.666
 30
0.0
 11
165.17500000000001
 21
144.41599999999991
 31
0.0
  0
LINE
  5
43
  8
0
 62
     7
 10
165.17500000000001
 20
144.41599999999991
 30
0.0
 11
133.81
 21
144.41599999999991
 31
0.0
  0
LINE
  5
44
  8
0
 62
     7
 10
165.17500000000001
 20
140.91599999999991
 30
0.0
 11
133.81
 21
140.91599999999991
 31
0.0
  0
LINE
  5
45
  8
0
 62
     7
 10
108.81
 20
148.215
 30
0.0
 11
96.810000000000002
 21
148.215
 31
0.0
  0
LINE
  5
46
  8
0
 62
     7
 10
108.81
 20
137.11600000000001
 30
0.0
 11
96.810000000000002
 21
137.11600000000001
 31
0.0
  0
LINE
  5
47
  8
0
 62
     7
 10
108.81
 20
150.666
 30
0.0
 11
108.81
 21
134.66599999999991
 31
0.0
  0
LINE
  5
48
  8
0
 62
     7
 10
96.810000000000002
 20
150.666
 30
0.0
 11
96.810000000000002
 21
134.66599999999991
 31
0.0
  0
LINE
  5
49
  8
0
  6
AIGENLINE001
 62
     7
 10
171.255
 20
142.666
 30
0.0
 11
85.855900000000005
 21
142.666
 31
0.0
  0
LINE
  5
4A
  8
0
 62
     7
 10
74.442300000000003
 20
134.66599999999991
 30
0.0
 11
87.842399999999998
 21
134.66599999999991
 31
0.0
  0
LINE
  5
4B
  8
0
 62
     7
 10
74.442300000000003
 20
150.666
 30
0.0
 11
87.842399999999998
 21
150.666
 31
0.0
  0
LINE
  5
4C
  8
0
 62
     7
 10
76.069400000000002
 20
148.45500000000001
 30
0.0
 11
75.477199999999996
 21
150.666
 31
0.0
  0
LINE
  5
4D
  8
0
 62
     7
 10
75.477199999999996
 20
150.666
 30
0.0
 11
74.884799999999998
 21
148.45500000000001
 31
0.0
  0
LINE
  5
4E
  8
0
 62
     7
 10
74.884799999999998
 20
148.45500000000001
 30
0.0
 11
76.069400000000002
 21
148.45500000000001
 31
0.0
  0
LINE
  5
4F
  8
0
 62
     7
 10
74.8994
 20
136.87599999999989
 30
0.0
 11
75.491600000000005
 21
134.66599999999991
 31
0.0
  0
LINE
  5
50
  8
0
 62
     7
 10
75.491600000000005
 20
134.66599999999991
 30
0.0
 11
76.084000000000003
 21
136.87599999999989
 31
0.0
  0
LINE
  5
51
  8
0
 62
     7
 10
76.084000000000003
 20
136.87599999999989
 30
0.0
 11
74.8994
 21
136.87599999999989
 31
0.0
  0
LINE
  5
52
  8
0
 62
     7
 10
75.484399999999994
 20
150.666
 30
0.0
 11
75.484399999999994
 21
134.66599999999991
 31
0.0
  0
LINE
  5
53
  8
0
 62
     7
 10
96.810400000000016
 20
134.66599999999991
 30
0.0
 11
89.810100000000006
 21
134.66599999999991
 31
0.0
  0
LINE
  5
54
  8
0
 62
     7
 10
133.81
 20
134.66599999999991
 30
0.0
 11
108.81
 21
134.66599999999991
 31
0.0
  0
LINE
  5
55
  8
0
 62
     7
 10
96.810400000000016
 20
150.666
 30
0.0
 11
89.810100000000006
 21
150.666
 31
0.0
  0
LINE
  5
56
  8
0
 62
     7
 10
133.81
 20
150.666
 30
0.0
 11
108.81
 21
150.666
 31
0.0
  0
LINE
  5
57
  8
0
 62
     7
 10
133.81
 20
150.666
 30
0.0
 11
133.81
 21
134.66599999999991
 31
0.0
  0
LINE
  5
58
  8
0
 62
     7
 10
88.810100000000006
 20
149.666
 30
0.0
 11
88.810100000000006
 21
135.66599999999991
 31
0.0
  0
LINE
  5
59
  8
0
  6
AIGENLINE001
 62
     7
 10
51.155999999999999
 20
154.09399999999991
 30
0.0
 11
51.155999999999999
 21
131.04299999999989
 31
0.0
  0
LINE
  5
5A
  8
0
  6
AIGENLINE001
 62
     7
 10
39.921500000000002
 20
142.666
 30
0.0
 11
62.390599999999999
 21
142.666
 31
0.0
  0
ARC
  5
5B
  8
0
 62
     7
 10
51.155856
 20
142.66575
 30
0.0
 40
8.0000800000000005
 50
359.99877600000002
 51
89.998745999999997
  0
ARC
  5
5C
  8
0
 62
     7
 10
51.156202999999998
 20
142.66575
 30
0.0
 40
8.0000800000000005
 50
90.001234000000011
 51
180.0012439999999
  0
ARC
  5
5D
  8
0
 62
     7
 10
51.155856
 20
142.66575
 30
0.0
 40
7.9997329999999991
 50
180.0012439999999
 51
270.00125400000002
  0
ARC
  5
5E
  8
0
 62
     7
 10
51.156199999999991
 20
142.665752
 30
0.0
 40
7.9997360000000004
 50
269.99878599999988
 51
359.99875600000001
  0
LINE
  5
5F
  8
_________2
 62
     7
 10
205.30099999999999
 20
127.411
 30
0.0
 11
183.55099999999999
 21
127.411
 31
0.0
  0
LINE
  5
60
  8
_________2
 62
     7
 10
100.2999999999999
 20
-4.0907299999999998
 30
0.0
 11
100.2999999999999
 21
-21.070999999999991
 31
0.0
  0
LINE
  5
61
  8
_________2
 62
     7
 10
100.2999999999999
 20
275.93099999999993
 30
0.0
 11
100.2999999999999
 21
258.911
 31
0.0
  0
LINE
  5
62
  8
_________2
 62
     7
 10
17.049700000000001
 20
127.411
 30
0.0
 11
-4.7003500000000003
 21
127.411
 31
0.0
  0
LINE
  5
63
  8
_________2
 62
     7
 10
76.741399999999999
 20
29.805099999999999
 30
0.0
 11
74.554900000000004
 21
29.805099999999999
 31
0.0
  0
LINE
  5
64
  8
_________2
 62
     7
 10
77.233999999999995
 20
29.805099999999999
 30
0.0
 11
76.981800000000007
 21
29.805099999999999
 31
0.0
  0
LINE
  5
65
  8
_________2
 62
     7
 10
77.726500000000001
 20
29.805099999999999
 30
0.0
 11
80.651600000000002
 21
29.805099999999999
 31
0.0
  0
LINE
  5
66
  8
_________2
 62
     7
 10
77.233999999999995
 20
29.805099999999999
 30
0.0
 11
77.485900000000001
 21
29.805099999999999
 31
0.0
  0
LINE
  5
67
  8
_________2
 62
     7
 10
70.837500000000006
 20
29.805099999999999
 30
0.0
 11
68.650700000000001
 21
29.805099999999999
 31
0.0
  0
LINE
  5
68
  8
_________2
 62
     7
 10
71.329899999999995
 20
29.805099999999999
 30
0.0
 11
71.0779
 21
29.805099999999999
 31
0.0
  0
LINE
  5
69
  8
_________2
 62
     7
 10
71.329899999999995
 20
30.297699999999999
 30
0.0
 11
71.329899999999995
 21
32.484699999999989
 31
0.0
  0
LINE
  5
6A
  8
_________2
 62
     7
 10
71.329899999999995
 20
29.805099999999999
 30
0.0
 11
71.329899999999995
 21
30.057300000000001
 31
0.0
  0
LINE
  5
6B
  8
_________2
 62
     7
 10
71.822599999999994
 20
29.805099999999999
 30
0.0
 11
74.009200000000007
 21
29.805099999999999
 31
0.0
  0
LINE
  5
6C
  8
_________2
 62
     7
 10
71.329899999999995
 20
29.805099999999999
 30
0.0
 11
71.582099999999997
 21
29.805099999999999
 31
0.0
  0
LINE
  5
6D
  8
_________2
 62
     7
 10
71.329899999999995
 20
29.313099999999991
 30
0.0
 11
71.329899999999995
 21
27.126200000000001
 31
0.0
  0
LINE
  5
6E
  8
_________2
 62
     7
 10
71.329899999999995
 20
29.805099999999999
 30
0.0
 11
71.329899999999995
 21
29.553599999999999
 31
0.0
  0
LINE
  5
6F
  8
_________2
 62
     7
 10
75.040999999999997
 20
28.5855
 30
0.0
 11
80.218699999999984
 21
27.720800000000001
 31
0.0
  0
LINE
  5
70
  8
_________2
 62
     7
 10
75.040999999999997
 20
31.024699999999999
 30
0.0
 11
80.218699999999984
 21
31.8901
 31
0.0
  0
LINE
  5
71
  8
_________2
 62
     7
 10
80.218699999999984
 20
27.720800000000001
 30
0.0
 11
80.218699999999984
 21
31.8901
 31
0.0
  0
LINE
  5
72
  8
_________2
 62
     7
 10
75.040999999999997
 20
28.5855
 30
0.0
 11
75.040999999999997
 21
31.024699999999999
 31
0.0
  0
ARC
  5
73
  8
_________2
 62
     7
 10
71.283206000000007
 20
29.758168000000001
 30
0.0
 40
1.267353
 50
2.121672999999999
 51
87.886409
  0
ARC
  5
74
  8
_________2
 62
     7
 10
71.376468000000003
 20
29.758388
 30
0.0
 40
1.2671250000000001
 50
92.103989999999996
 51
177.88788799999989
  0
ARC
  5
75
  8
_________2
 62
     7
 10
71.376707999999994
 20
29.852027
 30
0.0
 40
1.267374
 50
182.12257700000001
 51
267.88554499999998
  0
ARC
  5
76
  8
_________2
 62
     7
 10
71.283039000000002
 20
29.852173999999991
 30
0.0
 40
1.2675270000000001
 50
272.12086899999991
 51
357.87104900000003
  0
ARC
  5
77
  8
_________2
 62
     7
 10
71.329774999999984
 20
29.805259
 30
0.0
 40
2.084813
 50
359.99527599999988
 51
89.995245999999995
  0
ARC
  5
78
  8
_________2
 62
     7
 10
71.330033999999984
 20
29.805172999999989
 30
0.0
 40
2.0848990000000001
 50
90.002367000000007
 51
180.00237699999991
  0
ARC
  5
79
  8
_________2
 62
     7
 10
71.409456000000006
 20
29.885133
 30
0.0
 40
2.1658009999999992
 50
182.11808199999999
 51
267.89615199999997
  0
ARC
  5
7A
  8
_________2
 62
     7
 10
71.249966999999998
 20
29.885425999999999
 30
0.0
 40
2.166110999999999
 50
272.11604699999998
 51
357.87449299999997
  0
TEXT
  5
7B
  8
_________2
 62
     7
 10
104.605
 20
1.67984
 30
0.0
 40
3.660169999999999
  1
図番
 41
0.5
  0
LINE
  5
7C
  8
_________2
 62
     7
 10
103.55
 20
5.9090699999999989
 30
0.0
 11
183.55099999999999
 21
5.9090699999999989
 31
0.0
  0
TEXT
  5
7D
  8
_________2
 62
     7
 10
104.605
 20
11.679600000000001
 30
0.0
 40
3.660169999999999
  1
品番
 41
0.5
  0
TEXT
  5
7E
  8
_________2
 62
     7
 10
104.605
 20
31.8184
 30
0.0
 40
3.660169999999999
  1
名称
 41
0.5
  0
TEXT
  5
7F
  8
_________2
 62
     7
 10
91.566045833333334
 20
26.822299999999998
 30
0.0
 40
4.3256500000000004
  1
mm
 41
0.5
 72
     1
 11
93.368399999999994
 21
26.822299999999998
 31
0.0
  0
TEXT
  5
80
  8
_________2
 62
     7
 10
85.643399999999986
 20
31.8184
 30
0.0
 40
3.660169999999999
  1
単位
 41
0.5
  0
TEXT
  5
81
  8
_________2
 62
     7
 10
85.643399999999986
 20
19.411200000000001
 30
0.0
 40
3.660169999999999
  1
尺度
 41
0.5
  0
TEXT
  5
82
  8
_________2
 62
     7
 10
90.283297500000003
 20
13.218199999999991
 30
0.0
 40
4.3256500000000004
  1
1 ： 1
 41
0.5
 72
     1
 11
93.960099999999997
 21
13.218199999999991
 31
0.0
  0
TEXT
  5
83
  8
_________2
 62
     7
 10
135.5919170833333
 20
9.1082000000000001
 30
0.0
 40
4.6583899999999989
  1
EC.S0875
 41
0.5
 72
     1
 11
143.55000000000001
 21
9.1082000000000001
 31
0.0
  0
TEXT
  5
84
  8
_________2
 62
     7
 10
135.98011625000001
 20
-0.892285
 30
0.0
 40
4.6583899999999989
  1
ECS0875
 41
0.5
 72
     1
 11
143.55000000000001
 21
-0.892285
 31
0.0
  0
TEXT
  5
85
  8
_________2
 62
     7
 10
109.179
 20
24.226099999999999
 30
0.0
 40
4.6583899999999989
  1
フック
 41
0.5
  0
TEXT
  5
86
  8
_________2
 62
     7
 10
39.078780833333333
 20
13.603400000000001
 30
0.0
 40
4.3256500000000004
  1
早川
 41
0.5
 72
     1
 11
41.31369999999999
 21
13.603400000000001
 31
0.0
  0
TEXT
  5
87
  8
_________2
 62
     7
 10
20.432486666666659
 20
13.603400000000001
 30
0.0
 40
4.3256500000000004
  1
菅原
 41
0.5
 72
     1
 11
22.7395
 21
13.603400000000001
 31
0.0
  0
TEXT
  5
88
  8
_________2
 62
     7
 10
67.785799999999995
 20
13.218199999999991
 30
0.0
 40
4.3256500000000004
  1
14.06.17
 41
0.5
  0
TEXT
  5
89
  8
_________2
 62
     7
 10
66.593299999999999
 20
19.411200000000001
 30
0.0
 40
3.660169999999999
  1
日付
 41
0.5
  0
TEXT
  5
8A
  8
_________2
 62
     7
 10
29.639500000000002
 20
19.411200000000001
 30
0.0
 40
3.660169999999999
  1
検図
 41
0.5
  0
TEXT
  5
8B
  8
_________2
 62
     7
 10
18.021599999999989
 20
5.2117699999999987
 30
0.0
 40
3.660169999999999
  1
備考
 41
0.5
  0
TEXT
  5
8C
  8
_________2
 62
     7
 10
18.021599999999989
 20
19.411200000000001
 30
0.0
 40
3.660169999999999
  1
製図
 41
0.5
  0
TEXT
  5
8D
  8
_________2
 62
     7
 10
20.59523066666668
 20
27.937100000000001
 30
0.0
 40
5.3238799999999991
  1
セラトレーディング株式会社
 41
0.5
 72
     1
 11
41.180900000000001
 21
27.937100000000001
 31
0.0
  0
LINE
  5
8E
  8
_________2
 62
     7
 10
183.55099999999999
 20
-4.0907299999999998
 30
0.0
 11
17.049700000000001
 21
-4.0907299999999998
 31
0.0
  0
LINE
  5
8F
  8
_________2
 62
     7
 10
17.049700000000001
 20
-4.0907299999999998
 30
0.0
 11
17.049700000000001
 21
258.911
 31
0.0
  0
LINE
  5
90
  8
_________2
 62
     7
 10
17.049700000000001
 20
258.911
 30
0.0
 11
183.55099999999999
 21
258.911
 31
0.0
  0
LINE
  5
91
  8
_________2
 62
     7
 10
183.55099999999999
 20
258.911
 30
0.0
 11
183.55099999999999
 21
-4.0907299999999998
 31
0.0
  0
LINE
  5
92
  8
_________2
 62
     7
 10
65.549899999999994
 20
9.4092999999999982
 30
0.0
 11
65.549899999999994
 21
35.909100000000002
 31
0.0
  0
LINE
  5
93
  8
_________2
 62
     7
 10
84.550099999999986
 20
9.4092999999999982
 30
0.0
 11
84.550099999999986
 21
35.909100000000002
 31
0.0
  0
LINE
  5
94
  8
_________2
 62
     7
 10
103.55
 20
-4.0907299999999998
 30
0.0
 11
103.55
 21
35.909100000000002
 31
0.0
  0
LINE
  5
95
  8
_________2
 62
     7
 10
28.549900000000001
 20
9.4092999999999982
 30
0.0
 11
28.549900000000001
 21
23.409600000000001
 31
0.0
  0
LINE
  5
96
  8
_________2
 62
     7
 10
17.049700000000001
 20
9.4092999999999982
 30
0.0
 11
103.55
 21
9.4092999999999982
 31
0.0
  0
LINE
  5
97
  8
_________2
 62
     7
 10
17.049700000000001
 20
23.409600000000001
 30
0.0
 11
103.55
 21
23.409600000000001
 31
0.0
  0
LINE
  5
98
  8
_________2
 62
     7
 10
103.55
 20
15.90889999999999
 30
0.0
 11
183.55099999999999
 21
15.90889999999999
 31
0.0
  0
LINE
  5
99
  8
_________2
 62
     7
 10
17.049700000000001
 20
35.909100000000002
 30
0.0
 11
183.55099999999999
 21
35.909100000000002
 31
0.0
  0
ENDSEC
  0
EOF
