  0
SECTION
  2
HEADER
  9
$ACADVER
  1
AC1009
  9
$INSBASE
 10
0.0
 20
0.0
 30
0.0
  9
$EXTMIN
 10
-4.70052
 20
-21.071400000000001
 30
0.0
  9
$EXTMAX
 10
205.30099999999999
 20
275.93099999999993
 30
0.0
  9
$LIMMIN
 10
0.0
 20
0.0
  9
$LIMMAX
 10
12.0
 20
9.0
  9
$ORTHOMODE
 70
     0
  9
$REGENMODE
 70
     1
  9
$FILLMODE
 70
     1
  9
$QTEXTMODE
 70
     0
  9
$MIRRTEXT
 70
     1
  9
$DRAGMODE
 70
     2
  9
$LTSCALE
 40
1.0
  9
$OSMODE
 70
    37
  9
$ATTMODE
 70
     1
  9
$TEXTSIZE
 40
0.0
  9
$TRACEWID
 40
0.05
  9
$TEXTSTYLE
  7
STANDARD
  9
$CLAYER
  8
0
  9
$CELTYPE
  6
CONTINUOUS
  9
$CECOLOR
 62
   256
  9
$DIMSCALE
 40
1.0
  9
$DIMASZ
 40
0.18
  9
$DIMEXO
 40
0.0625
  9
$DIMDLI
 40
0.38
  9
$DIMRND
 40
0.0
  9
$DIMDLE
 40
0.0
  9
$DIMEXE
 40
0.18
  9
$DIMTP
 40
0.0
  9
$DIMTM
 40
0.0
  9
$DIMTXT
 40
0.18
  9
$DIMCEN
 40
0.09
  9
$DIMTSZ
 40
0.0
  9
$DIMTOL
 70
     0
  9
$DIMLIM
 70
     0
  9
$DIMTIH
 70
     1
  9
$DIMTOH
 70
     1
  9
$DIMSE1
 70
     0
  9
$DIMSE2
 70
     0
  9
$DIMTAD
 70
     0
  9
$DIMZIN
 70
     0
  9
$DIMBLK
  1

  9
$DIMASO
 70
     1
  9
$DIMSHO
 70
     1
  9
$DIMPOST
  1

  9
$DIMAPOST
  1

  9
$DIMALT
 70
     0
  9
$DIMALTD
 70
     2
  9
$DIMALTF
 40
25.399999999999999
  9
$DIMLFAC
 40
1.0
  9
$DIMTOFL
 70
     0
  9
$DIMTVP
 40
0.0
  9
$DIMTIX
 70
     0
  9
$DIMSOXD
 70
     0
  9
$DIMSAH
 70
     0
  9
$DIMBLK1
  1

  9
$DIMBLK2
  1

  9
$DIMSTYLE
  2
STANDARD
  9
$DIMCLRD
 70
     0
  9
$DIMCLRE
 70
     0
  9
$DIMCLRT
 70
     0
  9
$DIMTFAC
 40
1.0
  9
$DIMGAP
 40
0.09
  9
$LUNITS
 70
     2
  9
$LUPREC
 70
     4
  9
$SKETCHINC
 40
0.1
  9
$FILLETRAD
 40
0.0
  9
$AUNITS
 70
     0
  9
$AUPREC
 70
     0
  9
$MENU
  1
.
  9
$ELEVATION
 40
0.0
  9
$PELEVATION
 40
0.0
  9
$THICKNESS
 40
0.0
  9
$LIMCHECK
 70
     0
  9
$BLIPMODE
 70
     0
  9
$CHAMFERA
 40
0.0
  9
$CHAMFERB
 40
0.0
  9
$SKPOLY
 70
     0
  9
$TDCREATE
 40
2444972.375
  9
$TDUPDATE
 40
2455649.3775493628
  9
$TDINDWG
 40
0.0000069907
  9
$TDUSRTIMER
 40
0.0000069907
  9
$USRTIMER
 70
     1
  9
$ANGBASE
 50
0.0
  9
$ANGDIR
 70
     0
  9
$PDMODE
 70
     0
  9
$PDSIZE
 40
0.0
  9
$PLINEWID
 40
0.0
  9
$COORDS
 70
     1
  9
$SPLFRAME
 70
     0
  9
$SPLINETYPE
 70
     6
  9
$SPLINESEGS
 70
     8
  9
$ATTDIA
 70
     0
  9
$ATTREQ
 70
     1
  9
$HANDLING
 70
     1
  9
$HANDSEED
  5
1BB
  9
$SURFTAB1
 70
     6
  9
$SURFTAB2
 70
     6
  9
$SURFTYPE
 70
     6
  9
$SURFU
 70
     6
  9
$SURFV
 70
     6
  9
$UCSNAME
  2

  9
$UCSORG
 10
0.0
 20
0.0
 30
0.0
  9
$UCSXDIR
 10
1.0
 20
0.0
 30
0.0
  9
$UCSYDIR
 10
0.0
 20
1.0
 30
0.0
  9
$PUCSNAME
  2

  9
$PUCSORG
 10
0.0
 20
0.0
 30
0.0
  9
$PUCSXDIR
 10
1.0
 20
0.0
 30
0.0
  9
$PUCSYDIR
 10
0.0
 20
1.0
 30
0.0
  9
$USERI1
 70
     0
  9
$USERI2
 70
     0
  9
$USERI3
 70
     0
  9
$USERI4
 70
     0
  9
$USERI5
 70
     0
  9
$USERR1
 40
0.0
  9
$USERR2
 40
0.0
  9
$USERR3
 40
0.0
  9
$USERR4
 40
0.0
  9
$USERR5
 40
0.0
  9
$WORLDVIEW
 70
     1
  9
$SHADEDGE
 70
     3
  9
$SHADEDIF
 70
    70
  9
$TILEMODE
 70
     1
  9
$MAXACTVP
 70
    48
  9
$PLIMCHECK
 70
     0
  9
$PEXTMIN
 10
1.0000000000000000E+020
 20
1.0000000000000000E+020
 30
1.0000000000000000E+020
  9
$PEXTMAX
 10
-1.0000000000000000E+020
 20
-1.0000000000000000E+020
 30
-1.0000000000000000E+020
  9
$PLIMMIN
 10
0.0
 20
0.0
  9
$PLIMMAX
 10
12.0
 20
9.0
  9
$UNITMODE
 70
     0
  9
$VISRETAIN
 70
     1
  9
$PLINEGEN
 70
     0
  9
$PSLTSCALE
 70
     1
  0
ENDSEC
  0
SECTION
  2
TABLES
  0
TABLE
  2
VPORT
 70
     2
  0
VPORT
  2
*ACTIVE
 70
     0
 10
0.0
 20
0.0
 11
1.0
 21
1.0
 12
205.3106854945909
 22
127.4297999999999
 13
0.0
 23
0.0
 14
1.0
 24
1.0
 15
0.0
 25
0.0
 16
0.0
 26
0.0
 36
1.0
 17
0.0
 27
0.0
 37
0.0
 40
299.2467506297229
 41
2.2894736842105261
 42
50.0
 43
0.0
 44
0.0
 50
0.0
 51
0.0
 71
     0
 72
   100
 73
     1
 74
     1
 75
     0
 76
     0
 77
     0
 78
     0
  0
ENDTAB
  0
TABLE
  2
LTYPE
 70
     3
  0
LTYPE
  2
CONTINUOUS
 70
     0
  3
Solid line
 72
    65
 73
     0
 40
0.0
  0
LTYPE
  2
AIGENLINE001
 70
     0
  3
generate AI->DXF Converter
 72
    65
 73
     4
 40
5.8561449999999988
 49
3.5278
 49
-0.776115
 49
0.776115
 49
-0.776115
  0
LTYPE
  2
AIGENLINE002
 70
     0
  3
generate AI->DXF Converter
 72
    65
 73
     2
 40
1.5522299999999991
 49
0.776115
 49
-0.776115
  0
ENDTAB
  0
TABLE
  2
LAYER
 70
     2
  0
LAYER
  2
0
 70
     0
 62
     7
  6
CONTINUOUS
  0
LAYER
  2
_________2
 70
     0
 62
     7
  6
CONTINUOUS
  0
ENDTAB
  0
TABLE
  2
STYLE
 70
     1
  0
STYLE
  2
STANDARD
 70
     0
 40
0.0
 41
0.0
 50
0.0
 71
     0
 42
0.0
  3
TXT
  4
EXTFONT.SHX
  0
ENDTAB
  0
TABLE
  2
VIEW
 70
     0
  0
ENDTAB
  0
TABLE
  2
UCS
 70
     0
  0
ENDTAB
  0
TABLE
  2
APPID
 70
     1
  0
APPID
  2
ACAD
 70
     0
  0
ENDTAB
  0
TABLE
  2
DIMSTYLE
 70
     1
  0
DIMSTYLE
  2
STANDARD
 70
     0
  3

  4

  5

  6

  7

 40
1.0
 41
0.18
 42
0.0625
 43
0.38
 44
0.18
 45
0.0
 46
0.0
 47
0.0
 48
0.0
140
0.18
141
0.09
142
0.0
143
25.399999999999999
144
1.0
145
0.0
146
1.0
147
0.09
 71
     0
 72
     0
 73
     1
 74
     1
 75
     0
 76
     0
 77
     0
 78
     0
170
     0
171
     2
172
     0
173
     0
174
     0
175
     0
176
     0
177
     0
178
     0
  0
ENDTAB
  0
ENDSEC
  0
SECTION
  2
BLOCKS
  0
BLOCK
  8
0
  2
$MODEL_SPACE
 70
     0
 10
0.0
 20
0.0
 30
0.0
  3
$MODEL_SPACE
  1

  0
ENDBLK
  5
1A
  8
0
  0
BLOCK
 67
     1
  8
0
  2
$PAPER_SPACE
 70
     0
 10
0.0
 20
0.0
 30
0.0
  3
$PAPER_SPACE
  1

  0
ENDBLK
  5
17
 67
     1
  8
0
  0
ENDSEC
  0
SECTION
  2
ENTITIES
  0
TEXT
  5
23
  8
0
 62
     7
 10
107.755393
 20
204.583
 30
0.0
 40
3.0923400000000001
  1
（%%c6×30樹脂プラグ付）
 41
0.5
 72
     2
 11
129.041
 21
204.583
 31
0.0
  0
TEXT
  5
24
  8
0
 62
     7
 10
95.540649999999985
 20
210.423
 30
0.0
 40
3.0923400000000001
  1
%%c4×45 SUS十字穴付タッピングネジ
 41
0.5
 72
     2
 11
129.041
 21
210.423
 31
0.0
  0
TEXT
  5
25
  8
0
 62
     7
 10
115.22
 20
177.4245249999999
 30
0.0
 40
3.0923400000000001
  1
93
 50
90.0
 41
0.5
 72
     1
 11
115.22
 21
178.71299999999991
 31
0.0
  0
TEXT
  5
26
  8
0
 62
     7
 10
92.501099999999994
 20
119.3901349999999
 30
0.0
 40
3.0923400000000001
  1
10
 50
90.0
 41
0.5
 72
     2
 11
92.501099999999994
 21
121.194
 31
0.0
  0
TEXT
  5
27
  8
0
 62
     7
 10
115.22
 20
102.96937250000001
 30
0.0
 40
3.0923400000000001
  1
70
 50
90.0
 41
0.5
 72
     1
 11
115.22
 21
104.12899999999991
 31
0.0
  0
TEXT
  5
28
  8
0
 62
     7
 10
67.682734999999994
 20
134.833
 30
0.0
 40
3.0923400000000001
  1
217
 41
0.5
 72
     1
 11
69.486599999999996
 21
134.833
 31
0.0
  0
TEXT
  5
29
  8
0
 62
     7
 10
161.54160999999999
 20
125.727
 30
0.0
 40
3.0923400000000001
  1
5
 41
0.5
 72
     1
 11
162.05699999999999
 21
125.727
 31
0.0
  0
TEXT
  5
2A
  8
0
 62
     7
 10
145.03252499999991
 20
125.727
 30
0.0
 40
3.0923400000000001
  1
88
 41
0.5
 72
     1
 11
146.32099999999991
 21
125.727
 31
0.0
  0
TEXT
  5
2B
  8
0
 62
     7
 10
67.8115825
 20
125.727
 30
0.0
 40
3.0923400000000001
  1
102
 41
0.5
 72
     1
 11
69.486599999999996
 21
125.727
 31
0.0
  0
LINE
  5
2C
  8
0
 62
     7
 10
129.041
 20
208.84700000000001
 30
0.0
 11
93.595699999999994
 21
208.84700000000001
 31
0.0
  0
LINE
  5
2D
  8
0
 62
     7
 10
88.261799999999994
 20
204.30799999999991
 30
0.0
 11
87.124600000000001
 21
202.322
 31
0.0
  0
LINE
  5
2E
  8
0
 62
     7
 10
87.124600000000001
 20
202.322
 30
0.0
 11
89.102599999999995
 21
203.4729999999999
 31
0.0
  0
LINE
  5
2F
  8
0
 62
     7
 10
89.102599999999995
 20
203.4729999999999
 30
0.0
 11
88.261799999999994
 21
204.30799999999991
 31
0.0
  0
LINE
  5
30
  8
0
 62
     7
 10
87.119399999999999
 20
202.327
 30
0.0
 11
93.595699999999994
 21
208.84700000000001
 31
0.0
  0
LINE
  5
31
  8
0
  6
AIGENLINE001
 62
     7
 10
87.821200000000005
 20
112.535
 30
0.0
 11
85.123699999999999
 21
112.535
 31
0.0
  0
LINE
  5
32
  8
0
  6
AIGENLINE001
 62
     7
 10
86.458299999999994
 20
110.626
 30
0.0
 11
86.458299999999994
 21
114.741
 31
0.0
  0
LINE
  5
33
  8
0
  6
AIGENLINE002
 62
     7
 10
87.124600000000001
 20
112.036
 30
0.0
 11
87.124600000000001
 21
113.0349999999999
 31
0.0
  0
LINE
  5
34
  8
0
  6
AIGENLINE002
 62
     7
 10
85.791300000000007
 20
112.036
 30
0.0
 11
85.791300000000007
 21
113.0349999999999
 31
0.0
  0
ARC
  5
35
  8
0
  6
AIGENLINE002
 62
     7
 10
86.458318000000006
 20
113.035331
 30
0.0
 40
0.666286
 50
0.00001
 51
89.999980000000008
  0
ARC
  5
36
  8
0
  6
AIGENLINE002
 62
     7
 10
86.483679000000009
 20
113.0092539999999
 30
0.0
 40
0.6928270000000002
 50
92.097779000000017
 51
177.84297100000001
  0
ARC
  5
37
  8
0
  6
AIGENLINE002
 62
     7
 10
86.483894999999976
 20
112.06113499999999
 30
0.0
 40
0.693024
 50
182.115059
 51
267.88497000000001
  0
ARC
  5
38
  8
0
  6
AIGENLINE002
 62
     7
 10
86.433321000000007
 20
112.05984099999991
 30
0.0
 40
0.691709
 50
272.0710259999999
 51
357.988204
  0
LINE
  5
39
  8
0
  6
AIGENLINE001
 62
     7
 10
52.458300000000001
 20
111.172
 30
0.0
 11
52.458300000000001
 21
113.87
 31
0.0
  0
LINE
  5
3A
  8
0
  6
AIGENLINE001
 62
     7
 10
50.548999999999992
 20
112.535
 30
0.0
 11
54.664200000000001
 21
112.535
 31
0.0
  0
LINE
  5
3B
  8
0
  6
AIGENLINE002
 62
     7
 10
51.958100000000002
 20
111.8689999999999
 30
0.0
 11
52.958199999999991
 21
111.8689999999999
 31
0.0
  0
LINE
  5
3C
  8
0
  6
AIGENLINE002
 62
     7
 10
51.958100000000002
 20
113.202
 30
0.0
 11
52.958199999999991
 21
113.202
 31
0.0
  0
ARC
  5
3D
  8
0
  6
AIGENLINE002
 62
     7
 10
52.933321999999997
 20
112.560306
 30
0.0
 40
0.6919380000000001
 50
272.05801000000002
 51
357.91238199999992
  0
ARC
  5
3E
  8
0
  6
AIGENLINE002
 62
     7
 10
52.932456999999992
 20
112.5097449999999
 30
0.0
 40
0.692807
 50
2.097369
 51
87.873018999999999
  0
ARC
  5
3F
  8
0
  6
AIGENLINE002
 62
     7
 10
51.983454000000002
 20
112.51005600000001
 30
0.0
 40
0.6924850000000001
 50
92.102164000000002
 51
177.92740900000001
  0
ARC
  5
40
  8
0
  6
AIGENLINE002
 62
     7
 10
51.983094000000001
 20
112.56049899999999
 30
0.0
 40
0.692138
 50
182.103059
 51
267.92658799999992
  0
LINE
  5
41
  8
0
 62
     7
 10
158.142
 20
93.368499999999997
 30
0.0
 11
149.33899999999991
 21
93.368499999999997
 31
0.0
  0
ARC
  5
42
  8
0
 62
     7
 10
158.0810929999999
 20
95.097447999999986
 30
0.0
 40
1.7299949999999999
 50
272.02594599999992
 51
356.75275799999997
  0
LINE
  5
43
  8
0
 62
     7
 10
134.702
 20
93.368499999999997
 30
0.0
 11
143.50499999999991
 21
93.368499999999997
 31
0.0
  0
LINE
  5
44
  8
0
 62
     7
 10
159.80799999999991
 20
94.999499999999998
 30
0.0
 11
160.25499999999991
 21
115.8689999999999
 31
0.0
  0
LINE
  5
45
  8
0
 62
     7
 10
160.64099999999991
 20
94.981499999999997
 30
0.0
 11
161.08899999999991
 21
115.8689999999999
 31
0.0
  0
LINE
  5
46
  8
0
 62
     7
 10
133.03599999999989
 20
94.999499999999998
 30
0.0
 11
132.589
 21
115.8689999999999
 31
0.0
  0
ARC
  5
47
  8
0
 62
     7
 10
134.763206
 20
95.097491999999988
 30
0.0
 40
1.7300269999999991
 50
183.24863999999999
 51
267.98453899999998
  0
LINE
  5
48
  8
0
 62
     7
 10
134.702
 20
92.534800000000004
 30
0.0
 11
158.142
 21
92.534800000000004
 31
0.0
  0
ARC
  5
49
  8
0
 62
     7
 10
158.050164
 20
95.128535999999997
 30
0.0
 40
2.595342
 50
272.02578999999992
 51
356.75308399999989
  0
LINE
  5
4A
  8
0
 62
     7
 10
132.203
 20
94.981499999999997
 30
0.0
 11
131.75499999999991
 21
115.8689999999999
 31
0.0
  0
ARC
  5
4B
  8
0
 62
     7
 10
134.79411099999999
 20
95.128540999999998
 30
0.0
 40
2.5953469999999998
 50
183.24704099999991
 51
267.97412400000002
  0
LINE
  5
4C
  8
0
 62
     7
 10
102.554
 20
93.368499999999997
 30
0.0
 11
102.458
 21
93.368499999999997
 31
0.0
  0
LINE
  5
4D
  8
0
 62
     7
 10
104.7919999999999
 20
109.8689999999999
 30
0.0
 11
104.21899999999989
 21
94.971199999999996
 31
0.0
  0
ARC
  5
4E
  8
0
 62
     7
 10
102.49384000000001
 20
95.097189000000014
 30
0.0
 40
1.7296860000000001
 50
271.97869700000001
 51
355.82301000000001
  0
LINE
  5
4F
  8
0
 62
     7
 10
102.553
 20
92.534800000000004
 30
0.0
 11
102.458
 21
92.534800000000004
 31
0.0
  0
LINE
  5
50
  8
0
 62
     7
 10
105.6249999999999
 20
109.8689999999999
 30
0.0
 11
105.051
 21
94.938800000000001
 31
0.0
  0
ARC
  5
51
  8
0
 62
     7
 10
102.463673
 20
95.127399999999994
 30
0.0
 40
2.594117999999999
 50
271.97053499999993
 51
355.83117199999998
  0
LINE
  5
52
  8
0
 62
     7
 10
102.458
 20
92.534800000000004
 30
0.0
 11
101.97199999999999
 21
115.21599999999999
 31
0.0
  0
LINE
  5
53
  8
0
 62
     7
 10
102.458
 20
92.534800000000004
 30
0.0
 11
96.458500000000015
 21
92.534800000000004
 31
0.0
  0
LINE
  5
54
  8
0
 62
     7
 10
36.36249999999999
 20
93.368499999999997
 30
0.0
 11
36.457599999999999
 21
93.368499999999997
 31
0.0
  0
LINE
  5
55
  8
0
 62
     7
 10
34.124200000000002
 20
109.8689999999999
 30
0.0
 11
34.697200000000002
 21
94.971199999999996
 31
0.0
  0
ARC
  5
56
  8
0
 62
     7
 10
36.422246000000001
 20
95.097189000000014
 30
0.0
 40
1.7296860000000001
 50
184.17700999999991
 51
268.021323
  0
LINE
  5
57
  8
0
 62
     7
 10
36.363199999999992
 20
92.534800000000004
 30
0.0
 11
36.457599999999999
 21
92.534800000000004
 31
0.0
  0
LINE
  5
58
  8
0
 62
     7
 10
33.290900000000001
 20
109.8689999999999
 30
0.0
 11
33.865200000000002
 21
94.938800000000001
 31
0.0
  0
ARC
  5
59
  8
0
 62
     7
 10
36.452816999999989
 20
95.127819999999986
 30
0.0
 40
2.5945510000000001
 50
184.17744899999991
 51
268.02088399999991
  0
LINE
  5
5A
  8
0
 62
     7
 10
36.457599999999999
 20
92.534800000000004
 30
0.0
 11
36.9437
 21
115.21599999999999
 31
0.0
  0
LINE
  5
5B
  8
0
 62
     7
 10
36.457599999999999
 20
92.534800000000004
 30
0.0
 11
42.457599999999992
 21
92.534800000000004
 31
0.0
  0
LINE
  5
5C
  8
0
 62
     7
 10
105.6249999999999
 20
181.2949999999999
 30
0.0
 11
103.125
 21
181.2949999999999
 31
0.0
  0
LINE
  5
5D
  8
0
 62
     7
 10
102.458
 20
181.9609999999999
 30
0.0
 11
102.458
 21
193.04499999999999
 31
0.0
  0
ARC
  5
5E
  8
0
 62
     7
 10
103.150156
 20
181.986682
 30
0.0
 40
0.6924900000000001
 50
182.1025939999999
 51
267.92703899999998
  0
LINE
  5
5F
  8
0
 62
     7
 10
105.6249999999999
 20
175.4609999999999
 30
0.0
 11
103.125
 21
175.4609999999999
 31
0.0
  0
LINE
  5
60
  8
0
 62
     7
 10
102.458
 20
163.71100000000001
 30
0.0
 11
102.458
 21
174.79400000000001
 31
0.0
  0
ARC
  5
61
  8
0
 62
     7
 10
103.1505029999999
 20
174.76935900000001
 30
0.0
 40
0.692479
 50
92.101763999999989
 51
177.927809
  0
LINE
  5
62
  8
0
 62
     7
 10
36.457999999999991
 20
163.71100000000001
 30
0.0
 11
36.457999999999991
 21
174.79400000000001
 31
0.0
  0
LINE
  5
63
  8
0
 62
     7
 10
33.291200000000003
 20
175.4609999999999
 30
0.0
 11
35.7913
 21
175.4609999999999
 31
0.0
  0
ARC
  5
64
  8
0
 62
     7
 10
35.765599999999999
 20
174.76903300000001
 30
0.0
 40
0.692818
 50
2.0981679999999989
 51
87.872219999999984
  0
LINE
  5
65
  8
0
 62
     7
 10
36.457999999999991
 20
181.9609999999999
 30
0.0
 11
36.457999999999991
 21
193.04499999999999
 31
0.0
  0
LINE
  5
66
  8
0
 62
     7
 10
33.291200000000003
 20
181.2949999999999
 30
0.0
 11
35.7913
 21
181.2949999999999
 31
0.0
  0
ARC
  5
67
  8
0
 62
     7
 10
35.766401999999992
 20
181.986197
 30
0.0
 40
0.692001
 50
272.06389999999988
 51
357.93610999999993
  0
LINE
  5
68
  8
0
 62
     7
 10
104.7919999999999
 20
175.4609999999999
 30
0.0
 11
104.7919999999999
 21
181.29400000000001
 31
0.0
  0
LINE
  5
69
  8
0
 62
     7
 10
105.6249999999999
 20
175.4609999999999
 30
0.0
 11
105.6249999999999
 21
181.29400000000001
 31
0.0
  0
LINE
  5
6A
  8
0
 62
     7
 10
34.124600000000001
 20
175.4609999999999
 30
0.0
 11
34.124600000000001
 21
181.29400000000001
 31
0.0
  0
LINE
  5
6B
  8
0
 62
     7
 10
33.291200000000003
 20
175.4609999999999
 30
0.0
 11
33.291200000000003
 21
181.29400000000001
 31
0.0
  0
ARC
  5
6C
  8
0
 62
     7
 10
161.43942999999999
 20
106.8739539999999
 30
0.0
 40
0.5428340000000002
 50
180.56814800000001
 51
196.270894
  0
ARC
  5
6D
  8
0
 62
     7
 10
161.80297899999999
 20
106.930684
 30
0.0
 40
0.9089529999999999
 50
193.28166899999991
 51
218.219247
  0
ARC
  5
6E
  8
0
 62
     7
 10
161.82929799999991
 20
108.52754299999999
 30
0.0
 40
0.8975629999999998
 50
145.58261999999999
 51
179.547595
  0
LINE
  5
6F
  8
0
  6
AIGENLINE001
 62
     7
 10
86.458299999999994
 20
208.89099999999991
 30
0.0
 11
86.458299999999994
 21
191.11500000000001
 31
0.0
  0
LINE
  5
70
  8
0
 62
     7
 10
105.6249999999999
 20
134.45199999999991
 30
0.0
 11
105.6249999999999
 21
110.80200000000001
 31
0.0
  0
LINE
  5
71
  8
0
 62
     7
 10
33.290900000000001
 20
134.45199999999991
 30
0.0
 11
33.290900000000001
 21
110.80200000000001
 31
0.0
  0
LINE
  5
72
  8
0
 62
     7
 10
35.501600000000003
 20
134.33699999999999
 30
0.0
 11
33.2898
 21
133.745
 31
0.0
  0
LINE
  5
73
  8
0
 62
     7
 10
33.2898
 20
133.745
 30
0.0
 11
35.501600000000003
 21
133.15199999999999
 31
0.0
  0
LINE
  5
74
  8
0
 62
     7
 10
35.501600000000003
 20
133.15199999999999
 30
0.0
 11
35.501600000000003
 21
134.33699999999999
 31
0.0
  0
LINE
  5
75
  8
0
 62
     7
 10
103.41500000000001
 20
133.167
 30
0.0
 11
105.627
 21
133.7589999999999
 31
0.0
  0
LINE
  5
76
  8
0
 62
     7
 10
105.627
 20
133.7589999999999
 30
0.0
 11
103.41500000000001
 21
134.35299999999989
 31
0.0
  0
LINE
  5
77
  8
0
 62
     7
 10
103.41500000000001
 20
134.35299999999989
 30
0.0
 11
103.41500000000001
 21
133.167
 31
0.0
  0
LINE
  5
78
  8
0
 62
     7
 10
33.290900000000001
 20
133.75200000000001
 30
0.0
 11
105.6249999999999
 21
133.75200000000001
 31
0.0
  0
LINE
  5
79
  8
0
 62
     7
 10
162.756
 20
97.701800000000006
 30
0.0
 11
162.756
 21
115.0349999999999
 31
0.0
  0
LINE
  5
7A
  8
0
 62
     7
 10
161.08899999999991
 20
97.701800000000006
 30
0.0
 11
161.08899999999991
 21
115.0349999999999
 31
0.0
  0
LINE
  5
7B
  8
0
 62
     7
 10
161.08899999999991
 20
97.701800000000006
 30
0.0
 11
162.756
 21
97.701800000000006
 31
0.0
  0
LINE
  5
7C
  8
0
 62
     7
 10
175.03999999999991
 20
113.0349999999999
 30
0.0
 11
175.53399999999999
 21
111.70099999999999
 31
0.0
  0
LINE
  5
7D
  8
0
 62
     7
 10
162.98400000000001
 20
113.0349999999999
 30
0.0
 11
163.47799999999989
 21
111.70099999999999
 31
0.0
  0
LINE
  5
7E
  8
0
 62
     7
 10
163.84499999999991
 20
113.0349999999999
 30
0.0
 11
164.339
 21
111.70099999999999
 31
0.0
  0
LINE
  5
7F
  8
0
 62
     7
 10
164.7059999999999
 20
113.0349999999999
 30
0.0
 11
165.1999999999999
 21
111.70099999999999
 31
0.0
  0
LINE
  5
80
  8
0
 62
     7
 10
165.5679999999999
 20
113.0349999999999
 30
0.0
 11
166.06200000000001
 21
111.70099999999999
 31
0.0
  0
LINE
  5
81
  8
0
 62
     7
 10
166.429
 20
113.0349999999999
 30
0.0
 11
166.92299999999989
 21
111.70099999999999
 31
0.0
  0
LINE
  5
82
  8
0
 62
     7
 10
167.28899999999999
 20
113.0349999999999
 30
0.0
 11
167.7829999999999
 21
111.70099999999999
 31
0.0
  0
LINE
  5
83
  8
0
 62
     7
 10
168.1509999999999
 20
113.0349999999999
 30
0.0
 11
168.64500000000001
 21
111.70099999999999
 31
0.0
  0
LINE
  5
84
  8
0
 62
     7
 10
169.012
 20
113.0349999999999
 30
0.0
 11
169.50599999999989
 21
111.70099999999999
 31
0.0
  0
LINE
  5
85
  8
0
 62
     7
 10
169.87299999999991
 20
113.0349999999999
 30
0.0
 11
170.36699999999999
 21
111.70099999999999
 31
0.0
  0
LINE
  5
86
  8
0
 62
     7
 10
170.73400000000001
 20
113.0349999999999
 30
0.0
 11
171.22900000000001
 21
111.70099999999999
 31
0.0
  0
LINE
  5
87
  8
0
 62
     7
 10
171.595
 20
113.0349999999999
 30
0.0
 11
172.09
 21
111.70099999999999
 31
0.0
  0
LINE
  5
88
  8
0
 62
     7
 10
172.4559999999999
 20
113.0349999999999
 30
0.0
 11
172.9499999999999
 21
111.70099999999999
 31
0.0
  0
LINE
  5
89
  8
0
 62
     7
 10
173.3179999999999
 20
113.0349999999999
 30
0.0
 11
173.81200000000001
 21
111.70099999999999
 31
0.0
  0
LINE
  5
8A
  8
0
 62
     7
 10
175.16
 20
112.06699999999999
 30
0.0
 11
176.09
 21
112.36799999999999
 31
0.0
  0
LINE
  5
8B
  8
0
 62
     7
 10
175.16
 20
112.67
 30
0.0
 11
176.09
 21
112.36799999999999
 31
0.0
  0
LINE
  5
8C
  8
0
 62
     7
 10
175.16
 20
112.06699999999999
 30
0.0
 11
162.756
 21
112.06699999999999
 31
0.0
  0
LINE
  5
8D
  8
0
 62
     7
 10
175.16
 20
112.67
 30
0.0
 11
162.756
 21
112.67
 31
0.0
  0
LINE
  5
8E
  8
0
 62
     7
 10
174.17899999999989
 20
113.0349999999999
 30
0.0
 11
174.673
 21
111.70099999999999
 31
0.0
  0
LINE
  5
8F
  8
0
  6
AIGENLINE001
 62
     7
 10
176.93599999999989
 20
112.36799999999999
 30
0.0
 11
157.45199999999991
 21
112.36799999999999
 31
0.0
  0
LINE
  5
90
  8
0
 62
     7
 10
160.23400000000001
 20
114.8679999999999
 30
0.0
 11
158.589
 21
114.8679999999999
 31
0.0
  0
LINE
  5
91
  8
0
 62
     7
 10
160.12700000000001
 20
109.8689999999999
 30
0.0
 11
158.589
 21
109.8689999999999
 31
0.0
  0
LINE
  5
92
  8
0
 62
     7
 10
158.589
 20
114.8679999999999
 30
0.0
 11
158.589
 21
109.8689999999999
 31
0.0
  0
LINE
  5
93
  8
0
 62
     7
 10
161.08899999999991
 20
115.0349999999999
 30
0.0
 11
162.756
 21
115.0349999999999
 31
0.0
  0
LINE
  5
94
  8
0
 62
     7
 10
43.124600000000001
 20
192.083
 30
0.0
 11
47.791200000000003
 21
192.083
 31
0.0
  0
ARC
  5
95
  8
0
 62
     7
 10
48.395266999999997
 20
191.90737699999991
 30
0.0
 40
0.062449
 50
2.8019660000000002
 51
53.545048000000001
  0
ARC
  5
96
  8
0
 62
     7
 10
48.227303999999997
 20
191.69979499999999
 30
0.0
 40
0.329424
 50
51.500262999999997
 51
75.357466000000002
  0
ARC
  5
97
  8
0
 62
     7
 10
47.849406000000002
 20
190.4286219999999
 30
0.0
 40
1.655432
 50
73.824461999999997
 51
92.015535999999997
  0
ARC
  5
98
  8
0
 62
     7
 10
43.123900999999996
 20
190.11555399999989
 30
0.0
 40
1.9674759999999989
 50
89.979629000000003
 51
107.0820889999999
  0
ARC
  5
99
  8
0
 62
     7
 10
42.577232000000002
 20
191.87566499999991
 30
0.0
 40
0.124556
 50
104.535285
 51
163.79296899999991
  0
LINE
  5
9A
  8
0
 62
     7
 10
48.457599999999999
 20
191.91
 30
0.0
 11
48.457599999999999
 21
164.84499999999991
 31
0.0
  0
LINE
  5
9B
  8
0
 62
     7
 10
43.124600000000001
 20
164.67299999999989
 30
0.0
 11
47.791200000000003
 21
164.67299999999989
 31
0.0
  0
ARC
  5
9C
  8
0
 62
     7
 10
47.818877999999998
 20
166.66630499999991
 30
0.0
 40
1.9935089999999991
 50
269.20401099999992
 51
282.00227099999989
  0
ARC
  5
9D
  8
0
 62
     7
 10
48.156239999999997
 20
165.1912429999999
 30
0.0
 40
0.4811
 50
279.23255899999992
 51
304.34947
  0
ARC
  5
9E
  8
0
 62
     7
 10
48.392712000000003
 20
164.848859
 30
0.0
 40
0.065029
 50
302.54494999999991
 51
356.81343199999992
  0
LINE
  5
9F
  8
0
 62
     7
 10
42.457599999999992
 20
191.91
 30
0.0
 11
42.457599999999992
 21
164.84499999999991
 31
0.0
  0
ARC
  5
A0
  8
0
 62
     7
 10
42.519939999999998
 20
164.84832
 30
0.0
 40
0.062391
 50
182.82650899999999
 51
233.6040239999999
  0
ARC
  5
A1
  8
0
 62
     7
 10
42.687578999999992
 20
165.0558209999999
 30
0.0
 40
0.329098
 50
231.54652999999999
 51
255.43880699999991
  0
ARC
  5
A2
  8
0
 62
     7
 10
43.066094999999997
 20
166.33280199999999
 30
0.0
 40
1.6608439999999991
 50
253.87560999999999
 51
272.01871399999987
  0
ARC
  5
A3
  8
0
 62
     7
 10
60.3949
 20
191.90695099999991
 30
0.0
 40
0.063386
 50
3.1462369999999988
 51
54.364868999999992
  0
ARC
  5
A4
  8
0
 62
     7
 10
60.224310000000003
 20
191.69281100000001
 30
0.0
 40
0.337102
 50
52.004511000000001
 51
75.247233999999992
  0
ARC
  5
A5
  8
0
 62
     7
 10
59.892093000000003
 20
190.59684799999999
 30
0.0
 40
1.4821340000000001
 50
73.616453000000007
 51
87.452920999999975
  0
ARC
  5
A6
  8
0
 62
     7
 10
55.085298999999999
 20
190.12726499999991
 30
0.0
 40
1.954443999999999
 50
93.752946999999992
 51
101.6554509999999
  0
ARC
  5
A7
  8
0
 62
     7
 10
54.783270000000002
 20
191.503683
 30
0.0
 40
0.5456780000000001
 50
99.793593999999985
 51
121.907954
  0
ARC
  5
A8
  8
0
 62
     7
 10
54.529927000000001
 20
191.90398300000001
 30
0.0
 40
0.072042
 50
119.138324
 51
174.86613299999999
  0
LINE
  5
A9
  8
0
 62
     7
 10
60.458199999999991
 20
191.91
 30
0.0
 11
60.458199999999991
 21
164.84499999999991
 31
0.0
  0
LINE
  5
AA
  8
0
 62
     7
 10
55.124600000000001
 20
164.67299999999989
 30
0.0
 11
59.791200000000003
 21
164.67299999999989
 31
0.0
  0
ARC
  5
AB
  8
0
 62
     7
 10
59.818812000000001
 20
166.66946799999991
 30
0.0
 40
1.996670999999999
 50
269.20809300000002
 51
281.99249900000001
  0
ARC
  5
AC
  8
0
 62
     7
 10
60.156407999999992
 20
165.19231600000001
 30
0.0
 40
0.4821740000000001
 50
279.22268699999989
 51
304.31014299999998
  0
ARC
  5
AD
  8
0
 62
     7
 10
60.393286000000003
 20
164.84887699999999
 30
0.0
 40
0.065006
 50
302.48177099999992
 51
356.7958549999999
  0
LINE
  5
AE
  8
0
 62
     7
 10
54.458199999999998
 20
191.91
 30
0.0
 11
54.458199999999998
 21
164.84499999999991
 31
0.0
  0
ARC
  5
AF
  8
0
 62
     7
 10
54.520511999999989
 20
164.84830299999999
 30
0.0
 40
0.062412
 50
182.80924399999989
 51
233.55014800000001
  0
ARC
  5
B0
  8
0
 62
     7
 10
54.684679000000003
 20
165.050398
 30
0.0
 40
0.322731
 50
231.42214100000001
 51
254.82615399999989
  0
ARC
  5
B1
  8
0
 62
     7
 10
55.063448000000001
 20
166.30498199999991
 30
0.0
 40
1.6331409999999991
 50
253.5217339999999
 51
272.14704799999993
  0
LINE
  5
B2
  8
0
 62
     7
 10
67.124799999999993
 20
192.083
 30
0.0
 11
71.791200000000003
 21
192.083
 31
0.0
  0
ARC
  5
B3
  8
0
 62
     7
 10
72.395871
 20
191.90735900000001
 30
0.0
 40
0.062428
 50
2.8192179999999998
 51
53.598895999999989
  0
ARC
  5
B4
  8
0
 62
     7
 10
72.227551000000005
 20
191.698973
 30
0.0
 40
0.330252
 50
51.548763000000001
 51
75.371707999999998
  0
ARC
  5
B5
  8
0
 62
     7
 10
71.849368999999996
 20
190.425566
 30
0.0
 40
1.658482
 50
73.840120999999996
 51
92.008297999999996
  0
ARC
  5
B6
  8
0
 62
     7
 10
67.124154000000004
 20
190.11791699999989
 30
0.0
 40
1.9651130000000001
 50
89.980083999999991
 51
107.0924319999999
  0
ARC
  5
B7
  8
0
 62
     7
 10
66.577837000000002
 20
191.87563
 30
0.0
 40
0.124589
 50
104.5299449999999
 51
163.78086399999989
  0
LINE
  5
B8
  8
0
 62
     7
 10
72.458200000000005
 20
191.91
 30
0.0
 11
72.458200000000005
 21
164.84499999999991
 31
0.0
  0
LINE
  5
B9
  8
0
 62
     7
 10
67.124799999999993
 20
164.67299999999989
 30
0.0
 11
71.791200000000003
 21
164.67299999999989
 31
0.0
  0
ARC
  5
BA
  8
0
 62
     7
 10
71.818844999999996
 20
166.66946799999991
 30
0.0
 40
1.996670999999999
 50
269.20809300000002
 51
281.99249900000001
  0
ARC
  5
BB
  8
0
 62
     7
 10
72.156441000000001
 20
165.19231600000001
 30
0.0
 40
0.4821740000000001
 50
279.22268699999989
 51
304.31014299999998
  0
ARC
  5
BC
  8
0
 62
     7
 10
72.393318999999991
 20
164.84887699999999
 30
0.0
 40
0.065006
 50
302.48177099999992
 51
356.7958549999999
  0
LINE
  5
BD
  8
0
 62
     7
 10
66.458200000000005
 20
191.91
 30
0.0
 11
66.458200000000005
 21
164.84499999999991
 31
0.0
  0
ARC
  5
BE
  8
0
 62
     7
 10
66.520499999999998
 20
164.84831699999989
 30
0.0
 40
0.062369
 50
182.824412
 51
233.62643799999989
  0
ARC
  5
BF
  8
0
 62
     7
 10
66.688191000000003
 20
165.05588099999991
 30
0.0
 40
0.329157
 50
231.550444
 51
255.44095499999989
  0
ARC
  5
C0
  8
0
 62
     7
 10
67.066546000000002
 20
166.33185900000001
 30
0.0
 40
1.6598949999999999
 50
253.87182599999991
 51
272.01251300000001
  0
ARC
  5
C1
  8
0
 62
     7
 10
84.394768999999997
 20
191.9069669999999
 30
0.0
 40
0.063409
 50
3.1304150000000002
 51
54.311585000000001
  0
ARC
  5
C2
  8
0
 62
     7
 10
84.224466000000007
 20
191.69340399999999
 30
0.0
 40
0.336496
 50
51.972661000000002
 51
75.242743999999988
  0
ARC
  5
C3
  8
0
 62
     7
 10
83.892275999999995
 20
190.59762900000001
 30
0.0
 40
1.481341
 50
73.613693999999995
 51
87.462780000000009
  0
ARC
  5
C4
  8
0
 62
     7
 10
79.086135999999996
 20
190.12123
 30
0.0
 40
1.960472
 50
93.743829000000005
 51
101.636375
  0
ARC
  5
C5
  8
0
 62
     7
 10
78.783418999999995
 20
191.50326299999989
 30
0.0
 40
0.5460729999999999
 50
99.774733999999995
 51
121.891178
  0
ARC
  5
C6
  8
0
 62
     7
 10
78.529977000000002
 20
191.90398599999989
 30
0.0
 40
0.072026
 50
119.121425
 51
174.86767
  0
LINE
  5
C7
  8
0
 62
     7
 10
84.458099999999988
 20
191.91
 30
0.0
 11
84.458099999999988
 21
164.84499999999991
 31
0.0
  0
LINE
  5
C8
  8
0
 62
     7
 10
79.124899999999997
 20
164.67299999999989
 30
0.0
 11
83.791799999999995
 21
164.67299999999989
 31
0.0
  0
ARC
  5
C9
  8
0
 62
     7
 10
83.819381000000007
 20
166.665378
 30
0.0
 40
1.9925809999999999
 50
269.20682999999991
 51
282.00487599999991
  0
ARC
  5
CA
  8
0
 62
     7
 10
84.156560999999996
 20
165.191551
 30
0.0
 40
0.481417
 50
279.23583500000001
 51
304.339628
  0
ARC
  5
CB
  8
0
 62
     7
 10
84.393170999999995
 20
164.84885600000001
 30
0.0
 40
0.065013
 50
302.52568100000002
 51
356.81474900000001
  0
LINE
  5
CC
  8
0
 62
     7
 10
78.458200000000005
 20
191.91
 30
0.0
 11
78.458200000000005
 21
164.84499999999991
 31
0.0
  0
ARC
  5
CD
  8
0
 62
     7
 10
78.520533
 20
164.84831699999989
 30
0.0
 40
0.062369
 50
182.824412
 51
233.62643799999989
  0
ARC
  5
CE
  8
0
 62
     7
 10
78.688222999999994
 20
165.05588099999991
 30
0.0
 40
0.329157
 50
231.550444
 51
255.44095499999989
  0
ARC
  5
CF
  8
0
 62
     7
 10
79.066578000000007
 20
166.33185900000001
 30
0.0
 40
1.6598949999999999
 50
253.87182599999991
 51
272.01251300000001
  0
LINE
  5
D0
  8
0
 62
     7
 10
91.125100000000003
 20
192.083
 30
0.0
 11
95.791499999999999
 21
192.083
 31
0.0
  0
ARC
  5
D1
  8
0
 62
     7
 10
96.396107999999984
 20
191.90733800000001
 30
0.0
 40
0.062429
 50
2.8385729999999989
 51
53.630297000000013
  0
ARC
  5
D2
  8
0
 62
     7
 10
96.227606000000009
 20
191.69855100000001
 30
0.0
 40
0.330679
 50
51.573124000000007
 51
75.377656999999999
  0
ARC
  5
D3
  8
0
 62
     7
 10
95.849403000000009
 20
190.424699
 30
0.0
 40
1.659341999999999
 50
73.845285000000004
 51
92.000231000000014
  0
ARC
  5
D4
  8
0
 62
     7
 10
91.124397999999999
 20
190.116118
 30
0.0
 40
1.9669119999999991
 50
89.980291000000008
 51
107.08455499999999
  0
ARC
  5
D5
  8
0
 62
     7
 10
90.577780000000004
 20
191.87554900000001
 30
0.0
 40
0.12466
 50
104.507167
 51
163.751338
  0
LINE
  5
D6
  8
0
 62
     7
 10
96.458500000000015
 20
191.91
 30
0.0
 11
96.458500000000015
 21
164.84499999999991
 31
0.0
  0
LINE
  5
D7
  8
0
 62
     7
 10
91.125100000000003
 20
164.67299999999989
 30
0.0
 11
95.791499999999999
 21
164.67299999999989
 31
0.0
  0
ARC
  5
D8
  8
0
 62
     7
 10
95.818950000000015
 20
166.6694719999999
 30
0.0
 40
1.996672999999999
 50
269.21187200000003
 51
281.99224099999998
  0
ARC
  5
D9
  8
0
 62
     7
 10
96.15644300000001
 20
165.19293099999999
 30
0.0
 40
0.482796
 50
279.22212400000001
 51
304.28887300000002
  0
ARC
  5
DA
  8
0
 62
     7
 10
96.393556000000004
 20
164.8488989999999
 30
0.0
 40
0.065007
 50
302.44752399999999
 51
356.77629999999999
  0
LINE
  5
DB
  8
0
 62
     7
 10
90.458100000000016
 20
191.91
 30
0.0
 11
90.458100000000016
 21
164.84499999999991
 31
0.0
  0
ARC
  5
DC
  8
0
 62
     7
 10
90.520392999999999
 20
164.8483379999999
 30
0.0
 40
0.06237
 50
182.843784
 51
233.6578419999999
  0
ARC
  5
DD
  8
0
 62
     7
 10
90.688316999999998
 20
165.05644099999989
 30
0.0
 40
0.329725
 50
231.58292999999989
 51
255.44884599999989
  0
ARC
  5
DE
  8
0
 62
     7
 10
91.066858999999994
 20
166.33398199999999
 30
0.0
 40
1.662013999999999
 50
253.88267599999989
 51
272.00730899999991
  0
LINE
  5
DF
  8
0
 62
     7
 10
161.08899999999991
 20
115.8689999999999
 30
0.0
 11
160.25599999999989
 21
115.8689999999999
 31
0.0
  0
LINE
  5
E0
  8
0
 62
     7
 10
149.33899999999991
 20
92.534800000000004
 30
0.0
 11
149.33899999999991
 21
109.202
 31
0.0
  0
LINE
  5
E1
  8
0
 62
     7
 10
148.673
 20
109.8689999999999
 30
0.0
 11
144.17299999999989
 21
109.8689999999999
 31
0.0
  0
ARC
  5
E2
  8
0
 62
     7
 10
148.646581
 20
109.1762429999999
 30
0.0
 40
0.6928270000000002
 50
2.0977890000000001
 51
87.842980999999995
  0
LINE
  5
E3
  8
0
 62
     7
 10
143.506
 20
92.534800000000004
 30
0.0
 11
143.506
 21
109.202
 31
0.0
  0
ARC
  5
E4
  8
0
 62
     7
 10
144.198025
 20
109.176225
 30
0.0
 40
0.692819
 50
92.099321000000003
 51
177.90065000000001
  0
LINE
  5
E5
  8
0
 62
     7
 10
131.756
 20
115.8689999999999
 30
0.0
 11
132.589
 21
115.8689999999999
 31
0.0
  0
LINE
  5
E6
  8
0
 62
     7
 10
93.981099999999998
 20
112.535
 30
0.0
 11
88.871300000000005
 21
112.535
 31
0.0
  0
LINE
  5
E7
  8
0
 62
     7
 10
92.695699999999988
 20
118.08
 30
0.0
 11
93.288300000000007
 21
115.8689999999999
 31
0.0
  0
LINE
  5
E8
  8
0
 62
     7
 10
93.288300000000007
 20
115.8689999999999
 30
0.0
 11
93.880799999999994
 21
118.08
 31
0.0
  0
LINE
  5
E9
  8
0
 62
     7
 10
93.880799999999994
 20
118.08
 30
0.0
 11
92.695699999999988
 21
118.08
 31
0.0
  0
LINE
  5
EA
  8
0
 62
     7
 10
93.866399999999985
 20
110.32299999999989
 30
0.0
 11
93.273799999999994
 21
112.535
 31
0.0
  0
LINE
  5
EB
  8
0
 62
     7
 10
93.273799999999994
 20
112.535
 30
0.0
 11
92.681200000000004
 21
110.32299999999989
 31
0.0
  0
LINE
  5
EC
  8
0
 62
     7
 10
92.681200000000004
 20
110.32299999999989
 30
0.0
 11
93.866399999999985
 21
110.32299999999989
 31
0.0
  0
LINE
  5
ED
  8
0
 62
     7
 10
93.281000000000006
 20
108.96899999999999
 30
0.0
 11
93.281000000000006
 21
121.2179999999999
 31
0.0
  0
LINE
  5
EE
  8
0
 62
     7
 10
116.7
 20
92.534800000000004
 30
0.0
 11
104.288
 21
92.534800000000004
 31
0.0
  0
LINE
  5
EF
  8
0
 62
     7
 10
116.7
 20
115.8689999999999
 30
0.0
 11
102.2389999999999
 21
115.8689999999999
 31
0.0
  0
LINE
  5
F0
  8
0
 62
     7
 10
115.41500000000001
 20
94.745199999999997
 30
0.0
 11
116.00700000000001
 21
92.533399999999986
 31
0.0
  0
LINE
  5
F1
  8
0
 62
     7
 10
116.00700000000001
 20
92.533399999999986
 30
0.0
 11
116.59999999999989
 21
94.745199999999997
 31
0.0
  0
LINE
  5
F2
  8
0
 62
     7
 10
116.59999999999989
 20
94.745199999999997
 30
0.0
 11
115.41500000000001
 21
94.745199999999997
 31
0.0
  0
LINE
  5
F3
  8
0
 62
     7
 10
116.58499999999999
 20
113.6579999999999
 30
0.0
 11
115.9929999999999
 21
115.8689999999999
 31
0.0
  0
LINE
  5
F4
  8
0
 62
     7
 10
115.9929999999999
 20
115.8689999999999
 30
0.0
 11
115.40000000000001
 21
113.6579999999999
 31
0.0
  0
LINE
  5
F5
  8
0
 62
     7
 10
115.40000000000001
 20
113.6579999999999
 30
0.0
 11
116.58499999999999
 21
113.6579999999999
 31
0.0
  0
LINE
  5
F6
  8
0
 62
     7
 10
116.0
 20
92.534800000000004
 30
0.0
 11
116.0
 21
115.8689999999999
 31
0.0
  0
LINE
  5
F7
  8
0
 62
     7
 10
116.7
 20
163.71100000000001
 30
0.0
 11
103.39100000000001
 21
163.71100000000001
 31
0.0
  0
LINE
  5
F8
  8
0
 62
     7
 10
89.891699999999986
 20
194.7109999999999
 30
0.0
 11
116.7
 21
194.7109999999999
 31
0.0
  0
LINE
  5
F9
  8
0
 62
     7
 10
115.41500000000001
 20
165.92099999999991
 30
0.0
 11
116.00700000000001
 21
163.71000000000001
 31
0.0
  0
LINE
  5
FA
  8
0
 62
     7
 10
116.00700000000001
 20
163.71000000000001
 30
0.0
 11
116.59999999999989
 21
165.92099999999991
 31
0.0
  0
LINE
  5
FB
  8
0
 62
     7
 10
116.59999999999989
 20
165.92099999999991
 30
0.0
 11
115.41500000000001
 21
165.92099999999991
 31
0.0
  0
LINE
  5
FC
  8
0
 62
     7
 10
116.58499999999999
 20
192.50099999999989
 30
0.0
 11
115.9929999999999
 21
194.71299999999991
 31
0.0
  0
LINE
  5
FD
  8
0
 62
     7
 10
115.9929999999999
 20
194.71299999999991
 30
0.0
 11
115.40000000000001
 21
192.50099999999989
 31
0.0
  0
LINE
  5
FE
  8
0
 62
     7
 10
115.40000000000001
 20
192.50099999999989
 30
0.0
 11
116.58499999999999
 21
192.50099999999989
 31
0.0
  0
LINE
  5
FF
  8
0
 62
     7
 10
116.0
 20
163.71100000000001
 30
0.0
 11
116.0
 21
194.7109999999999
 31
0.0
  0
LINE
  5
100
  8
0
 62
     7
 10
131.75499999999991
 20
125.473
 30
0.0
 11
131.75499999999991
 21
116.758
 31
0.0
  0
LINE
  5
101
  8
0
 62
     7
 10
162.756
 20
125.473
 30
0.0
 11
162.756
 21
116.21899999999999
 31
0.0
  0
LINE
  5
102
  8
0
 62
     7
 10
161.08899999999991
 20
125.473
 30
0.0
 11
161.08899999999991
 21
116.827
 31
0.0
  0
LINE
  5
103
  8
0
 62
     7
 10
158.8779999999999
 20
124.1879999999999
 30
0.0
 11
161.08999999999989
 21
124.78
 31
0.0
  0
LINE
  5
104
  8
0
 62
     7
 10
161.08999999999989
 20
124.78
 30
0.0
 11
158.8779999999999
 21
125.373
 31
0.0
  0
LINE
  5
105
  8
0
 62
     7
 10
158.8779999999999
 20
125.373
 30
0.0
 11
158.8779999999999
 21
124.1879999999999
 31
0.0
  0
LINE
  5
106
  8
0
 62
     7
 10
164.96700000000001
 20
125.3579999999999
 30
0.0
 11
162.756
 21
124.76599999999991
 31
0.0
  0
LINE
  5
107
  8
0
 62
     7
 10
162.756
 20
124.76599999999991
 30
0.0
 11
164.96700000000001
 21
124.173
 31
0.0
  0
LINE
  5
108
  8
0
 62
     7
 10
164.96700000000001
 20
124.173
 30
0.0
 11
164.96700000000001
 21
125.3579999999999
 31
0.0
  0
LINE
  5
109
  8
0
 62
     7
 10
133.96600000000001
 20
125.3579999999999
 30
0.0
 11
131.75399999999991
 21
124.76599999999991
 31
0.0
  0
LINE
  5
10A
  8
0
 62
     7
 10
131.75399999999991
 20
124.76599999999991
 30
0.0
 11
133.96600000000001
 21
124.173
 31
0.0
  0
LINE
  5
10B
  8
0
 62
     7
 10
133.96600000000001
 20
124.173
 30
0.0
 11
133.96600000000001
 21
125.3579999999999
 31
0.0
  0
LINE
  5
10C
  8
0
 62
     7
 10
166.8059999999999
 20
124.773
 30
0.0
 11
131.75499999999991
 21
124.773
 31
0.0
  0
LINE
  5
10D
  8
0
 62
     7
 10
52.457599999999999
 20
125.473
 30
0.0
 11
52.457599999999999
 21
114.871
 31
0.0
  0
LINE
  5
10E
  8
0
 62
     7
 10
86.458299999999994
 20
125.473
 30
0.0
 11
86.458299999999994
 21
115.2209999999999
 31
0.0
  0
LINE
  5
10F
  8
0
 62
     7
 10
84.247200000000007
 20
124.187
 30
0.0
 11
86.459000000000003
 21
124.78
 31
0.0
  0
LINE
  5
110
  8
0
 62
     7
 10
86.459000000000003
 20
124.78
 30
0.0
 11
84.247200000000007
 21
125.373
 31
0.0
  0
LINE
  5
111
  8
0
 62
     7
 10
84.247200000000007
 20
125.373
 30
0.0
 11
84.247200000000007
 21
124.187
 31
0.0
  0
LINE
  5
112
  8
0
 62
     7
 10
54.668300000000002
 20
125.3579999999999
 30
0.0
 11
52.456600000000002
 21
124.7649999999999
 31
0.0
  0
LINE
  5
113
  8
0
 62
     7
 10
52.456600000000002
 20
124.7649999999999
 30
0.0
 11
54.668300000000002
 21
124.173
 31
0.0
  0
LINE
  5
114
  8
0
 62
     7
 10
54.668300000000002
 20
124.173
 30
0.0
 11
54.668300000000002
 21
125.3579999999999
 31
0.0
  0
LINE
  5
115
  8
0
 62
     7
 10
86.458299999999994
 20
124.773
 30
0.0
 11
52.457599999999999
 21
124.773
 31
0.0
  0
LINE
  5
116
  8
0
 62
     7
 10
85.791300000000007
 20
206.99499999999989
 30
0.0
 11
87.124600000000001
 21
207.4899999999999
 31
0.0
  0
LINE
  5
117
  8
0
 62
     7
 10
85.791300000000007
 20
194.93899999999999
 30
0.0
 11
87.124600000000001
 21
195.434
 31
0.0
  0
LINE
  5
118
  8
0
 62
     7
 10
85.791300000000007
 20
195.8009999999999
 30
0.0
 11
87.124600000000001
 21
196.29400000000001
 31
0.0
  0
LINE
  5
119
  8
0
 62
     7
 10
85.791300000000007
 20
196.66099999999989
 30
0.0
 11
87.124600000000001
 21
197.15599999999989
 31
0.0
  0
LINE
  5
11A
  8
0
 62
     7
 10
85.791300000000007
 20
197.52299999999991
 30
0.0
 11
87.124600000000001
 21
198.017
 31
0.0
  0
LINE
  5
11B
  8
0
 62
     7
 10
85.791300000000007
 20
198.38399999999999
 30
0.0
 11
87.124600000000001
 21
198.87799999999999
 31
0.0
  0
LINE
  5
11C
  8
0
 62
     7
 10
85.791300000000007
 20
199.245
 30
0.0
 11
87.124600000000001
 21
199.739
 31
0.0
  0
LINE
  5
11D
  8
0
 62
     7
 10
85.791300000000007
 20
200.10599999999991
 30
0.0
 11
87.124600000000001
 21
200.59999999999991
 31
0.0
  0
LINE
  5
11E
  8
0
 62
     7
 10
85.791300000000007
 20
200.96700000000001
 30
0.0
 11
87.124600000000001
 21
201.46199999999999
 31
0.0
  0
LINE
  5
11F
  8
0
 62
     7
 10
85.791300000000007
 20
201.82899999999989
 30
0.0
 11
87.124600000000001
 21
202.322
 31
0.0
  0
LINE
  5
120
  8
0
 62
     7
 10
85.791300000000007
 20
202.68999999999991
 30
0.0
 11
87.124600000000001
 21
203.184
 31
0.0
  0
LINE
  5
121
  8
0
 62
     7
 10
85.791300000000007
 20
203.5509999999999
 30
0.0
 11
87.124600000000001
 21
204.0449999999999
 31
0.0
  0
LINE
  5
122
  8
0
 62
     7
 10
85.791300000000007
 20
204.41199999999989
 30
0.0
 11
87.124600000000001
 21
204.90599999999989
 31
0.0
  0
LINE
  5
123
  8
0
 62
     7
 10
85.791300000000007
 20
205.27299999999991
 30
0.0
 11
87.124600000000001
 21
205.76699999999991
 31
0.0
  0
LINE
  5
124
  8
0
 62
     7
 10
86.759399999999999
 20
207.11500000000001
 30
0.0
 11
86.458299999999994
 21
208.0449999999999
 31
0.0
  0
LINE
  5
125
  8
0
 62
     7
 10
86.156499999999994
 20
207.11500000000001
 30
0.0
 11
86.458299999999994
 21
208.0449999999999
 31
0.0
  0
LINE
  5
126
  8
0
 62
     7
 10
86.759399999999999
 20
207.11500000000001
 30
0.0
 11
86.759399999999999
 21
194.7109999999999
 31
0.0
  0
LINE
  5
127
  8
0
 62
     7
 10
86.156499999999994
 20
207.11500000000001
 30
0.0
 11
86.156499999999994
 21
194.7109999999999
 31
0.0
  0
LINE
  5
128
  8
0
 62
     7
 10
85.791300000000007
 20
206.13399999999999
 30
0.0
 11
87.124600000000001
 21
206.6279999999999
 31
0.0
  0
LINE
  5
129
  8
0
 62
     7
 10
51.7911
 20
206.99499999999989
 30
0.0
 11
53.124600000000001
 21
207.4899999999999
 31
0.0
  0
LINE
  5
12A
  8
0
 62
     7
 10
51.7911
 20
194.93899999999999
 30
0.0
 11
53.124600000000001
 21
195.434
 31
0.0
  0
LINE
  5
12B
  8
0
 62
     7
 10
51.7911
 20
195.8009999999999
 30
0.0
 11
53.124600000000001
 21
196.29400000000001
 31
0.0
  0
LINE
  5
12C
  8
0
 62
     7
 10
51.7911
 20
196.66099999999989
 30
0.0
 11
53.124600000000001
 21
197.15599999999989
 31
0.0
  0
LINE
  5
12D
  8
0
 62
     7
 10
51.7911
 20
197.52299999999991
 30
0.0
 11
53.124600000000001
 21
198.017
 31
0.0
  0
LINE
  5
12E
  8
0
 62
     7
 10
51.7911
 20
198.38399999999999
 30
0.0
 11
53.124600000000001
 21
198.87799999999999
 31
0.0
  0
LINE
  5
12F
  8
0
 62
     7
 10
51.7911
 20
199.245
 30
0.0
 11
53.124600000000001
 21
199.739
 31
0.0
  0
LINE
  5
130
  8
0
 62
     7
 10
51.7911
 20
200.10599999999991
 30
0.0
 11
53.124600000000001
 21
200.59999999999991
 31
0.0
  0
LINE
  5
131
  8
0
 62
     7
 10
51.7911
 20
200.96700000000001
 30
0.0
 11
53.124600000000001
 21
201.46199999999999
 31
0.0
  0
LINE
  5
132
  8
0
 62
     7
 10
51.7911
 20
201.82899999999989
 30
0.0
 11
53.124600000000001
 21
202.322
 31
0.0
  0
LINE
  5
133
  8
0
 62
     7
 10
51.7911
 20
202.68999999999991
 30
0.0
 11
53.124600000000001
 21
203.184
 31
0.0
  0
LINE
  5
134
  8
0
 62
     7
 10
51.7911
 20
203.5509999999999
 30
0.0
 11
53.124600000000001
 21
204.0449999999999
 31
0.0
  0
LINE
  5
135
  8
0
 62
     7
 10
51.7911
 20
204.41199999999989
 30
0.0
 11
53.124600000000001
 21
204.90599999999989
 31
0.0
  0
LINE
  5
136
  8
0
 62
     7
 10
51.7911
 20
205.27299999999991
 30
0.0
 11
53.124600000000001
 21
205.76699999999991
 31
0.0
  0
LINE
  5
137
  8
0
 62
     7
 10
52.759399999999999
 20
207.11500000000001
 30
0.0
 11
52.457599999999999
 21
208.0449999999999
 31
0.0
  0
LINE
  5
138
  8
0
 62
     7
 10
52.155799999999999
 20
207.11500000000001
 30
0.0
 11
52.457599999999999
 21
208.0449999999999
 31
0.0
  0
LINE
  5
139
  8
0
 62
     7
 10
52.759399999999999
 20
207.11500000000001
 30
0.0
 11
52.759399999999999
 21
194.7109999999999
 31
0.0
  0
LINE
  5
13A
  8
0
 62
     7
 10
52.155799999999999
 20
207.11500000000001
 30
0.0
 11
52.155799999999999
 21
194.7109999999999
 31
0.0
  0
LINE
  5
13B
  8
0
 62
     7
 10
51.7911
 20
206.13399999999999
 30
0.0
 11
53.124600000000001
 21
206.6279999999999
 31
0.0
  0
LINE
  5
13C
  8
0
  6
AIGENLINE001
 62
     7
 10
52.457599999999999
 20
208.89099999999991
 30
0.0
 11
52.457599999999999
 21
191.11500000000001
 31
0.0
  0
LINE
  5
13D
  8
0
 62
     7
 10
78.958100000000002
 20
192.21199999999999
 30
0.0
 11
78.958100000000002
 21
190.5449999999999
 31
0.0
  0
LINE
  5
13E
  8
0
 62
     7
 10
83.957899999999995
 20
192.21199999999999
 30
0.0
 11
83.957899999999995
 21
190.5449999999999
 31
0.0
  0
LINE
  5
13F
  8
0
 62
     7
 10
78.958100000000002
 20
190.5449999999999
 30
0.0
 11
83.957899999999995
 21
190.5449999999999
 31
0.0
  0
LINE
  5
140
  8
0
 62
     7
 10
54.957900000000002
 20
192.21199999999999
 30
0.0
 11
54.957900000000002
 21
190.5449999999999
 31
0.0
  0
LINE
  5
141
  8
0
 62
     7
 10
59.957999999999998
 20
192.21199999999999
 30
0.0
 11
59.957999999999998
 21
190.5449999999999
 31
0.0
  0
LINE
  5
142
  8
0
 62
     7
 10
54.957900000000002
 20
190.5449999999999
 30
0.0
 11
59.957999999999998
 21
190.5449999999999
 31
0.0
  0
LINE
  5
143
  8
0
 62
     7
 10
49.957799999999992
 20
194.7109999999999
 30
0.0
 11
88.958100000000002
 21
194.7109999999999
 31
0.0
  0
LINE
  5
144
  8
0
 62
     7
 10
88.958100000000002
 20
193.04499999999999
 30
0.0
 11
88.958100000000002
 21
194.7109999999999
 31
0.0
  0
LINE
  5
145
  8
0
 62
     7
 10
49.957799999999992
 20
193.04499999999999
 30
0.0
 11
49.957799999999992
 21
194.7109999999999
 31
0.0
  0
LINE
  5
146
  8
0
 62
     7
 10
36.457599999999999
 20
192.2109999999999
 30
0.0
 11
102.458
 21
192.2109999999999
 31
0.0
  0
LINE
  5
147
  8
0
 62
     7
 10
36.457599999999999
 20
193.04499999999999
 30
0.0
 11
102.458
 21
193.04499999999999
 31
0.0
  0
LINE
  5
148
  8
0
 62
     7
 10
36.457599999999999
 20
164.54400000000001
 30
0.0
 11
102.458
 21
164.54400000000001
 31
0.0
  0
LINE
  5
149
  8
0
 62
     7
 10
36.457599999999999
 20
163.71100000000001
 30
0.0
 11
102.458
 21
163.71100000000001
 31
0.0
  0
LINE
  5
14A
  8
0
 62
     7
 10
105.6249999999999
 20
109.8689999999999
 30
0.0
 11
104.7919999999999
 21
109.8689999999999
 31
0.0
  0
LINE
  5
14B
  8
0
 62
     7
 10
33.290900000000001
 20
109.8689999999999
 30
0.0
 11
34.124600000000001
 21
109.8689999999999
 31
0.0
  0
LINE
  5
14C
  8
0
 62
     7
 10
96.458500000000015
 20
109.202
 30
0.0
 11
96.458500000000015
 21
92.534800000000004
 31
0.0
  0
LINE
  5
14D
  8
0
 62
     7
 10
95.791499999999999
 20
109.8689999999999
 30
0.0
 11
91.125100000000003
 21
109.8689999999999
 31
0.0
  0
ARC
  5
14E
  8
0
 62
     7
 10
95.766075999999998
 20
109.17619499999989
 30
0.0
 40
0.6928510000000001
 50
2.101745999999999
 51
87.898243999999977
  0
LINE
  5
14F
  8
0
 62
     7
 10
90.458100000000016
 20
109.202
 30
0.0
 11
90.458100000000016
 21
92.534800000000004
 31
0.0
  0
ARC
  5
150
  8
0
 62
     7
 10
91.150483999999992
 20
109.17619499999989
 30
0.0
 40
0.69285
 50
92.101718999999974
 51
177.8982509999999
  0
LINE
  5
151
  8
0
 62
     7
 10
84.458099999999988
 20
109.202
 30
0.0
 11
84.458099999999988
 21
92.534800000000004
 31
0.0
  0
LINE
  5
152
  8
0
 62
     7
 10
83.791799999999995
 20
109.8689999999999
 30
0.0
 11
79.124899999999997
 21
109.8689999999999
 31
0.0
  0
ARC
  5
153
  8
0
 62
     7
 10
83.765720999999999
 20
109.1762429999999
 30
0.0
 40
0.6928270000000002
 50
2.0977890000000001
 51
87.842980999999995
  0
LINE
  5
154
  8
0
 62
     7
 10
78.458200000000005
 20
109.202
 30
0.0
 11
78.458200000000005
 21
92.534800000000004
 31
0.0
  0
ARC
  5
155
  8
0
 62
     7
 10
79.150285999999994
 20
109.1765459999999
 30
0.0
 40
0.6925
 50
92.103363999999999
 51
177.926209
  0
LINE
  5
156
  8
0
 62
     7
 10
72.458200000000005
 20
109.202
 30
0.0
 11
72.458200000000005
 21
92.534800000000004
 31
0.0
  0
LINE
  5
157
  8
0
 62
     7
 10
71.791200000000003
 20
109.8689999999999
 30
0.0
 11
67.124799999999993
 21
109.8689999999999
 31
0.0
  0
ARC
  5
158
  8
0
 62
     7
 10
71.765839
 20
109.17619499999989
 30
0.0
 40
0.6928510000000001
 50
2.101745999999999
 51
87.898243999999977
  0
LINE
  5
159
  8
0
 62
     7
 10
66.458200000000005
 20
109.202
 30
0.0
 11
66.458200000000005
 21
92.534800000000004
 31
0.0
  0
ARC
  5
15A
  8
0
 62
     7
 10
67.150254000000004
 20
109.1765459999999
 30
0.0
 40
0.6925
 50
92.103363999999999
 51
177.926209
  0
LINE
  5
15B
  8
0
 62
     7
 10
60.458199999999991
 20
109.202
 30
0.0
 11
60.458199999999991
 21
92.534800000000004
 31
0.0
  0
LINE
  5
15C
  8
0
 62
     7
 10
59.791200000000003
 20
109.8689999999999
 30
0.0
 11
55.124600000000001
 21
109.8689999999999
 31
0.0
  0
ARC
  5
15D
  8
0
 62
     7
 10
59.765806000000012
 20
109.17619499999989
 30
0.0
 40
0.6928510000000001
 50
2.101745999999999
 51
87.898243999999977
  0
LINE
  5
15E
  8
0
 62
     7
 10
54.458199999999998
 20
109.202
 30
0.0
 11
54.458199999999998
 21
92.534800000000004
 31
0.0
  0
ARC
  5
15F
  8
0
 62
     7
 10
55.150027000000001
 20
109.17674599999999
 30
0.0
 40
0.6922990000000001
 50
92.102187999999984
 51
177.94219200000001
  0
LINE
  5
160
  8
0
 62
     7
 10
48.457599999999999
 20
109.202
 30
0.0
 11
48.457599999999999
 21
92.534800000000004
 31
0.0
  0
LINE
  5
161
  8
0
 62
     7
 10
47.791200000000003
 20
109.8689999999999
 30
0.0
 11
43.124600000000001
 21
109.8689999999999
 31
0.0
  0
ARC
  5
162
  8
0
 62
     7
 10
47.765273999999991
 20
109.176231
 30
0.0
 40
0.6928330000000001
 50
2.0987779999999998
 51
87.856801999999988
  0
LINE
  5
163
  8
0
 62
     7
 10
42.457599999999992
 20
109.202
 30
0.0
 11
42.457599999999992
 21
92.534800000000004
 31
0.0
  0
ARC
  5
164
  8
0
 62
     7
 10
43.149984000000003
 20
109.17622
 30
0.0
 40
0.692824
 50
92.099720000000005
 51
177.90024999999989
  0
LINE
  5
165
  8
0
 62
     7
 10
37.610199999999999
 20
115.8689999999999
 30
0.0
 11
101.306
 21
115.8689999999999
 31
0.0
  0
ARC
  5
166
  8
0
 62
     7
 10
101.281047
 20
115.17695000000001
 30
0.0
 40
0.692086
 50
3.2420399999999998
 51
87.955309999999997
  0
ARC
  5
167
  8
0
 62
     7
 10
37.634861999999998
 20
115.17663
 30
0.0
 40
0.6924060000000001
 50
92.043425999999982
 51
176.79002999999989
  0
LINE
  5
168
  8
0
 62
     7
 10
84.458099999999988
 20
92.534800000000004
 30
0.0
 11
90.458100000000016
 21
92.534800000000004
 31
0.0
  0
LINE
  5
169
  8
0
 62
     7
 10
72.458200000000005
 20
92.534800000000004
 30
0.0
 11
78.458200000000005
 21
92.534800000000004
 31
0.0
  0
LINE
  5
16A
  8
0
 62
     7
 10
60.457799999999999
 20
92.534800000000004
 30
0.0
 11
66.458200000000005
 21
92.534800000000004
 31
0.0
  0
LINE
  5
16B
  8
0
 62
     7
 10
48.458199999999991
 20
92.534800000000004
 30
0.0
 11
54.458199999999998
 21
92.534800000000004
 31
0.0
  0
LINE
  5
16C
  8
_________2
 62
     7
 10
205.30099999999999
 20
127.411
 30
0.0
 11
183.55000000000001
 21
127.411
 31
0.0
  0
LINE
  5
16D
  8
_________2
 62
     7
 10
100.2999999999999
 20
-4.0910799999999998
 30
0.0
 11
100.2999999999999
 21
-21.071400000000001
 31
0.0
  0
LINE
  5
16E
  8
_________2
 62
     7
 10
100.2999999999999
 20
275.93099999999993
 30
0.0
 11
100.2999999999999
 21
258.911
 31
0.0
  0
LINE
  5
16F
  8
_________2
 62
     7
 10
17.049499999999998
 20
127.411
 30
0.0
 11
-4.70052
 21
127.411
 31
0.0
  0
LINE
  5
170
  8
_________2
 62
     7
 10
76.741
 20
29.8047
 30
0.0
 11
74.554699999999997
 21
29.8047
 31
0.0
  0
LINE
  5
171
  8
_________2
 62
     7
 10
77.233699999999999
 20
29.8047
 30
0.0
 11
76.981499999999997
 21
29.8047
 31
0.0
  0
LINE
  5
172
  8
_________2
 62
     7
 10
77.726299999999995
 20
29.8047
 30
0.0
 11
80.651200000000003
 21
29.8047
 31
0.0
  0
LINE
  5
173
  8
_________2
 62
     7
 10
77.233699999999999
 20
29.8047
 30
0.0
 11
77.485500000000002
 21
29.8047
 31
0.0
  0
LINE
  5
174
  8
_________2
 62
     7
 10
70.837100000000007
 20
29.8047
 30
0.0
 11
68.650499999999994
 21
29.8047
 31
0.0
  0
LINE
  5
175
  8
_________2
 62
     7
 10
71.329400000000007
 20
29.8047
 30
0.0
 11
71.077600000000004
 21
29.8047
 31
0.0
  0
LINE
  5
176
  8
_________2
 62
     7
 10
71.329400000000007
 20
30.2974
 30
0.0
 11
71.329400000000007
 21
32.484400000000001
 31
0.0
  0
LINE
  5
177
  8
_________2
 62
     7
 10
71.329400000000007
 20
29.8047
 30
0.0
 11
71.329400000000007
 21
30.056899999999992
 31
0.0
  0
LINE
  5
178
  8
_________2
 62
     7
 10
71.822100000000006
 20
29.8047
 30
0.0
 11
74.009
 21
29.8047
 31
0.0
  0
LINE
  5
179
  8
_________2
 62
     7
 10
71.329400000000007
 20
29.8047
 30
0.0
 11
71.581599999999995
 21
29.8047
 31
0.0
  0
LINE
  5
17A
  8
_________2
 62
     7
 10
71.329400000000007
 20
29.312799999999999
 30
0.0
 11
71.329400000000007
 21
27.125800000000002
 31
0.0
  0
LINE
  5
17B
  8
_________2
 62
     7
 10
71.329400000000007
 20
29.8047
 30
0.0
 11
71.329400000000007
 21
29.5532
 31
0.0
  0
LINE
  5
17C
  8
_________2
 62
     7
 10
75.040499999999994
 20
28.5852
 30
0.0
 11
80.218500000000006
 21
27.720400000000001
 31
0.0
  0
LINE
  5
17D
  8
_________2
 62
     7
 10
75.040499999999994
 20
31.0243
 30
0.0
 11
80.218500000000006
 21
31.889700000000001
 31
0.0
  0
LINE
  5
17E
  8
_________2
 62
     7
 10
80.218500000000006
 20
27.720400000000001
 30
0.0
 11
80.218500000000006
 21
31.889700000000001
 31
0.0
  0
LINE
  5
17F
  8
_________2
 62
     7
 10
75.040499999999994
 20
28.5852
 30
0.0
 11
75.040499999999994
 21
31.0243
 31
0.0
  0
ARC
  5
180
  8
_________2
 62
     7
 10
71.28285600000001
 20
29.757811
 30
0.0
 40
1.2673589999999999
 50
2.122214
 51
87.893958999999995
  0
ARC
  5
181
  8
_________2
 62
     7
 10
71.375959999999992
 20
29.758213000000001
 30
0.0
 40
1.2669559999999991
 50
92.104701000000006
 51
177.8952689999999
  0
ARC
  5
182
  8
_________2
 62
     7
 10
71.376357999999996
 20
29.851671
 30
0.0
 40
1.2673680000000001
 50
182.12203600000001
 51
267.877993
  0
ARC
  5
183
  8
_________2
 62
     7
 10
71.282531999999989
 20
29.851998999999989
 30
0.0
 40
1.267695999999999
 50
272.12015300000002
 51
357.863674
  0
ARC
  5
184
  8
_________2
 62
     7
 10
71.329430000000002
 20
29.804742999999998
 30
0.0
 40
2.0849849999999992
 50
0.00001
 51
89.999980000000008
  0
ARC
  5
185
  8
_________2
 62
     7
 10
71.329603000000006
 20
29.804915000000001
 30
0.0
 40
2.084813
 50
90.004733999999999
 51
180.00474399999999
  0
ARC
  5
186
  8
_________2
 62
     7
 10
71.409106000000008
 20
29.884775999999999
 30
0.0
 40
2.1657950000000001
 50
182.11776599999999
 51
267.89173399999999
  0
ARC
  5
187
  8
_________2
 62
     7
 10
71.249459000000002
 20
29.885429999999989
 30
0.0
 40
2.1664590000000001
 50
272.11546800000002
 51
357.86560400000002
  0
TEXT
  5
188
  8
_________2
 62
     7
 10
104.605
 20
1.6794899999999999
 30
0.0
 40
3.0923400000000001
  1
図番
 41
0.5
  0
LINE
  5
189
  8
_________2
 62
     7
 10
103.55
 20
5.9087199999999989
 30
0.0
 11
183.55099999999999
 21
5.9087199999999989
 31
0.0
  0
TEXT
  5
18A
  8
_________2
 62
     7
 10
104.605
 20
11.679299999999991
 30
0.0
 40
3.0923400000000001
  1
品番
 41
0.5
  0
TEXT
  5
18B
  8
_________2
 62
     7
 10
104.605
 20
31.818100000000001
 30
0.0
 40
3.0923400000000001
  1
名称
 41
0.5
  0
TEXT
  5
18C
  8
_________2
 62
     7
 10
91.845058333333341
 20
26.821999999999989
 30
0.0
 40
3.6545800000000002
  1
mm
 41
0.5
 72
     1
 11
93.367800000000003
 21
26.821999999999989
 31
0.0
  0
TEXT
  5
18D
  8
_________2
 62
     7
 10
85.643199999999993
 20
31.818100000000001
 30
0.0
 40
3.0923400000000001
  1
単位
 41
0.5
  0
TEXT
  5
18E
  8
_________2
 62
     7
 10
85.643199999999993
 20
19.410799999999991
 30
0.0
 40
3.0923400000000001
  1
尺度
 41
0.5
  0
TEXT
  5
18F
  8
_________2
 62
     7
 10
90.548758666666686
 20
13.2179
 30
0.0
 40
3.6545800000000002
  1
1 ： 3
 41
0.5
 72
     1
 11
93.959699999999998
 21
13.2179
 31
0.0
  0
TEXT
  5
190
  8
_________2
 62
     7
 10
136.00657499999991
 20
9.1078600000000005
 30
0.0
 40
3.9357000000000002
  1
EC.S17452
 41
0.5
 72
     1
 11
143.55000000000001
 21
9.1078600000000005
 31
0.0
  0
TEXT
  5
191
  8
_________2
 62
     7
 10
136.33455000000001
 20
-0.8926299999999999
 30
0.0
 40
3.9357000000000002
  1
ECS17452
 41
0.5
 72
     1
 11
143.55000000000001
 21
-0.8926299999999999
 31
0.0
  0
TEXT
  5
192
  8
_________2
 62
     7
 10
109.179
 20
24.2257
 30
0.0
 40
3.9357000000000002
  1
リエゾン　バスケット
 41
0.5
  0
TEXT
  5
193
  8
_________2
 62
     7
 10
39.364390666666658
 20
13.603
 30
0.0
 40
3.6545800000000002
  1
石原
 41
0.5
 72
     1
 11
41.313499999999998
 21
13.603
 31
0.0
  0
TEXT
  5
194
  8
_________2
 62
     7
 10
20.790090666666661
 20
13.603
 30
0.0
 40
3.6545800000000002
  1
菅原
 41
0.5
 72
     1
 11
22.73919999999999
 21
13.603
 31
0.0
  0
TEXT
  5
195
  8
_________2
 62
     7
 10
67.785399999999996
 20
13.2179
 30
0.0
 40
3.6545800000000002
  1
11.03.17
 41
0.5
  0
TEXT
  5
196
  8
_________2
 62
     7
 10
66.593100000000007
 20
19.410799999999991
 30
0.0
 40
3.0923400000000001
  1
日付
 41
0.5
  0
TEXT
  5
197
  8
_________2
 62
     7
 10
29.639399999999998
 20
19.410799999999991
 30
0.0
 40
3.0923400000000001
  1
検図
 41
0.5
  0
TEXT
  5
198
  8
_________2
 62
     7
 10
18.021100000000001
 20
5.21143
 30
0.0
 40
3.0923400000000001
  1
備考
 41
0.5
  0
TEXT
  5
199
  8
_________2
 62
     7
 10
18.021100000000001
 20
19.410799999999991
 30
0.0
 40
3.0923400000000001
  1
製図
 41
0.5
  0
TEXT
  5
19A
  8
_________2
 62
     7
 10
23.788465333333338
 20
27.936800000000002
 30
0.0
 40
4.4979399999999989
  1
セラトレーディング株式会社
 41
0.5
 72
     1
 11
41.180500000000002
 21
27.936800000000002
 31
0.0
  0
LINE
  5
19B
  8
_________2
 62
     7
 10
183.55099999999999
 20
-4.0910799999999998
 30
0.0
 11
17.049499999999998
 21
-4.0910799999999998
 31
0.0
  0
LINE
  5
19C
  8
_________2
 62
     7
 10
17.049499999999998
 20
-4.0910799999999998
 30
0.0
 11
17.049499999999998
 21
258.911
 31
0.0
  0
LINE
  5
19D
  8
_________2
 62
     7
 10
17.049499999999998
 20
258.911
 30
0.0
 11
183.55099999999999
 21
258.911
 31
0.0
  0
LINE
  5
19E
  8
_________2
 62
     7
 10
183.55099999999999
 20
258.911
 30
0.0
 11
183.55099999999999
 21
-4.0910799999999998
 31
0.0
  0
LINE
  5
19F
  8
_________2
 62
     7
 10
65.549599999999998
 20
9.4089600000000004
 30
0.0
 11
65.549599999999998
 21
35.908799999999999
 31
0.0
  0
LINE
  5
1A0
  8
_________2
 62
     7
 10
84.549700000000016
 20
9.4089600000000004
 30
0.0
 11
84.549700000000016
 21
35.908799999999999
 31
0.0
  0
LINE
  5
1A1
  8
_________2
 62
     7
 10
103.55
 20
-4.0910799999999998
 30
0.0
 11
103.55
 21
35.908799999999999
 31
0.0
  0
LINE
  5
1A2
  8
_________2
 62
     7
 10
28.549299999999992
 20
9.4089600000000004
 30
0.0
 11
28.549299999999992
 21
23.409199999999998
 31
0.0
  0
LINE
  5
1A3
  8
_________2
 62
     7
 10
17.049499999999998
 20
9.4089600000000004
 30
0.0
 11
103.55
 21
9.4089600000000004
 31
0.0
  0
LINE
  5
1A4
  8
_________2
 62
     7
 10
17.049499999999998
 20
23.409199999999998
 30
0.0
 11
103.55
 21
23.409199999999998
 31
0.0
  0
LINE
  5
1A5
  8
_________2
 62
     7
 10
103.55
 20
15.9085
 30
0.0
 11
183.55099999999999
 21
15.9085
 31
0.0
  0
LINE
  5
1A6
  8
_________2
 62
     7
 10
17.049499999999998
 20
35.908799999999999
 30
0.0
 11
183.55099999999999
 21
35.908799999999999
 31
0.0
  0
ENDSEC
  0
EOF
