  0
SECTION
  2
HEADER
  9
$ACADVER
  1
AC1009
  9
$INSBASE
 10
0.0
 20
0.0
 30
0.0
  9
$EXTMIN
 10
-4.70052
 20
-21.071400000000001
 30
0.0
  9
$EXTMAX
 10
205.30099999999999
 20
275.93099999999993
 30
0.0
  9
$LIMMIN
 10
0.0
 20
0.0
  9
$LIMMAX
 10
12.0
 20
9.0
  9
$ORTHOMODE
 70
     0
  9
$REGENMODE
 70
     1
  9
$FILLMODE
 70
     1
  9
$QTEXTMODE
 70
     0
  9
$MIRRTEXT
 70
     1
  9
$DRAGMODE
 70
     2
  9
$LTSCALE
 40
1.0
  9
$OSMODE
 70
    37
  9
$ATTMODE
 70
     1
  9
$TEXTSIZE
 40
0.0
  9
$TRACEWID
 40
0.05
  9
$TEXTSTYLE
  7
STANDARD
  9
$CLAYER
  8
0
  9
$CELTYPE
  6
CONTINUOUS
  9
$CECOLOR
 62
   256
  9
$DIMSCALE
 40
1.0
  9
$DIMASZ
 40
0.18
  9
$DIMEXO
 40
0.0625
  9
$DIMDLI
 40
0.38
  9
$DIMRND
 40
0.0
  9
$DIMDLE
 40
0.0
  9
$DIMEXE
 40
0.18
  9
$DIMTP
 40
0.0
  9
$DIMTM
 40
0.0
  9
$DIMTXT
 40
0.18
  9
$DIMCEN
 40
0.09
  9
$DIMTSZ
 40
0.0
  9
$DIMTOL
 70
     0
  9
$DIMLIM
 70
     0
  9
$DIMTIH
 70
     1
  9
$DIMTOH
 70
     1
  9
$DIMSE1
 70
     0
  9
$DIMSE2
 70
     0
  9
$DIMTAD
 70
     0
  9
$DIMZIN
 70
     0
  9
$DIMBLK
  1

  9
$DIMASO
 70
     1
  9
$DIMSHO
 70
     1
  9
$DIMPOST
  1

  9
$DIMAPOST
  1

  9
$DIMALT
 70
     0
  9
$DIMALTD
 70
     2
  9
$DIMALTF
 40
25.399999999999999
  9
$DIMLFAC
 40
1.0
  9
$DIMTOFL
 70
     0
  9
$DIMTVP
 40
0.0
  9
$DIMTIX
 70
     0
  9
$DIMSOXD
 70
     0
  9
$DIMSAH
 70
     0
  9
$DIMBLK1
  1

  9
$DIMBLK2
  1

  9
$DIMSTYLE
  2
STANDARD
  9
$DIMCLRD
 70
     0
  9
$DIMCLRE
 70
     0
  9
$DIMCLRT
 70
     0
  9
$DIMTFAC
 40
1.0
  9
$DIMGAP
 40
0.09
  9
$LUNITS
 70
     2
  9
$LUPREC
 70
     4
  9
$SKETCHINC
 40
0.1
  9
$FILLETRAD
 40
0.0
  9
$AUNITS
 70
     0
  9
$AUPREC
 70
     0
  9
$MENU
  1
.
  9
$ELEVATION
 40
0.0
  9
$PELEVATION
 40
0.0
  9
$THICKNESS
 40
0.0
  9
$LIMCHECK
 70
     0
  9
$BLIPMODE
 70
     0
  9
$CHAMFERA
 40
0.0
  9
$CHAMFERB
 40
0.0
  9
$SKPOLY
 70
     0
  9
$TDCREATE
 40
2444972.375
  9
$TDUPDATE
 40
2455649.378202396
  9
$TDINDWG
 40
0.0000076505
  9
$TDUSRTIMER
 40
0.0000076505
  9
$USRTIMER
 70
     1
  9
$ANGBASE
 50
0.0
  9
$ANGDIR
 70
     0
  9
$PDMODE
 70
     0
  9
$PDSIZE
 40
0.0
  9
$PLINEWID
 40
0.0
  9
$COORDS
 70
     1
  9
$SPLFRAME
 70
     0
  9
$SPLINETYPE
 70
     6
  9
$SPLINESEGS
 70
     8
  9
$ATTDIA
 70
     0
  9
$ATTREQ
 70
     1
  9
$HANDLING
 70
     1
  9
$HANDSEED
  5
25C
  9
$SURFTAB1
 70
     6
  9
$SURFTAB2
 70
     6
  9
$SURFTYPE
 70
     6
  9
$SURFU
 70
     6
  9
$SURFV
 70
     6
  9
$UCSNAME
  2

  9
$UCSORG
 10
0.0
 20
0.0
 30
0.0
  9
$UCSXDIR
 10
1.0
 20
0.0
 30
0.0
  9
$UCSYDIR
 10
0.0
 20
1.0
 30
0.0
  9
$PUCSNAME
  2

  9
$PUCSORG
 10
0.0
 20
0.0
 30
0.0
  9
$PUCSXDIR
 10
1.0
 20
0.0
 30
0.0
  9
$PUCSYDIR
 10
0.0
 20
1.0
 30
0.0
  9
$USERI1
 70
     0
  9
$USERI2
 70
     0
  9
$USERI3
 70
     0
  9
$USERI4
 70
     0
  9
$USERI5
 70
     0
  9
$USERR1
 40
0.0
  9
$USERR2
 40
0.0
  9
$USERR3
 40
0.0
  9
$USERR4
 40
0.0
  9
$USERR5
 40
0.0
  9
$WORLDVIEW
 70
     1
  9
$SHADEDGE
 70
     3
  9
$SHADEDIF
 70
    70
  9
$TILEMODE
 70
     1
  9
$MAXACTVP
 70
    48
  9
$PLIMCHECK
 70
     0
  9
$PEXTMIN
 10
1.0000000000000000E+020
 20
1.0000000000000000E+020
 30
1.0000000000000000E+020
  9
$PEXTMAX
 10
-1.0000000000000000E+020
 20
-1.0000000000000000E+020
 30
-1.0000000000000000E+020
  9
$PLIMMIN
 10
0.0
 20
0.0
  9
$PLIMMAX
 10
12.0
 20
9.0
  9
$UNITMODE
 70
     0
  9
$VISRETAIN
 70
     1
  9
$PLINEGEN
 70
     0
  9
$PSLTSCALE
 70
     1
  0
ENDSEC
  0
SECTION
  2
TABLES
  0
TABLE
  2
VPORT
 70
     2
  0
VPORT
  2
*ACTIVE
 70
     0
 10
0.0
 20
0.0
 11
1.0
 21
1.0
 12
205.3106854945909
 22
127.4297999999999
 13
0.0
 23
0.0
 14
1.0
 24
1.0
 15
0.0
 25
0.0
 16
0.0
 26
0.0
 36
1.0
 17
0.0
 27
0.0
 37
0.0
 40
299.2467506297229
 41
2.2894736842105261
 42
50.0
 43
0.0
 44
0.0
 50
0.0
 51
0.0
 71
     0
 72
   100
 73
     1
 74
     1
 75
     0
 76
     0
 77
     0
 78
     0
  0
ENDTAB
  0
TABLE
  2
LTYPE
 70
     3
  0
LTYPE
  2
CONTINUOUS
 70
     0
  3
Solid line
 72
    65
 73
     0
 40
0.0
  0
LTYPE
  2
AIGENLINE001
 70
     0
  3
generate AI->DXF Converter
 72
    65
 73
     4
 40
5.8561449999999988
 49
3.5278
 49
-0.776115
 49
0.776115
 49
-0.776115
  0
LTYPE
  2
AIGENLINE002
 70
     0
  3
generate AI->DXF Converter
 72
    65
 73
     2
 40
1.5522299999999991
 49
0.776115
 49
-0.776115
  0
ENDTAB
  0
TABLE
  2
LAYER
 70
     2
  0
LAYER
  2
0
 70
     0
 62
     7
  6
CONTINUOUS
  0
LAYER
  2
_________2
 70
     0
 62
     7
  6
CONTINUOUS
  0
ENDTAB
  0
TABLE
  2
STYLE
 70
     1
  0
STYLE
  2
STANDARD
 70
     0
 40
0.0
 41
0.0
 50
0.0
 71
     0
 42
0.0
  3
TXT
  4
EXTFONT.SHX
  0
ENDTAB
  0
TABLE
  2
VIEW
 70
     0
  0
ENDTAB
  0
TABLE
  2
UCS
 70
     0
  0
ENDTAB
  0
TABLE
  2
APPID
 70
     1
  0
APPID
  2
ACAD
 70
     0
  0
ENDTAB
  0
TABLE
  2
DIMSTYLE
 70
     1
  0
DIMSTYLE
  2
STANDARD
 70
     0
  3

  4

  5

  6

  7

 40
1.0
 41
0.18
 42
0.0625
 43
0.38
 44
0.18
 45
0.0
 46
0.0
 47
0.0
 48
0.0
140
0.18
141
0.09
142
0.0
143
25.399999999999999
144
1.0
145
0.0
146
1.0
147
0.09
 71
     0
 72
     0
 73
     1
 74
     1
 75
     0
 76
     0
 77
     0
 78
     0
170
     0
171
     2
172
     0
173
     0
174
     0
175
     0
176
     0
177
     0
178
     0
  0
ENDTAB
  0
ENDSEC
  0
SECTION
  2
BLOCKS
  0
BLOCK
  8
0
  2
$MODEL_SPACE
 70
     0
 10
0.0
 20
0.0
 30
0.0
  3
$MODEL_SPACE
  1

  0
ENDBLK
  5
1A
  8
0
  0
BLOCK
 67
     1
  8
0
  2
$PAPER_SPACE
 70
     0
 10
0.0
 20
0.0
 30
0.0
  3
$PAPER_SPACE
  1

  0
ENDBLK
  5
17
 67
     1
  8
0
  0
ENDSEC
  0
SECTION
  2
ENTITIES
  0
TEXT
  5
23
  8
0
 62
     7
 10
111.70639300000001
 20
196.995
 30
0.0
 40
3.0923400000000001
  1
（%%c6×30樹脂プラグ付）
 41
0.5
 72
     2
 11
132.99199999999999
 21
196.995
 31
0.0
  0
TEXT
  5
24
  8
0
 62
     7
 10
99.491650000000021
 20
202.83500000000001
 30
0.0
 40
3.0923400000000001
  1
%%c4×45 SUS十字穴付タッピングネジ
 41
0.5
 72
     2
 11
132.99199999999999
 21
202.83500000000001
 31
0.0
  0
TEXT
  5
25
  8
0
 62
     7
 10
104.09699999999999
 20
84.042599999999979
 30
0.0
 40
3.0923400000000001
  1
10
 50
90.0
 41
0.5
  0
TEXT
  5
26
  8
0
 62
     7
 10
28.216899999999999
 20
161.3463549999999
 30
0.0
 40
3.0923400000000001
  1
182.5
 50
90.0
 41
0.5
 72
     1
 11
28.216899999999999
 21
164.1809999999999
 31
0.0
  0
TEXT
  5
27
  8
0
 62
     7
 10
34.475999999999992
 20
175.8507449999999
 30
0.0
 40
3.0923400000000001
  1
68.5
 50
90.0
 41
0.5
 72
     1
 11
34.475999999999992
 21
178.1699999999999
 31
0.0
  0
TEXT
  5
28
  8
0
 62
     7
 10
34.475999999999992
 20
161.4433724999999
 30
0.0
 40
3.0923400000000001
  1
60
 50
90.0
 41
0.5
 72
     1
 11
34.475999999999992
 21
162.60299999999989
 31
0.0
  0
TEXT
  5
29
  8
0
 62
     7
 10
104.09699999999999
 20
99.310372500000014
 30
0.0
 40
3.0923400000000001
  1
70
 50
90.0
 41
0.5
 72
     1
 11
104.09699999999999
 21
100.4699999999999
 31
0.0
  0
TEXT
  5
2A
  8
0
 62
     7
 10
73.065472499999998
 20
203.709
 30
0.0
 40
3.0923400000000001
  1
60
 41
0.5
 72
     1
 11
74.225099999999983
 21
203.709
 31
0.0
  0
TEXT
  5
2B
  8
0
 62
     7
 10
56.162844999999997
 20
203.709
 30
0.0
 40
3.0923400000000001
  1
68.5
 41
0.5
 72
     1
 11
58.482100000000003
 21
203.709
 31
0.0
  0
TEXT
  5
2C
  8
0
 62
     7
 10
69.020655000000005
 20
210.102
 30
0.0
 40
3.0923400000000001
  1
182.5
 41
0.5
 72
     1
 11
71.855299999999986
 21
210.102
 31
0.0
  0
LINE
  5
2D
  8
0
 62
     7
 10
132.99199999999999
 20
201.2579999999999
 30
0.0
 11
97.546600000000012
 21
201.2579999999999
 31
0.0
  0
LINE
  5
2E
  8
0
 62
     7
 10
83.807799999999986
 20
193.09299999999999
 30
0.0
 11
82.280299999999997
 21
191.3899999999999
 31
0.0
  0
LINE
  5
2F
  8
0
 62
     7
 10
82.280299999999997
 20
191.3899999999999
 30
0.0
 11
84.455299999999994
 21
192.101
 31
0.0
  0
LINE
  5
30
  8
0
 62
     7
 10
84.455299999999994
 20
192.101
 30
0.0
 11
83.807799999999986
 21
193.09299999999999
 31
0.0
  0
LINE
  5
31
  8
0
 62
     7
 10
82.2761
 20
191.3949999999999
 30
0.0
 11
97.546600000000012
 21
201.2579999999999
 31
0.0
  0
LINE
  5
32
  8
0
 62
     7
 10
166.65499999999989
 20
90.027799999999985
 30
0.0
 11
166.19900000000001
 21
91.027600000000007
 31
0.0
  0
LINE
  5
33
  8
0
 62
     7
 10
167.37899999999999
 20
90.027799999999985
 30
0.0
 11
166.92299999999989
 21
91.027600000000007
 31
0.0
  0
LINE
  5
34
  8
0
 62
     7
 10
175.33699999999999
 20
90.027799999999985
 30
0.0
 11
174.88200000000001
 21
91.027600000000007
 31
0.0
  0
LINE
  5
35
  8
0
 62
     7
 10
174.614
 20
90.027799999999985
 30
0.0
 11
174.1579999999999
 21
91.027600000000007
 31
0.0
  0
LINE
  5
36
  8
0
 62
     7
 10
173.8899999999999
 20
90.027799999999985
 30
0.0
 11
173.435
 21
91.027600000000007
 31
0.0
  0
LINE
  5
37
  8
0
 62
     7
 10
173.167
 20
90.027799999999985
 30
0.0
 11
172.7109999999999
 21
91.027600000000007
 31
0.0
  0
LINE
  5
38
  8
0
 62
     7
 10
172.4429999999999
 20
90.027799999999985
 30
0.0
 11
171.98699999999999
 21
91.027600000000007
 31
0.0
  0
LINE
  5
39
  8
0
 62
     7
 10
171.72
 20
90.027799999999985
 30
0.0
 11
171.26400000000001
 21
91.027600000000007
 31
0.0
  0
LINE
  5
3A
  8
0
 62
     7
 10
170.9959999999999
 20
90.027799999999985
 30
0.0
 11
170.541
 21
91.027600000000007
 31
0.0
  0
LINE
  5
3B
  8
0
 62
     7
 10
170.273
 20
90.027799999999985
 30
0.0
 11
169.81700000000001
 21
91.027600000000007
 31
0.0
  0
LINE
  5
3C
  8
0
 62
     7
 10
169.54900000000001
 20
90.027799999999985
 30
0.0
 11
169.09399999999999
 21
91.027600000000007
 31
0.0
  0
LINE
  5
3D
  8
0
 62
     7
 10
168.82599999999991
 20
90.027799999999985
 30
0.0
 11
168.36999999999989
 21
91.027600000000007
 31
0.0
  0
LINE
  5
3E
  8
0
  6
AIGENLINE001
 62
     7
 10
176.45400000000001
 20
90.527299999999997
 30
0.0
 11
164.97200000000001
 21
90.527299999999997
 31
0.0
  0
LINE
  5
3F
  8
0
 62
     7
 10
175.15199999999999
 20
90.260000000000005
 30
0.0
 11
175.93499999999989
 21
90.527299999999997
 31
0.0
  0
LINE
  5
40
  8
0
 62
     7
 10
175.1509999999999
 20
90.795399999999987
 30
0.0
 11
175.93499999999989
 21
90.527299999999997
 31
0.0
  0
LINE
  5
41
  8
0
 62
     7
 10
175.15199999999999
 20
90.260000000000005
 30
0.0
 11
165.935
 21
90.260000000000005
 31
0.0
  0
LINE
  5
42
  8
0
 62
     7
 10
175.1509999999999
 20
90.795399999999987
 30
0.0
 11
165.935
 21
90.795399999999987
 31
0.0
  0
LINE
  5
43
  8
0
 62
     7
 10
168.102
 20
90.027799999999985
 30
0.0
 11
167.64699999999999
 21
91.027600000000007
 31
0.0
  0
LINE
  5
44
  8
0
  6
AIGENLINE001
 62
     7
 10
81.763300000000001
 20
89.643999999999991
 30
0.0
 11
81.763300000000001
 21
91.367999999999995
 31
0.0
  0
LINE
  5
45
  8
0
  6
AIGENLINE001
 62
     7
 10
83.074500000000015
 20
90.527299999999997
 30
0.0
 11
80.423500000000004
 21
90.527299999999997
 31
0.0
  0
LINE
  5
46
  8
0
  6
AIGENLINE002
 62
     7
 10
82.138499999999979
 20
90.027100000000004
 30
0.0
 11
81.388499999999993
 21
90.027100000000004
 31
0.0
  0
LINE
  5
47
  8
0
  6
AIGENLINE002
 62
     7
 10
82.138499999999979
 20
91.027600000000007
 30
0.0
 11
81.388499999999993
 21
91.027600000000007
 31
0.0
  0
ARC
  5
48
  8
0
  6
AIGENLINE002
 62
     7
 10
81.388483999999977
 20
90.527345999999994
 30
0.0
 40
0.5002310000000002
 50
179.99996999999991
 51
270.00002000000001
  0
ARC
  5
49
  8
0
  6
AIGENLINE002
 62
     7
 10
81.388483999999977
 20
90.527345999999994
 30
0.0
 40
0.5002310000000002
 50
90.0
 51
179.99996999999991
  0
ARC
  5
4A
  8
0
  6
AIGENLINE002
 62
     7
 10
82.119680000000002
 20
90.508898000000002
 30
0.0
 40
0.5190200000000002
 50
2.037004
 51
87.923512999999986
  0
ARC
  5
4B
  8
0
  6
AIGENLINE002
 62
     7
 10
82.119107999999997
 20
90.546367000000004
 30
0.0
 40
0.5196130000000001
 50
272.13725799999997
 51
357.90222499999987
  0
LINE
  5
4C
  8
0
  6
AIGENLINE001
 62
     7
 10
66.763300000000001
 20
89.643999999999991
 30
0.0
 11
66.763300000000001
 21
91.367999999999995
 31
0.0
  0
LINE
  5
4D
  8
0
  6
AIGENLINE001
 62
     7
 10
68.0745
 20
90.527299999999997
 30
0.0
 11
65.423500000000004
 21
90.527299999999997
 31
0.0
  0
LINE
  5
4E
  8
0
  6
AIGENLINE002
 62
     7
 10
67.138400000000004
 20
90.027100000000004
 30
0.0
 11
66.388400000000004
 21
90.027100000000004
 31
0.0
  0
LINE
  5
4F
  8
0
  6
AIGENLINE002
 62
     7
 10
67.138400000000004
 20
91.027600000000007
 30
0.0
 11
66.388400000000004
 21
91.027600000000007
 31
0.0
  0
ARC
  5
50
  8
0
  6
AIGENLINE002
 62
     7
 10
66.388443000000009
 20
90.527345999999994
 30
0.0
 40
0.5002310000000002
 50
179.99996999999991
 51
270.00002000000001
  0
ARC
  5
51
  8
0
  6
AIGENLINE002
 62
     7
 10
66.388443000000009
 20
90.527345999999994
 30
0.0
 40
0.5002310000000002
 50
90.0
 51
179.99996999999991
  0
ARC
  5
52
  8
0
  6
AIGENLINE002
 62
     7
 10
67.119639000000006
 20
90.508898000000002
 30
0.0
 40
0.5190200000000002
 50
2.037004
 51
87.923512999999986
  0
ARC
  5
53
  8
0
  6
AIGENLINE002
 62
     7
 10
67.119067000000001
 20
90.546367000000004
 30
0.0
 40
0.5196130000000001
 50
272.13725799999997
 51
357.90222499999987
  0
LINE
  5
54
  8
0
  6
AIGENLINE001
 62
     7
 10
133.809
 20
89.643999999999991
 30
0.0
 11
133.809
 21
91.367999999999995
 31
0.0
  0
LINE
  5
55
  8
0
  6
AIGENLINE001
 62
     7
 10
132.49799999999991
 20
90.527299999999997
 30
0.0
 11
135.149
 21
90.527299999999997
 31
0.0
  0
LINE
  5
56
  8
0
  6
AIGENLINE002
 62
     7
 10
133.434
 20
90.027100000000004
 30
0.0
 11
134.18399999999991
 21
90.027100000000004
 31
0.0
  0
LINE
  5
57
  8
0
  6
AIGENLINE002
 62
     7
 10
133.434
 20
91.027600000000007
 30
0.0
 11
134.18399999999991
 21
91.027600000000007
 31
0.0
  0
ARC
  5
58
  8
0
  6
AIGENLINE002
 62
     7
 10
134.1842169999999
 20
90.527345999999994
 30
0.0
 40
0.5002310000000002
 50
270.00002000000001
 51
359.99998999999991
  0
ARC
  5
59
  8
0
  6
AIGENLINE002
 62
     7
 10
134.1842169999999
 20
90.527345999999994
 30
0.0
 40
0.5002310000000002
 50
0.00001
 51
89.999980000000008
  0
ARC
  5
5A
  8
0
  6
AIGENLINE002
 62
     7
 10
133.4532759999999
 20
90.508642000000009
 30
0.0
 40
0.519285
 50
92.103645999999998
 51
177.93579800000001
  0
ARC
  5
5B
  8
0
  6
AIGENLINE002
 62
     7
 10
133.4535929999999
 20
90.546367000000004
 30
0.0
 40
0.5196130000000001
 50
182.09777700000001
 51
267.86277899999988
  0
LINE
  5
5C
  8
0
  6
AIGENLINE001
 62
     7
 10
148.80899999999991
 20
89.643999999999991
 30
0.0
 11
148.80899999999991
 21
91.367999999999995
 31
0.0
  0
LINE
  5
5D
  8
0
  6
AIGENLINE001
 62
     7
 10
147.49799999999991
 20
90.527299999999997
 30
0.0
 11
150.14899999999989
 21
90.527299999999997
 31
0.0
  0
LINE
  5
5E
  8
0
  6
AIGENLINE002
 62
     7
 10
148.43399999999991
 20
90.027100000000004
 30
0.0
 11
149.184
 21
90.027100000000004
 31
0.0
  0
LINE
  5
5F
  8
0
  6
AIGENLINE002
 62
     7
 10
148.43399999999991
 20
91.027600000000007
 30
0.0
 11
149.184
 21
91.027600000000007
 31
0.0
  0
ARC
  5
60
  8
0
  6
AIGENLINE002
 62
     7
 10
149.184257
 20
90.527345999999994
 30
0.0
 40
0.5002310000000002
 50
270.00002000000001
 51
359.99998999999991
  0
ARC
  5
61
  8
0
  6
AIGENLINE002
 62
     7
 10
149.184257
 20
90.527345999999994
 30
0.0
 40
0.5002310000000002
 50
0.00001
 51
89.999980000000008
  0
ARC
  5
62
  8
0
  6
AIGENLINE002
 62
     7
 10
148.45331699999991
 20
90.508642000000009
 30
0.0
 40
0.519285
 50
92.103645999999998
 51
177.93579800000001
  0
ARC
  5
63
  8
0
  6
AIGENLINE002
 62
     7
 10
148.453633
 20
90.546367000000004
 30
0.0
 40
0.5196130000000001
 50
182.09777700000001
 51
267.86277899999988
  0
LINE
  5
64
  8
0
 62
     7
 10
156.309
 20
90.652699999999996
 30
0.0
 11
156.309
 21
91.277699999999996
 31
0.0
  0
LINE
  5
65
  8
0
 62
     7
 10
160.56
 20
90.652699999999996
 30
0.0
 11
160.56
 21
91.277699999999996
 31
0.0
  0
LINE
  5
66
  8
0
 62
     7
 10
156.93399999999991
 20
91.277699999999996
 30
0.0
 11
157.18499999999989
 21
91.777199999999979
 31
0.0
  0
LINE
  5
67
  8
0
 62
     7
 10
160.559
 20
90.652699999999996
 30
0.0
 11
156.309
 21
90.652699999999996
 31
0.0
  0
LINE
  5
68
  8
0
 62
     7
 10
160.559
 20
91.277699999999996
 30
0.0
 11
156.309
 21
91.277699999999996
 31
0.0
  0
LINE
  5
69
  8
0
 62
     7
 10
159.93399999999991
 20
91.277699999999996
 30
0.0
 11
159.685
 21
91.777199999999979
 31
0.0
  0
ARC
  5
6A
  8
0
 62
     7
 10
138.962965
 20
91.806200000000004
 30
0.0
 40
0.7791610000000001
 50
182.13043300000001
 51
267.869597
  0
ARC
  5
6B
  8
0
 62
     7
 10
151.90587400000001
 20
91.806200000000004
 30
0.0
 40
0.7791610000000001
 50
272.13042300000001
 51
357.86958700000002
  0
LINE
  5
6C
  8
0
 62
     7
 10
138.934
 20
91.027600000000007
 30
0.0
 11
151.935
 21
91.027600000000007
 31
0.0
  0
LINE
  5
6D
  8
0
 62
     7
 10
150.685
 20
89.277500000000003
 30
0.0
 11
150.685
 21
91.027600000000007
 31
0.0
  0
LINE
  5
6E
  8
0
 62
     7
 10
153.184
 20
89.277500000000003
 30
0.0
 11
153.184
 21
91.777199999999979
 31
0.0
  0
LINE
  5
6F
  8
0
 62
     7
 10
163.185
 20
89.277500000000003
 30
0.0
 11
163.185
 21
91.777199999999979
 31
0.0
  0
LINE
  5
70
  8
0
 62
     7
 10
130.93399999999991
 20
89.277500000000003
 30
0.0
 11
130.93399999999991
 21
91.777199999999979
 31
0.0
  0
LINE
  5
71
  8
0
 62
     7
 10
165.935
 20
89.277500000000003
 30
0.0
 11
165.935
 21
91.777199999999979
 31
0.0
  0
LINE
  5
72
  8
0
 62
     7
 10
165.935
 20
89.277500000000003
 30
0.0
 11
130.93399999999991
 21
89.277500000000003
 31
0.0
  0
ARC
  5
73
  8
0
 62
     7
 10
122.09698899999989
 20
93.075294999999997
 30
0.0
 40
1.2989539999999999
 50
182.09488200000001
 51
267.87357099999991
  0
ARC
  5
74
  8
0
 62
     7
 10
121.669557
 20
93.076103999999987
 30
0.0
 40
1.299779
 50
182.1292389999999
 51
267.85500500000001
  0
LINE
  5
75
  8
0
 62
     7
 10
120.669
 20
104.77799999999991
 30
0.0
 11
120.5
 21
104.77799999999991
 31
0.0
  0
ARC
  5
76
  8
0
 62
     7
 10
118.9979979999999
 20
104.27789
 30
0.0
 40
1.8009040000000001
 50
359.98752500000001
 51
8.2688759999999988
  0
ARC
  5
77
  8
0
 62
     7
 10
120.2060389999999
 20
104.4734449999999
 30
0.0
 40
0.577637
 50
6.3062279999999991
 51
27.820564999999998
  0
ARC
  5
78
  8
0
 62
     7
 10
120.663454
 20
104.71970899999999
 30
0.0
 40
0.058321
 50
23.571076999999988
 51
84.181534999999997
  0
ARC
  5
79
  8
0
 62
     7
 10
120.505107
 20
104.7236019999999
 30
0.0
 40
0.054348
 50
95.168891000000002
 51
151.60537600000001
  0
ARC
  5
7A
  8
0
 62
     7
 10
120.779623
 20
104.5461369999999
 30
0.0
 40
0.381088
 50
147.7578629999999
 51
169.765241
  0
ARC
  5
7B
  8
0
 62
     7
 10
121.8741779999999
 20
104.297284
 30
0.0
 40
1.503288999999999
 50
167.8435409999999
 51
180.75415799999999
  0
LINE
  5
7C
  8
0
 62
     7
 10
120.371
 20
104.2769999999999
 30
0.0
 11
120.371
 21
93.027799999999999
 31
0.0
  0
LINE
  5
7D
  8
0
 62
     7
 10
120.79899999999989
 20
104.2769999999999
 30
0.0
 11
120.79899999999989
 21
93.027799999999999
 31
0.0
  0
LINE
  5
7E
  8
0
 62
     7
 10
165.935
 20
91.777199999999979
 30
0.0
 11
121.5589999999999
 21
91.777199999999979
 31
0.0
  0
LINE
  5
7F
  8
0
 62
     7
 10
122.2879999999999
 20
104.2769999999999
 30
0.0
 11
122.2879999999999
 21
93.027799999999999
 31
0.0
  0
LINE
  5
80
  8
0
 62
     7
 10
123.0929999999999
 20
92.402199999999979
 30
0.0
 11
122.913
 21
92.402199999999979
 31
0.0
  0
ARC
  5
81
  8
0
 62
     7
 10
122.93741299999991
 20
93.051682999999997
 30
0.0
 40
0.649969
 50
182.104727
 51
267.83216699999991
  0
LINE
  5
82
  8
0
 62
     7
 10
121.645
 20
104.2769999999999
 30
0.0
 11
121.645
 21
93.027799999999999
 31
0.0
  0
ARC
  5
83
  8
0
 62
     7
 10
122.94276499999989
 20
93.075294999999997
 30
0.0
 40
1.2989539999999999
 50
182.09488200000001
 51
267.87357099999991
  0
LINE
  5
84
  8
0
 62
     7
 10
122.926
 20
104.2769999999999
 30
0.0
 11
122.926
 21
93.027799999999999
 31
0.0
  0
ARC
  5
85
  8
0
 62
     7
 10
124.224456
 20
93.076103999999987
 30
0.0
 40
1.299779
 50
182.1292389999999
 51
267.85500500000001
  0
LINE
  5
86
  8
0
 62
     7
 10
126.705
 20
104.2769999999999
 30
0.0
 11
126.705
 21
93.027799999999999
 31
0.0
  0
ARC
  5
87
  8
0
 62
     7
 10
128.0033939999999
 20
93.076078999999993
 30
0.0
 40
1.299768
 50
182.128185
 51
267.84026799999998
  0
LINE
  5
88
  8
0
 62
     7
 10
124.69499999999999
 20
104.2769999999999
 30
0.0
 11
124.69499999999999
 21
93.027799999999999
 31
0.0
  0
ARC
  5
89
  8
0
 62
     7
 10
125.993072
 20
93.075294999999997
 30
0.0
 40
1.2989539999999999
 50
182.09488200000001
 51
267.87357099999991
  0
LINE
  5
8A
  8
0
 62
     7
 10
125.387
 20
104.2769999999999
 30
0.0
 11
125.387
 21
93.027799999999999
 31
0.0
  0
LINE
  5
8B
  8
0
 62
     7
 10
126.012
 20
92.402199999999979
 30
0.0
 11
126.872
 21
92.402199999999979
 31
0.0
  0
ARC
  5
8C
  8
0
 62
     7
 10
126.0366409999999
 20
93.051682999999997
 30
0.0
 40
0.649969
 50
182.104727
 51
267.83216699999991
  0
LINE
  5
8D
  8
0
 62
     7
 10
131.8539999999999
 20
93.027799999999999
 30
0.0
 11
131.8539999999999
 21
104.2769999999999
 31
0.0
  0
ARC
  5
8E
  8
0
 62
     7
 10
133.153166
 20
93.076103999999987
 30
0.0
 40
1.299779
 50
182.1292389999999
 51
267.85500500000001
  0
LINE
  5
8F
  8
0
 62
     7
 10
130.38499999999991
 20
104.2769999999999
 30
0.0
 11
130.38499999999991
 21
93.027799999999999
 31
0.0
  0
LINE
  5
90
  8
0
 62
     7
 10
132.02199999999999
 20
92.402199999999979
 30
0.0
 11
131.00999999999999
 21
92.402199999999979
 31
0.0
  0
ARC
  5
91
  8
0
 62
     7
 10
131.03447199999999
 20
93.051682999999997
 30
0.0
 40
0.649969
 50
182.104727
 51
267.83216699999991
  0
LINE
  5
92
  8
0
 62
     7
 10
129.59399999999991
 20
104.2769999999999
 30
0.0
 11
129.59399999999991
 21
93.027799999999999
 31
0.0
  0
ARC
  5
93
  8
0
 62
     7
 10
130.89168399999991
 20
93.075294999999997
 30
0.0
 40
1.2989539999999999
 50
182.09488200000001
 51
267.87357099999991
  0
ARC
  5
94
  8
0
 62
     7
 10
122.5002649999999
 20
104.675285
 30
0.0
 40
0.102452
 50
90.669382999999996
 51
128.70163299999999
  0
ARC
  5
95
  8
0
 62
     7
 10
122.602144
 20
104.55113900000001
 30
0.0
 40
0.263044
 50
129.11187299999989
 51
156.56321
  0
ARC
  5
96
  8
0
 62
     7
 10
123.126614
 20
104.311975
 30
0.0
 40
0.8394399999999999
 50
155.82389499999991
 51
182.3538889999999
  0
LINE
  5
97
  8
0
 62
     7
 10
122.7549999999999
 20
104.77799999999991
 30
0.0
 11
121.85599999999999
 21
104.77799999999991
 31
0.0
  0
ARC
  5
98
  8
0
 62
     7
 10
121.857079
 20
104.67560399999989
 30
0.0
 40
0.102133
 50
90.681216000000006
 51
128.76463000000001
  0
ARC
  5
99
  8
0
 62
     7
 10
121.95944399999991
 20
104.550881
 30
0.0
 40
0.263481
 50
129.1397179999999
 51
156.54324199999999
  0
ARC
  5
9A
  8
0
 62
     7
 10
122.48314499999989
 20
104.31174300000001
 30
0.0
 40
0.8391649999999998
 50
155.79810199999989
 51
182.33880500000001
  0
ARC
  5
9B
  8
0
 62
     7
 10
121.790576
 20
104.278524
 30
0.0
 40
1.134998999999999
 50
359.94824799999992
 51
22.423306
  0
ARC
  5
9C
  8
0
 62
     7
 10
122.736829
 20
104.66706599999991
 30
0.0
 40
0.112096
 50
23.33309899999999
 51
80.828615999999997
  0
LINE
  5
9D
  8
0
 62
     7
 10
120.3089999999999
 20
93.027799999999999
 30
0.0
 11
120.3089999999999
 21
108.77799999999991
 31
0.0
  0
ARC
  5
9E
  8
0
 62
     7
 10
121.607438
 20
93.075294999999997
 30
0.0
 40
1.2989539999999999
 50
182.09488200000001
 51
267.87357099999991
  0
LINE
  5
9F
  8
0
 62
     7
 10
165.43499999999989
 20
109.27799999999991
 30
0.0
 11
120.809
 21
109.27799999999991
 31
0.0
  0
ARC
  5
A0
  8
0
 62
     7
 10
120.8282899999999
 20
108.7588159999999
 30
0.0
 40
0.5192750000000002
 50
92.102579000000006
 51
177.9368639999999
  0
LINE
  5
A1
  8
0
 62
     7
 10
137.934
 20
92.402199999999979
 30
0.0
 11
136.0979999999999
 21
92.402199999999979
 31
0.0
  0
LINE
  5
A2
  8
0
 62
     7
 10
135.65599999999989
 20
93.027799999999999
 30
0.0
 11
135.65599999999989
 21
104.2769999999999
 31
0.0
  0
ARC
  5
A3
  8
0
 62
     7
 10
136.43549400000001
 20
93.030185999999986
 30
0.0
 40
0.7798720000000001
 50
180.17441199999999
 51
224.33800899999989
  0
ARC
  5
A4
  8
0
 62
     7
 10
136.106177
 20
92.757811000000004
 30
0.0
 40
0.355735
 50
230.04033100000001
 51
268.62400099999991
  0
LINE
  5
A5
  8
0
 62
     7
 10
135.21299999999999
 20
104.2769999999999
 30
0.0
 11
135.21299999999999
 21
93.027799999999999
 31
0.0
  0
ARC
  5
A6
  8
0
 62
     7
 10
136.87605999999991
 20
93.030042000000009
 30
0.0
 40
1.6627879999999999
 50
180.07683499999999
 51
210.461994
  0
ARC
  5
A7
  8
0
 62
     7
 10
136.268708
 20
92.705095000000014
 30
0.0
 40
0.9749309999999999
 50
212.09682599999991
 51
242.16442000000001
  0
ARC
  5
A8
  8
0
 62
     7
 10
136.100221
 20
92.435404000000005
 30
0.0
 40
0.6581770000000001
 50
244.17255399999991
 51
269.71493900000002
  0
ARC
  5
A9
  8
0
 62
     7
 10
125.67812499999989
 20
104.57057499999991
 30
0.0
 40
0.207193
 50
91.116352000000006
 51
150.99221900000001
  0
ARC
  5
AA
  8
0
 62
     7
 10
126.025329
 20
104.311511
 30
0.0
 40
0.6391250000000001
 50
145.76782299999991
 51
183.05061599999999
  0
ARC
  5
AB
  8
0
 62
     7
 10
130.75598099999999
 20
104.47720099999999
 30
0.0
 40
0.300538
 50
90.459793000000019
 51
138.90914100000001
  0
ARC
  5
AC
  8
0
 62
     7
 10
130.93928700000001
 20
104.30071
 30
0.0
 40
0.5548310000000001
 50
137.61437599999991
 51
182.39772199999999
  0
ARC
  5
AD
  8
0
 62
     7
 10
136.0957239999999
 20
104.36121799999999
 30
0.0
 40
0.4165710000000001
 50
90.969159000000005
 51
155.838176
  0
ARC
  5
AE
  8
0
 62
     7
 10
136.21325999999999
 20
104.280046
 30
0.0
 40
0.557639
 50
153.17086499999991
 51
180.26183099999989
  0
LINE
  5
AF
  8
0
 62
     7
 10
124.982
 20
104.77799999999991
 30
0.0
 11
126.41799999999991
 21
104.77799999999991
 31
0.0
  0
ARC
  5
B0
  8
0
 62
     7
 10
124.985677
 20
104.5709989999999
 30
0.0
 40
0.206771
 50
91.124239000000017
 51
151.06135
  0
ARC
  5
B1
  8
0
 62
     7
 10
125.33404299999989
 20
104.311379
 30
0.0
 40
0.639954
 50
145.80402000000001
 51
183.03477899999999
  0
ARC
  5
B2
  8
0
 62
     7
 10
125.92416
 20
104.277173
 30
0.0
 40
0.780363
 50
0.023871
 51
28.016113000000001
  0
ARC
  5
B3
  8
0
 62
     7
 10
126.38257299999989
 20
104.517134
 30
0.0
 40
0.262978
 50
28.775323
 51
82.282224999999997
  0
LINE
  5
B4
  8
0
 62
     7
 10
137.934
 20
91.777199999999979
 30
0.0
 11
137.934
 21
104.2769999999999
 31
0.0
  0
LINE
  5
B5
  8
0
 62
     7
 10
131.4859999999999
 20
104.77799999999991
 30
0.0
 11
129.96199999999999
 21
104.77799999999991
 31
0.0
  0
ARC
  5
B6
  8
0
 62
     7
 10
129.96463700000001
 20
104.47720099999999
 30
0.0
 40
0.300538
 50
90.459793000000019
 51
138.90914100000001
  0
ARC
  5
B7
  8
0
 62
     7
 10
130.147944
 20
104.30071
 30
0.0
 40
0.5548310000000001
 50
137.61437599999991
 51
182.39772199999999
  0
ARC
  5
B8
  8
0
 62
     7
 10
131.2597669999999
 20
104.2743339999999
 30
0.0
 40
0.594525
 50
0.304991
 51
50.570019000000002
  0
ARC
  5
B9
  8
0
 62
     7
 10
131.48329099999989
 20
104.487042
 30
0.0
 40
0.290697
 50
57.992097999999991
 51
89.533694999999994
  0
LINE
  5
BA
  8
0
 62
     7
 10
137.501
 20
104.77799999999991
 30
0.0
 11
135.64599999999999
 21
104.77799999999991
 31
0.0
  0
ARC
  5
BB
  8
0
 62
     7
 10
135.6533389999999
 20
104.3611499999999
 30
0.0
 40
0.4166390000000001
 50
90.964598000000009
 51
155.832099
  0
ARC
  5
BC
  8
0
 62
     7
 10
135.77139700000001
 20
104.280078
 30
0.0
 40
0.5581300000000001
 50
153.1999919999999
 51
180.26488099999989
  0
ARC
  5
BD
  8
0
 62
     7
 10
137.38522699999999
 20
104.27348000000001
 30
0.0
 40
0.5490140000000001
 50
0.419372
 51
53.434623999999992
  0
ARC
  5
BE
  8
0
 62
     7
 10
137.49892999999989
 20
104.386482
 30
0.0
 40
0.391253
 50
56.951892000000001
 51
89.671048999999996
  0
LINE
  5
BF
  8
0
 62
     7
 10
142.18399999999991
 20
91.777899999999988
 30
0.0
 11
142.18399999999991
 21
104.2769999999999
 31
0.0
  0
LINE
  5
C0
  8
0
 62
     7
 10
145.46499999999989
 20
104.77799999999991
 30
0.0
 11
142.65399999999991
 21
104.77799999999991
 31
0.0
  0
ARC
  5
C1
  8
0
 62
     7
 10
142.674497
 20
104.288015
 30
0.0
 40
0.490142
 50
92.392353000000014
 51
181.2294149999999
  0
LINE
  5
C2
  8
0
 62
     7
 10
145.934
 20
91.777199999999979
 30
0.0
 11
145.934
 21
104.2769999999999
 31
0.0
  0
ARC
  5
C3
  8
0
 62
     7
 10
145.41564099999991
 20
104.260938
 30
0.0
 40
0.5191020000000001
 50
1.8281160000000001
 51
84.592053000000007
  0
LINE
  5
C4
  8
0
 62
     7
 10
150.184
 20
91.777199999999979
 30
0.0
 11
150.184
 21
104.2769999999999
 31
0.0
  0
LINE
  5
C5
  8
0
 62
     7
 10
153.93600000000001
 20
104.77799999999991
 30
0.0
 11
150.68299999999991
 21
104.77799999999991
 31
0.0
  0
ARC
  5
C6
  8
0
 62
     7
 10
150.7016659999999
 20
104.260513
 30
0.0
 40
0.51757
 50
92.117876999999993
 51
178.1193429999999
  0
LINE
  5
C7
  8
0
 62
     7
 10
154.434
 20
91.777199999999979
 30
0.0
 11
154.434
 21
104.2769999999999
 31
0.0
  0
ARC
  5
C8
  8
0
 62
     7
 10
153.93524600000001
 20
104.278704
 30
0.0
 40
0.4990270000000001
 50
359.86156699999998
 51
89.861536999999998
  0
LINE
  5
C9
  8
0
 62
     7
 10
150.184
 20
92.402199999999979
 30
0.0
 11
154.435
 21
92.402199999999979
 31
0.0
  0
LINE
  5
CA
  8
0
 62
     7
 10
142.18399999999991
 20
92.402199999999979
 30
0.0
 11
145.934
 21
92.402199999999979
 31
0.0
  0
LINE
  5
CB
  8
0
 62
     7
 10
162.934
 20
92.402199999999979
 30
0.0
 11
158.685
 21
92.402199999999979
 31
0.0
  0
LINE
  5
CC
  8
0
 62
     7
 10
158.685
 20
91.777199999999979
 30
0.0
 11
158.685
 21
104.2769999999999
 31
0.0
  0
LINE
  5
CD
  8
0
 62
     7
 10
162.43499999999989
 20
104.77799999999991
 30
0.0
 11
159.18399999999991
 21
104.77799999999991
 31
0.0
  0
ARC
  5
CE
  8
0
 62
     7
 10
159.20346099999989
 20
104.2587939999999
 30
0.0
 40
0.519285
 50
92.103645999999998
 51
177.93579800000001
  0
LINE
  5
CF
  8
0
 62
     7
 10
162.934
 20
91.777199999999979
 30
0.0
 11
162.934
 21
104.2769999999999
 31
0.0
  0
ARC
  5
D0
  8
0
 62
     7
 10
162.415145
 20
104.2584779999999
 30
0.0
 40
0.5196130000000001
 50
2.0977749999999991
 51
87.862741999999983
  0
LINE
  5
D1
  8
0
 62
     7
 10
165.934
 20
91.777899999999988
 30
0.0
 11
165.934
 21
108.77799999999991
 31
0.0
  0
ARC
  5
D2
  8
0
 62
     7
 10
165.415153
 20
108.7584899999999
 30
0.0
 40
0.5196130000000001
 50
2.0977749999999991
 51
87.862741999999983
  0
LINE
  5
D3
  8
0
 62
     7
 10
29.7014
 20
184.89199999999991
 30
0.0
 11
29.108799999999999
 21
187.10400000000001
 31
0.0
  0
LINE
  5
D4
  8
0
 62
     7
 10
29.108799999999999
 20
187.10400000000001
 30
0.0
 11
28.516300000000001
 21
184.89199999999991
 31
0.0
  0
LINE
  5
D5
  8
0
 62
     7
 10
28.516300000000001
 20
184.89199999999991
 30
0.0
 11
29.7014
 21
184.89199999999991
 31
0.0
  0
LINE
  5
D6
  8
0
 62
     7
 10
28.5307
 20
143.6879999999999
 30
0.0
 11
29.1233
 21
141.476
 31
0.0
  0
LINE
  5
D7
  8
0
 62
     7
 10
29.1233
 20
141.476
 30
0.0
 11
29.715900000000001
 21
143.6879999999999
 31
0.0
  0
LINE
  5
D8
  8
0
 62
     7
 10
29.715900000000001
 20
143.6879999999999
 30
0.0
 11
28.5307
 21
143.6879999999999
 31
0.0
  0
LINE
  5
D9
  8
0
 62
     7
 10
29.116099999999989
 20
187.10299999999989
 30
0.0
 11
29.116099999999989
 21
141.477
 31
0.0
  0
LINE
  5
DA
  8
0
 62
     7
 10
48.766300000000001
 20
141.477
 30
0.0
 11
28.416
 21
141.477
 31
0.0
  0
LINE
  5
DB
  8
0
 62
     7
 10
35.942900000000002
 20
167.76599999999991
 30
0.0
 11
35.35029999999999
 21
169.97799999999989
 31
0.0
  0
LINE
  5
DC
  8
0
 62
     7
 10
35.35029999999999
 20
169.97799999999989
 30
0.0
 11
34.757800000000003
 21
167.76599999999991
 31
0.0
  0
LINE
  5
DD
  8
0
 62
     7
 10
34.757800000000003
 20
167.76599999999991
 30
0.0
 11
35.942900000000002
 21
167.76599999999991
 31
0.0
  0
LINE
  5
DE
  8
0
 62
     7
 10
35.942900000000002
 20
184.89199999999991
 30
0.0
 11
35.35029999999999
 21
187.10299999999989
 31
0.0
  0
LINE
  5
DF
  8
0
 62
     7
 10
35.35029999999999
 20
187.10299999999989
 30
0.0
 11
34.757800000000003
 21
184.89199999999991
 31
0.0
  0
LINE
  5
E0
  8
0
 62
     7
 10
34.757800000000003
 20
184.89199999999991
 30
0.0
 11
35.942900000000002
 21
184.89199999999991
 31
0.0
  0
LINE
  5
E1
  8
0
 62
     7
 10
34.772300000000001
 20
172.18899999999999
 30
0.0
 11
35.364800000000002
 21
169.97799999999989
 31
0.0
  0
LINE
  5
E2
  8
0
 62
     7
 10
35.364800000000002
 20
169.97799999999989
 30
0.0
 11
35.9574
 21
172.18899999999999
 31
0.0
  0
LINE
  5
E3
  8
0
 62
     7
 10
35.9574
 20
172.18899999999999
 30
0.0
 11
34.772300000000001
 21
172.18899999999999
 31
0.0
  0
LINE
  5
E4
  8
0
 62
     7
 10
34.772300000000001
 20
157.1879999999999
 30
0.0
 11
35.364800000000002
 21
154.977
 31
0.0
  0
LINE
  5
E5
  8
0
 62
     7
 10
35.364800000000002
 20
154.977
 30
0.0
 11
35.9574
 21
157.1879999999999
 31
0.0
  0
LINE
  5
E6
  8
0
 62
     7
 10
35.9574
 20
157.1879999999999
 30
0.0
 11
34.772300000000001
 21
157.1879999999999
 31
0.0
  0
LINE
  5
E7
  8
0
 62
     7
 10
35.357599999999991
 20
187.10299999999989
 30
0.0
 11
35.357599999999991
 21
154.97799999999989
 31
0.0
  0
LINE
  5
E8
  8
0
 62
     7
 10
38.513300000000001
 20
169.97799999999989
 30
0.0
 11
34.657499999999992
 21
169.97799999999989
 31
0.0
  0
LINE
  5
E9
  8
0
 62
     7
 10
38.513300000000001
 20
154.97799999999989
 30
0.0
 11
34.657499999999992
 21
154.97799999999989
 31
0.0
  0
LINE
  5
EA
  8
0
 62
     7
 10
50.263100000000001
 20
187.10299999999989
 30
0.0
 11
28.416
 21
187.10299999999989
 31
0.0
  0
LINE
  5
EB
  8
0
 62
     7
 10
51.84879999999999
 20
209.59899999999999
 30
0.0
 11
49.6372
 21
209.00699999999989
 31
0.0
  0
LINE
  5
EC
  8
0
 62
     7
 10
49.6372
 20
209.00699999999989
 30
0.0
 11
51.84879999999999
 21
208.41399999999999
 31
0.0
  0
LINE
  5
ED
  8
0
 62
     7
 10
51.84879999999999
 20
208.41399999999999
 30
0.0
 11
51.84879999999999
 21
209.59899999999999
 31
0.0
  0
LINE
  5
EE
  8
0
 62
     7
 10
93.052999999999997
 20
208.429
 30
0.0
 11
95.263999999999996
 21
209.0209999999999
 31
0.0
  0
LINE
  5
EF
  8
0
 62
     7
 10
95.263999999999996
 20
209.0209999999999
 30
0.0
 11
93.052999999999997
 21
209.614
 31
0.0
  0
LINE
  5
F0
  8
0
 62
     7
 10
93.052999999999997
 20
209.614
 30
0.0
 11
93.052999999999997
 21
208.429
 31
0.0
  0
LINE
  5
F1
  8
0
 62
     7
 10
49.638100000000001
 20
209.01400000000001
 30
0.0
 11
95.263299999999987
 21
209.01400000000001
 31
0.0
  0
LINE
  5
F2
  8
0
 62
     7
 10
95.263299999999987
 20
187.97499999999991
 30
0.0
 11
95.263299999999987
 21
209.714
 31
0.0
  0
LINE
  5
F3
  8
0
 62
     7
 10
68.974699999999999
 20
203.41499999999991
 30
0.0
 11
66.763099999999994
 21
202.822
 31
0.0
  0
LINE
  5
F4
  8
0
 62
     7
 10
66.763099999999994
 20
202.822
 30
0.0
 11
68.974699999999999
 21
202.2299999999999
 31
0.0
  0
LINE
  5
F5
  8
0
 62
     7
 10
68.974699999999999
 20
202.2299999999999
 30
0.0
 11
68.974699999999999
 21
203.41499999999991
 31
0.0
  0
LINE
  5
F6
  8
0
 62
     7
 10
51.84899999999999
 20
203.41499999999991
 30
0.0
 11
49.6374
 21
202.822
 31
0.0
  0
LINE
  5
F7
  8
0
 62
     7
 10
49.6374
 20
202.822
 30
0.0
 11
51.84899999999999
 21
202.2299999999999
 31
0.0
  0
LINE
  5
F8
  8
0
 62
     7
 10
51.84899999999999
 20
202.2299999999999
 30
0.0
 11
51.84899999999999
 21
203.41499999999991
 31
0.0
  0
LINE
  5
F9
  8
0
 62
     7
 10
64.551500000000004
 20
202.244
 30
0.0
 11
66.763099999999994
 21
202.83699999999999
 31
0.0
  0
LINE
  5
FA
  8
0
 62
     7
 10
66.763099999999994
 20
202.83699999999999
 30
0.0
 11
64.551500000000004
 21
203.42899999999989
 31
0.0
  0
LINE
  5
FB
  8
0
 62
     7
 10
64.551500000000004
 20
203.42899999999989
 30
0.0
 11
64.551500000000004
 21
202.244
 31
0.0
  0
LINE
  5
FC
  8
0
 62
     7
 10
79.552599999999984
 20
202.244
 30
0.0
 11
81.764200000000002
 21
202.83699999999999
 31
0.0
  0
LINE
  5
FD
  8
0
 62
     7
 10
81.764200000000002
 20
202.83699999999999
 30
0.0
 11
79.552599999999984
 21
203.42899999999989
 31
0.0
  0
LINE
  5
FE
  8
0
 62
     7
 10
79.552599999999984
 20
203.42899999999989
 30
0.0
 11
79.552599999999984
 21
202.244
 31
0.0
  0
LINE
  5
FF
  8
0
 62
     7
 10
49.638300000000001
 20
202.82900000000001
 30
0.0
 11
81.763300000000001
 21
202.82900000000001
 31
0.0
  0
LINE
  5
100
  8
0
 62
     7
 10
66.763099999999994
 20
198.22699999999989
 30
0.0
 11
66.763099999999994
 21
203.529
 31
0.0
  0
LINE
  5
101
  8
0
 62
     7
 10
81.763300000000001
 20
198.22699999999989
 30
0.0
 11
81.763300000000001
 21
203.529
 31
0.0
  0
LINE
  5
102
  8
0
 62
     7
 10
49.638100000000001
 20
186.47799999999989
 30
0.0
 11
49.638100000000001
 21
209.714
 31
0.0
  0
LINE
  5
103
  8
0
 62
     7
 10
104.37299999999991
 20
93.98899999999999
 30
0.0
 11
104.9649999999999
 21
91.777199999999979
 31
0.0
  0
LINE
  5
104
  8
0
 62
     7
 10
104.9649999999999
 20
91.777199999999979
 30
0.0
 11
105.55799999999989
 21
93.98899999999999
 31
0.0
  0
LINE
  5
105
  8
0
 62
     7
 10
105.55799999999989
 20
93.98899999999999
 30
0.0
 11
104.37299999999991
 21
93.98899999999999
 31
0.0
  0
LINE
  5
106
  8
0
 62
     7
 10
105.54299999999991
 20
87.066400000000002
 30
0.0
 11
104.95099999999999
 21
89.277500000000003
 31
0.0
  0
LINE
  5
107
  8
0
 62
     7
 10
104.95099999999999
 20
89.277500000000003
 30
0.0
 11
104.3579999999999
 21
87.066400000000002
 31
0.0
  0
LINE
  5
108
  8
0
 62
     7
 10
104.3579999999999
 20
87.066400000000002
 30
0.0
 11
105.54299999999991
 21
87.066400000000002
 31
0.0
  0
LINE
  5
109
  8
0
 62
     7
 10
105.54299999999991
 20
107.06699999999999
 30
0.0
 11
104.95099999999999
 21
109.27799999999991
 31
0.0
  0
LINE
  5
10A
  8
0
 62
     7
 10
104.95099999999999
 20
109.27799999999991
 30
0.0
 11
104.3579999999999
 21
107.06699999999999
 31
0.0
  0
LINE
  5
10B
  8
0
 62
     7
 10
104.3579999999999
 20
107.06699999999999
 30
0.0
 11
105.54299999999991
 21
107.06699999999999
 31
0.0
  0
LINE
  5
10C
  8
0
 62
     7
 10
104.9579999999999
 20
84.016099999999994
 30
0.0
 11
104.9579999999999
 21
109.27799999999991
 31
0.0
  0
LINE
  5
10D
  8
0
 62
     7
 10
105.6579999999999
 20
89.277500000000003
 30
0.0
 11
86.038399999999996
 21
89.277500000000003
 31
0.0
  0
LINE
  5
10E
  8
0
 62
     7
 10
105.6579999999999
 20
91.777199999999979
 30
0.0
 11
96.163600000000002
 21
91.777199999999979
 31
0.0
  0
LINE
  5
10F
  8
0
 62
     7
 10
105.6579999999999
 20
109.27799999999991
 30
0.0
 11
96.163600000000002
 21
109.27799999999991
 31
0.0
  0
LINE
  5
110
  8
0
 62
     7
 10
48.9176
 20
91.027600000000007
 30
0.0
 11
49.37319999999999
 21
90.027799999999985
 31
0.0
  0
LINE
  5
111
  8
0
 62
     7
 10
48.193899999999999
 20
91.027600000000007
 30
0.0
 11
48.649500000000003
 21
90.027799999999985
 31
0.0
  0
LINE
  5
112
  8
0
 62
     7
 10
40.235399999999991
 20
91.027600000000007
 30
0.0
 11
40.691000000000003
 21
90.027799999999985
 31
0.0
  0
LINE
  5
113
  8
0
 62
     7
 10
40.958799999999997
 20
91.027600000000007
 30
0.0
 11
41.414400000000001
 21
90.027799999999985
 31
0.0
  0
LINE
  5
114
  8
0
 62
     7
 10
41.682299999999998
 20
91.027600000000007
 30
0.0
 11
42.137900000000002
 21
90.027799999999985
 31
0.0
  0
LINE
  5
115
  8
0
 62
     7
 10
42.405799999999999
 20
91.027600000000007
 30
0.0
 11
42.861600000000003
 21
90.027799999999985
 31
0.0
  0
LINE
  5
116
  8
0
 62
     7
 10
43.129300000000001
 20
91.027600000000007
 30
0.0
 11
43.585000000000001
 21
90.027799999999985
 31
0.0
  0
LINE
  5
117
  8
0
 62
     7
 10
43.852899999999998
 20
91.027600000000007
 30
0.0
 11
44.308500000000002
 21
90.027799999999985
 31
0.0
  0
LINE
  5
118
  8
0
 62
     7
 10
44.5764
 20
91.027600000000007
 30
0.0
 11
45.031999999999989
 21
90.027799999999985
 31
0.0
  0
LINE
  5
119
  8
0
 62
     7
 10
45.299799999999998
 20
91.027600000000007
 30
0.0
 11
45.755499999999991
 21
90.027799999999985
 31
0.0
  0
LINE
  5
11A
  8
0
 62
     7
 10
46.023299999999999
 20
91.027600000000007
 30
0.0
 11
46.479100000000003
 21
90.027799999999985
 31
0.0
  0
LINE
  5
11B
  8
0
 62
     7
 10
46.7468
 20
91.027600000000007
 30
0.0
 11
47.20259999999999
 21
90.027799999999985
 31
0.0
  0
LINE
  5
11C
  8
0
  6
AIGENLINE001
 62
     7
 10
39.118600000000001
 20
90.527299999999997
 30
0.0
 11
50.6008
 21
90.527299999999997
 31
0.0
  0
LINE
  5
11D
  8
0
 62
     7
 10
40.420900000000003
 20
90.795399999999987
 30
0.0
 11
39.637799999999991
 21
90.527299999999997
 31
0.0
  0
LINE
  5
11E
  8
0
 62
     7
 10
40.420999999999999
 20
90.260000000000005
 30
0.0
 11
39.637799999999991
 21
90.527299999999997
 31
0.0
  0
LINE
  5
11F
  8
0
 62
     7
 10
40.420900000000003
 20
90.795399999999987
 30
0.0
 11
49.637799999999991
 21
90.795399999999987
 31
0.0
  0
LINE
  5
120
  8
0
 62
     7
 10
40.420999999999999
 20
90.260000000000005
 30
0.0
 11
49.637799999999991
 21
90.260000000000005
 31
0.0
  0
LINE
  5
121
  8
0
 62
     7
 10
47.470399999999998
 20
91.027600000000007
 30
0.0
 11
47.926099999999991
 21
90.027799999999985
 31
0.0
  0
LINE
  5
122
  8
0
 62
     7
 10
59.263100000000001
 20
90.652699999999996
 30
0.0
 11
59.263100000000001
 21
91.277699999999996
 31
0.0
  0
LINE
  5
123
  8
0
 62
     7
 10
55.012999999999998
 20
90.652699999999996
 30
0.0
 11
55.012999999999998
 21
91.277699999999996
 31
0.0
  0
LINE
  5
124
  8
0
 62
     7
 10
58.638000000000012
 20
91.277699999999996
 30
0.0
 11
58.387999999999998
 21
91.777199999999979
 31
0.0
  0
LINE
  5
125
  8
0
 62
     7
 10
55.013199999999991
 20
90.652699999999996
 30
0.0
 11
59.263100000000001
 21
90.652699999999996
 31
0.0
  0
LINE
  5
126
  8
0
 62
     7
 10
55.013199999999991
 20
91.277699999999996
 30
0.0
 11
59.263100000000001
 21
91.277699999999996
 31
0.0
  0
LINE
  5
127
  8
0
 62
     7
 10
55.637999999999998
 20
91.277699999999996
 30
0.0
 11
55.888100000000001
 21
91.777199999999979
 31
0.0
  0
ARC
  5
128
  8
0
 62
     7
 10
76.609395999999975
 20
91.806374000000005
 30
0.0
 40
0.7793350000000001
 50
272.12961799999988
 51
357.85722799999991
  0
ARC
  5
129
  8
0
 62
     7
 10
63.666267000000012
 20
91.805818999999985
 30
0.0
 40
0.7787600000000001
 50
182.10354199999989
 51
267.90965199999988
  0
LINE
  5
12A
  8
0
 62
     7
 10
76.638400000000004
 20
91.027600000000007
 30
0.0
 11
63.637700000000002
 21
91.027600000000007
 31
0.0
  0
LINE
  5
12B
  8
0
 62
     7
 10
64.888099999999994
 20
89.277500000000003
 30
0.0
 11
64.888099999999994
 21
91.027600000000007
 31
0.0
  0
LINE
  5
12C
  8
0
 62
     7
 10
62.388000000000012
 20
89.277500000000003
 30
0.0
 11
62.388000000000012
 21
91.777199999999979
 31
0.0
  0
LINE
  5
12D
  8
0
 62
     7
 10
52.388000000000012
 20
89.277500000000003
 30
0.0
 11
52.388000000000012
 21
91.777199999999979
 31
0.0
  0
LINE
  5
12E
  8
0
 62
     7
 10
84.638299999999987
 20
89.277500000000003
 30
0.0
 11
84.638299999999987
 21
91.777199999999979
 31
0.0
  0
LINE
  5
12F
  8
0
 62
     7
 10
49.637900000000002
 20
89.277500000000003
 30
0.0
 11
49.637900000000002
 21
91.777199999999979
 31
0.0
  0
LINE
  5
130
  8
0
 62
     7
 10
49.637900000000002
 20
89.277500000000003
 30
0.0
 11
84.638299999999987
 21
89.277500000000003
 31
0.0
  0
LINE
  5
131
  8
0
 62
     7
 10
48.9176
 20
155.47799999999989
 30
0.0
 11
49.37319999999999
 21
154.47699999999989
 31
0.0
  0
LINE
  5
132
  8
0
 62
     7
 10
48.193899999999999
 20
155.47799999999989
 30
0.0
 11
48.649500000000003
 21
154.47699999999989
 31
0.0
  0
LINE
  5
133
  8
0
 62
     7
 10
40.235399999999991
 20
155.47799999999989
 30
0.0
 11
40.691000000000003
 21
154.47699999999989
 31
0.0
  0
LINE
  5
134
  8
0
 62
     7
 10
40.958799999999997
 20
155.47799999999989
 30
0.0
 11
41.414400000000001
 21
154.47699999999989
 31
0.0
  0
LINE
  5
135
  8
0
 62
     7
 10
41.682299999999998
 20
155.47799999999989
 30
0.0
 11
42.137900000000002
 21
154.47699999999989
 31
0.0
  0
LINE
  5
136
  8
0
 62
     7
 10
42.405799999999999
 20
155.47799999999989
 30
0.0
 11
42.861600000000003
 21
154.47699999999989
 31
0.0
  0
LINE
  5
137
  8
0
 62
     7
 10
43.129300000000001
 20
155.47799999999989
 30
0.0
 11
43.585000000000001
 21
154.47699999999989
 31
0.0
  0
LINE
  5
138
  8
0
 62
     7
 10
43.852899999999998
 20
155.47799999999989
 30
0.0
 11
44.308500000000002
 21
154.47699999999989
 31
0.0
  0
LINE
  5
139
  8
0
 62
     7
 10
44.5764
 20
155.47799999999989
 30
0.0
 11
45.031999999999989
 21
154.47699999999989
 31
0.0
  0
LINE
  5
13A
  8
0
 62
     7
 10
45.299799999999998
 20
155.47799999999989
 30
0.0
 11
45.755499999999991
 21
154.47699999999989
 31
0.0
  0
LINE
  5
13B
  8
0
 62
     7
 10
46.023299999999999
 20
155.47799999999989
 30
0.0
 11
46.479100000000003
 21
154.47699999999989
 31
0.0
  0
LINE
  5
13C
  8
0
 62
     7
 10
46.7468
 20
155.47799999999989
 30
0.0
 11
47.20259999999999
 21
154.47699999999989
 31
0.0
  0
LINE
  5
13D
  8
0
  6
AIGENLINE001
 62
     7
 10
39.118600000000001
 20
154.97799999999989
 30
0.0
 11
50.6008
 21
154.97799999999989
 31
0.0
  0
LINE
  5
13E
  8
0
 62
     7
 10
40.420900000000003
 20
155.245
 30
0.0
 11
39.637799999999991
 21
154.97799999999989
 31
0.0
  0
LINE
  5
13F
  8
0
 62
     7
 10
40.420999999999999
 20
154.71000000000001
 30
0.0
 11
39.637799999999991
 21
154.97799999999989
 31
0.0
  0
LINE
  5
140
  8
0
 62
     7
 10
40.420900000000003
 20
155.245
 30
0.0
 11
49.637799999999991
 21
155.245
 31
0.0
  0
LINE
  5
141
  8
0
 62
     7
 10
40.420999999999999
 20
154.71000000000001
 30
0.0
 11
49.637799999999991
 21
154.71000000000001
 31
0.0
  0
LINE
  5
142
  8
0
 62
     7
 10
47.470399999999998
 20
155.47799999999989
 30
0.0
 11
47.926099999999991
 21
154.47699999999989
 31
0.0
  0
LINE
  5
143
  8
0
 62
     7
 10
48.9176
 20
170.477
 30
0.0
 11
49.37319999999999
 21
169.47799999999989
 31
0.0
  0
LINE
  5
144
  8
0
 62
     7
 10
48.193899999999999
 20
170.477
 30
0.0
 11
48.649500000000003
 21
169.47799999999989
 31
0.0
  0
LINE
  5
145
  8
0
 62
     7
 10
40.235399999999991
 20
170.477
 30
0.0
 11
40.691000000000003
 21
169.47799999999989
 31
0.0
  0
LINE
  5
146
  8
0
 62
     7
 10
40.958799999999997
 20
170.477
 30
0.0
 11
41.414400000000001
 21
169.47799999999989
 31
0.0
  0
LINE
  5
147
  8
0
 62
     7
 10
41.682299999999998
 20
170.477
 30
0.0
 11
42.137900000000002
 21
169.47799999999989
 31
0.0
  0
LINE
  5
148
  8
0
 62
     7
 10
42.405799999999999
 20
170.477
 30
0.0
 11
42.861600000000003
 21
169.47799999999989
 31
0.0
  0
LINE
  5
149
  8
0
 62
     7
 10
43.129300000000001
 20
170.477
 30
0.0
 11
43.585000000000001
 21
169.47799999999989
 31
0.0
  0
LINE
  5
14A
  8
0
 62
     7
 10
43.852899999999998
 20
170.477
 30
0.0
 11
44.308500000000002
 21
169.47799999999989
 31
0.0
  0
LINE
  5
14B
  8
0
 62
     7
 10
44.5764
 20
170.477
 30
0.0
 11
45.031999999999989
 21
169.47799999999989
 31
0.0
  0
LINE
  5
14C
  8
0
 62
     7
 10
45.299799999999998
 20
170.477
 30
0.0
 11
45.755499999999991
 21
169.47799999999989
 31
0.0
  0
LINE
  5
14D
  8
0
 62
     7
 10
46.023299999999999
 20
170.477
 30
0.0
 11
46.479100000000003
 21
169.47799999999989
 31
0.0
  0
LINE
  5
14E
  8
0
 62
     7
 10
46.7468
 20
170.477
 30
0.0
 11
47.20259999999999
 21
169.47799999999989
 31
0.0
  0
LINE
  5
14F
  8
0
  6
AIGENLINE001
 62
     7
 10
39.118600000000001
 20
169.97799999999989
 30
0.0
 11
50.6008
 21
169.97799999999989
 31
0.0
  0
LINE
  5
150
  8
0
 62
     7
 10
40.420900000000003
 20
170.24499999999989
 30
0.0
 11
39.637799999999991
 21
169.97799999999989
 31
0.0
  0
LINE
  5
151
  8
0
 62
     7
 10
40.420999999999999
 20
169.71000000000001
 30
0.0
 11
39.637799999999991
 21
169.97799999999989
 31
0.0
  0
LINE
  5
152
  8
0
 62
     7
 10
40.420900000000003
 20
170.24499999999989
 30
0.0
 11
49.637799999999991
 21
170.24499999999989
 31
0.0
  0
LINE
  5
153
  8
0
 62
     7
 10
40.420999999999999
 20
169.71000000000001
 30
0.0
 11
49.637799999999991
 21
169.71000000000001
 31
0.0
  0
LINE
  5
154
  8
0
 62
     7
 10
47.470399999999998
 20
170.477
 30
0.0
 11
47.926099999999991
 21
169.47799999999989
 31
0.0
  0
LINE
  5
155
  8
0
 62
     7
 10
82.263199999999983
 20
187.82299999999989
 30
0.0
 11
81.263300000000015
 21
187.36699999999999
 31
0.0
  0
LINE
  5
156
  8
0
 62
     7
 10
82.263199999999983
 20
188.54699999999991
 30
0.0
 11
81.263300000000015
 21
188.09099999999989
 31
0.0
  0
LINE
  5
157
  8
0
 62
     7
 10
82.263199999999983
 20
196.50499999999991
 30
0.0
 11
81.263300000000015
 21
196.05000000000001
 31
0.0
  0
LINE
  5
158
  8
0
 62
     7
 10
82.263199999999983
 20
195.78200000000001
 30
0.0
 11
81.263300000000015
 21
195.32599999999999
 31
0.0
  0
LINE
  5
159
  8
0
 62
     7
 10
82.263199999999983
 20
195.05799999999999
 30
0.0
 11
81.263300000000015
 21
194.602
 31
0.0
  0
LINE
  5
15A
  8
0
 62
     7
 10
82.263199999999983
 20
194.33500000000001
 30
0.0
 11
81.263300000000015
 21
193.87899999999999
 31
0.0
  0
LINE
  5
15B
  8
0
 62
     7
 10
82.263199999999983
 20
193.61099999999999
 30
0.0
 11
81.263300000000015
 21
193.155
 31
0.0
  0
LINE
  5
15C
  8
0
 62
     7
 10
82.263199999999983
 20
192.88800000000001
 30
0.0
 11
81.263300000000015
 21
192.43199999999999
 31
0.0
  0
LINE
  5
15D
  8
0
 62
     7
 10
82.263199999999983
 20
192.16399999999999
 30
0.0
 11
81.263300000000015
 21
191.70899999999989
 31
0.0
  0
LINE
  5
15E
  8
0
 62
     7
 10
82.263199999999983
 20
191.44099999999989
 30
0.0
 11
81.263300000000015
 21
190.98500000000001
 31
0.0
  0
LINE
  5
15F
  8
0
 62
     7
 10
82.263199999999983
 20
190.71700000000001
 30
0.0
 11
81.263300000000015
 21
190.26099999999991
 31
0.0
  0
LINE
  5
160
  8
0
 62
     7
 10
82.263199999999983
 20
189.994
 30
0.0
 11
81.263300000000015
 21
189.5379999999999
 31
0.0
  0
LINE
  5
161
  8
0
  6
AIGENLINE001
 62
     7
 10
81.763300000000001
 20
197.6219999999999
 30
0.0
 11
81.763300000000001
 21
186.1399999999999
 31
0.0
  0
LINE
  5
162
  8
0
 62
     7
 10
82.031000000000006
 20
196.31999999999999
 30
0.0
 11
81.763300000000001
 21
197.10299999999989
 31
0.0
  0
LINE
  5
163
  8
0
 62
     7
 10
81.495500000000007
 20
196.31899999999999
 30
0.0
 11
81.763300000000001
 21
197.10299999999989
 31
0.0
  0
LINE
  5
164
  8
0
 62
     7
 10
82.031000000000006
 20
196.31999999999999
 30
0.0
 11
82.031000000000006
 21
187.10299999999989
 31
0.0
  0
LINE
  5
165
  8
0
 62
     7
 10
81.495500000000007
 20
196.31899999999999
 30
0.0
 11
81.495500000000007
 21
187.10299999999989
 31
0.0
  0
LINE
  5
166
  8
0
 62
     7
 10
82.263199999999983
 20
189.2699999999999
 30
0.0
 11
81.263300000000015
 21
188.81399999999999
 31
0.0
  0
LINE
  5
167
  8
0
 62
     7
 10
67.263199999999998
 20
187.82299999999989
 30
0.0
 11
66.263199999999983
 21
187.36699999999999
 31
0.0
  0
LINE
  5
168
  8
0
 62
     7
 10
67.263199999999998
 20
188.54699999999991
 30
0.0
 11
66.263199999999983
 21
188.09099999999989
 31
0.0
  0
LINE
  5
169
  8
0
 62
     7
 10
67.263199999999998
 20
196.50499999999991
 30
0.0
 11
66.263199999999983
 21
196.05000000000001
 31
0.0
  0
LINE
  5
16A
  8
0
 62
     7
 10
67.263199999999998
 20
195.78200000000001
 30
0.0
 11
66.263199999999983
 21
195.32599999999999
 31
0.0
  0
LINE
  5
16B
  8
0
 62
     7
 10
67.263199999999998
 20
195.05799999999999
 30
0.0
 11
66.263199999999983
 21
194.602
 31
0.0
  0
LINE
  5
16C
  8
0
 62
     7
 10
67.263199999999998
 20
194.33500000000001
 30
0.0
 11
66.263199999999983
 21
193.87899999999999
 31
0.0
  0
LINE
  5
16D
  8
0
 62
     7
 10
67.263199999999998
 20
193.61099999999999
 30
0.0
 11
66.263199999999983
 21
193.155
 31
0.0
  0
LINE
  5
16E
  8
0
 62
     7
 10
67.263199999999998
 20
192.88800000000001
 30
0.0
 11
66.263199999999983
 21
192.43199999999999
 31
0.0
  0
LINE
  5
16F
  8
0
 62
     7
 10
67.263199999999998
 20
192.16399999999999
 30
0.0
 11
66.263199999999983
 21
191.70899999999989
 31
0.0
  0
LINE
  5
170
  8
0
 62
     7
 10
67.263199999999998
 20
191.44099999999989
 30
0.0
 11
66.263199999999983
 21
190.98500000000001
 31
0.0
  0
LINE
  5
171
  8
0
 62
     7
 10
67.263199999999998
 20
190.71700000000001
 30
0.0
 11
66.263199999999983
 21
190.26099999999991
 31
0.0
  0
LINE
  5
172
  8
0
 62
     7
 10
67.263199999999998
 20
189.994
 30
0.0
 11
66.263199999999983
 21
189.5379999999999
 31
0.0
  0
LINE
  5
173
  8
0
  6
AIGENLINE001
 62
     7
 10
66.763099999999994
 20
197.6219999999999
 30
0.0
 11
66.763099999999994
 21
186.1399999999999
 31
0.0
  0
LINE
  5
174
  8
0
 62
     7
 10
67.031000000000006
 20
196.31999999999999
 30
0.0
 11
66.763099999999994
 21
197.10299999999989
 31
0.0
  0
LINE
  5
175
  8
0
 62
     7
 10
66.495400000000004
 20
196.31899999999999
 30
0.0
 11
66.763099999999994
 21
197.10299999999989
 31
0.0
  0
LINE
  5
176
  8
0
 62
     7
 10
67.031000000000006
 20
196.31999999999999
 30
0.0
 11
67.031000000000006
 21
187.10299999999989
 31
0.0
  0
LINE
  5
177
  8
0
 62
     7
 10
66.495400000000004
 20
196.31899999999999
 30
0.0
 11
66.495400000000004
 21
187.10299999999989
 31
0.0
  0
LINE
  5
178
  8
0
 62
     7
 10
67.263199999999998
 20
189.2699999999999
 30
0.0
 11
66.263199999999983
 21
188.81399999999999
 31
0.0
  0
LINE
  5
179
  8
0
 62
     7
 10
49.638300000000001
 20
142.10599999999991
 30
0.0
 11
50.263100000000001
 21
142.102
 31
0.0
  0
ARC
  5
17A
  8
0
 62
     7
 10
50.262875000000001
 20
186.47765899999999
 30
0.0
 40
44.375529999999998
 50
270.00024200000001
 51
0.000212
  0
ARC
  5
17B
  8
0
 62
     7
 10
48.533641000000003
 20
186.4851469999999
 30
0.0
 40
46.104764000000003
 50
359.99090000000001
 51
0.7673460000000001
  0
LINE
  5
17C
  8
0
 62
     7
 10
49.638300000000001
 20
141.48099999999991
 30
0.0
 11
50.263100000000001
 21
141.477
 31
0.0
  0
ARC
  5
17D
  8
0
 62
     7
 10
50.262875000000001
 20
186.47765999999999
 30
0.0
 40
45.00047399999999
 50
270.00023900000002
 51
0.000209
  0
ARC
  5
17E
  8
0
 62
     7
 10
49.158585999999993
 20
186.4851469999999
 30
0.0
 40
46.104764000000003
 50
359.99090000000001
 51
0.7673460000000001
  0
ARC
  5
17F
  8
0
 62
     7
 10
93.475239999999985
 20
93.075778999999997
 30
0.0
 40
1.2994429999999999
 50
272.13124799999991
 51
357.884548
  0
ARC
  5
180
  8
0
 62
     7
 10
93.903459999999995
 20
93.075429999999997
 30
0.0
 40
1.2990950000000001
 50
272.13221399999998
 51
357.89937300000003
  0
LINE
  5
181
  8
0
 62
     7
 10
94.902999999999992
 20
104.77799999999991
 30
0.0
 11
95.072100000000006
 21
104.77799999999991
 31
0.0
  0
ARC
  5
182
  8
0
 62
     7
 10
94.907886000000005
 20
104.7236019999999
 30
0.0
 40
0.054348
 50
95.168891000000002
 51
151.60537600000001
  0
ARC
  5
183
  8
0
 62
     7
 10
95.182401999999996
 20
104.5461369999999
 30
0.0
 40
0.381088
 50
147.7578629999999
 51
169.765241
  0
ARC
  5
184
  8
0
 62
     7
 10
96.276956999999996
 20
104.297284
 30
0.0
 40
1.503288999999999
 50
167.8435409999999
 51
180.75415799999999
  0
ARC
  5
185
  8
0
 62
     7
 10
93.400777000000005
 20
104.27789
 30
0.0
 40
1.8009040000000001
 50
359.98752500000001
 51
8.2688759999999988
  0
ARC
  5
186
  8
0
 62
     7
 10
94.608818000000014
 20
104.4734449999999
 30
0.0
 40
0.577637
 50
6.3062279999999991
 51
27.820564999999998
  0
ARC
  5
187
  8
0
 62
     7
 10
95.066232999999997
 20
104.71970899999999
 30
0.0
 40
0.058321
 50
23.571076999999988
 51
84.181534999999997
  0
LINE
  5
188
  8
0
 62
     7
 10
95.201700000000002
 20
104.2769999999999
 30
0.0
 11
95.201700000000002
 21
93.027799999999999
 31
0.0
  0
LINE
  5
189
  8
0
 62
     7
 10
94.773799999999994
 20
104.2769999999999
 30
0.0
 11
94.773799999999994
 21
93.027799999999999
 31
0.0
  0
LINE
  5
18A
  8
0
 62
     7
 10
49.637900000000002
 20
91.777199999999979
 30
0.0
 11
94.013499999999979
 21
91.777199999999979
 31
0.0
  0
LINE
  5
18B
  8
0
 62
     7
 10
93.284800000000004
 20
104.2769999999999
 30
0.0
 11
93.284800000000004
 21
93.027799999999999
 31
0.0
  0
LINE
  5
18C
  8
0
 62
     7
 10
92.479299999999995
 20
92.402199999999979
 30
0.0
 11
92.659899999999993
 21
92.402199999999979
 31
0.0
  0
ARC
  5
18D
  8
0
 62
     7
 10
92.636291000000014
 20
93.050681000000012
 30
0.0
 40
0.64893
 50
272.082672
 51
357.98047300000002
  0
LINE
  5
18E
  8
0
 62
     7
 10
93.927999999999983
 20
104.2769999999999
 30
0.0
 11
93.927999999999983
 21
93.027799999999999
 31
0.0
  0
ARC
  5
18F
  8
0
 62
     7
 10
92.629463999999999
 20
93.075778999999997
 30
0.0
 40
1.2994429999999999
 50
272.13124799999991
 51
357.884548
  0
LINE
  5
190
  8
0
 62
     7
 10
92.646799999999999
 20
104.2769999999999
 30
0.0
 11
92.646799999999999
 21
93.027799999999999
 31
0.0
  0
ARC
  5
191
  8
0
 62
     7
 10
91.348561000000004
 20
93.075429999999997
 30
0.0
 40
1.2990950000000001
 50
272.13221399999998
 51
357.89937300000003
  0
LINE
  5
192
  8
0
 62
     7
 10
88.867799999999988
 20
104.2769999999999
 30
0.0
 11
88.867799999999988
 21
93.027799999999999
 31
0.0
  0
ARC
  5
193
  8
0
 62
     7
 10
87.569610999999995
 20
93.075429999999997
 30
0.0
 40
1.2990950000000001
 50
272.13221399999998
 51
357.89937300000003
  0
LINE
  5
194
  8
0
 62
     7
 10
90.877700000000004
 20
104.2769999999999
 30
0.0
 11
90.877700000000004
 21
93.027799999999999
 31
0.0
  0
ARC
  5
195
  8
0
 62
     7
 10
89.579156999999995
 20
93.075778999999997
 30
0.0
 40
1.2994429999999999
 50
272.13124799999991
 51
357.884548
  0
LINE
  5
196
  8
0
 62
     7
 10
90.185599999999994
 20
104.2769999999999
 30
0.0
 11
90.185599999999994
 21
93.027799999999999
 31
0.0
  0
LINE
  5
197
  8
0
 62
     7
 10
89.560299999999998
 20
92.402199999999979
 30
0.0
 11
88.700400000000016
 21
92.402199999999979
 31
0.0
  0
ARC
  5
198
  8
0
 62
     7
 10
89.536705999999995
 20
93.051051000000001
 30
0.0
 40
0.649301
 50
272.08264199999991
 51
357.94892700000003
  0
LINE
  5
199
  8
0
 62
     7
 10
83.718199999999996
 20
93.027799999999999
 30
0.0
 11
83.718199999999996
 21
104.2769999999999
 31
0.0
  0
ARC
  5
19A
  8
0
 62
     7
 10
82.419854999999998
 20
93.07560500000001
 30
0.0
 40
1.2992689999999989
 50
272.13173099999989
 51
357.89195999999993
  0
LINE
  5
19B
  8
0
 62
     7
 10
85.187600000000003
 20
104.2769999999999
 30
0.0
 11
85.187600000000003
 21
93.027799999999999
 31
0.0
  0
LINE
  5
19C
  8
0
 62
     7
 10
83.550799999999995
 20
92.402199999999979
 30
0.0
 11
84.5625
 21
92.402199999999979
 31
0.0
  0
ARC
  5
19D
  8
0
 62
     7
 10
84.538883999999996
 20
93.050863000000007
 30
0.0
 40
0.6491130000000001
 50
272.08241600000002
 51
357.96493900000002
  0
LINE
  5
19E
  8
0
 62
     7
 10
85.979100000000003
 20
104.2769999999999
 30
0.0
 11
85.979100000000003
 21
93.027799999999999
 31
0.0
  0
ARC
  5
19F
  8
0
 62
     7
 10
84.680712999999997
 20
93.07560500000001
 30
0.0
 40
1.2992689999999989
 50
272.13173099999989
 51
357.89195999999993
  0
ARC
  5
1A0
  8
0
 62
     7
 10
92.309072999999998
 20
104.27827600000001
 30
0.0
 40
0.975745
 50
359.95436699999999
 51
24.663550999999998
  0
ARC
  5
1A1
  8
0
 62
     7
 10
93.045746999999992
 20
104.6138009999999
 30
0.0
 40
0.166283
 50
25.521163000000001
 51
80.345821999999998
  0
LINE
  5
1A2
  8
0
 62
     7
 10
92.817999999999998
 20
104.77799999999991
 30
0.0
 11
93.716499999999996
 21
104.77799999999991
 31
0.0
  0
ARC
  5
1A3
  8
0
 62
     7
 10
92.953038000000006
 20
104.278278
 30
0.0
 40
0.9749839999999999
 50
359.95418799999987
 51
24.683937
  0
ARC
  5
1A4
  8
0
 62
     7
 10
93.688765000000004
 20
104.6135739999999
 30
0.0
 40
0.16648
 50
25.575344999999999
 51
80.412885000000003
  0
ARC
  5
1A5
  8
0
 62
     7
 10
92.820081999999985
 20
104.703382
 30
0.0
 40
0.074377
 50
91.600189
 51
137.763903
  0
ARC
  5
1A6
  8
0
 62
     7
 10
92.973066000000003
 20
104.55915299999999
 30
0.0
 40
0.2846199999999999
 50
136.968546
 51
162.7139139999999
  0
ARC
  5
1A7
  8
0
 62
     7
 10
93.696443000000002
 20
104.3084099999999
 30
0.0
 40
1.050116
 50
161.3786399999999
 51
181.68685599999989
  0
LINE
  5
1A8
  8
0
 62
     7
 10
95.263299999999987
 20
93.027799999999999
 30
0.0
 11
95.263299999999987
 21
108.77799999999991
 31
0.0
  0
ARC
  5
1A9
  8
0
 62
     7
 10
93.965126999999995
 20
93.075429999999997
 30
0.0
 40
1.2990950000000001
 50
272.13221399999998
 51
357.89937300000003
  0
LINE
  5
1AA
  8
0
 62
     7
 10
50.137999999999998
 20
109.27799999999991
 30
0.0
 11
94.763499999999993
 21
109.27799999999991
 31
0.0
  0
ARC
  5
1AB
  8
0
 62
     7
 10
94.744083999999987
 20
108.7584899999999
 30
0.0
 40
0.5196130000000001
 50
2.0977749999999991
 51
87.862741999999983
  0
LINE
  5
1AC
  8
0
 62
     7
 10
77.638300000000001
 20
92.402199999999979
 30
0.0
 11
79.474900000000005
 21
92.402199999999979
 31
0.0
  0
LINE
  5
1AD
  8
0
 62
     7
 10
79.916700000000006
 20
93.027799999999999
 30
0.0
 11
79.916700000000006
 21
104.2769999999999
 31
0.0
  0
ARC
  5
1AE
  8
0
 62
     7
 10
79.464050999999984
 20
92.773781999999997
 30
0.0
 40
0.371761
 50
271.67129599999993
 51
324.85981499999991
  0
ARC
  5
1AF
  8
0
 62
     7
 10
79.189356000000004
 20
93.001260000000002
 30
0.0
 40
0.7278590000000001
 50
322.66221200000001
 51
2.090647999999999
  0
LINE
  5
1B0
  8
0
 62
     7
 10
80.359399999999994
 20
104.2769999999999
 30
0.0
 11
80.359399999999994
 21
93.027799999999999
 31
0.0
  0
ARC
  5
1B1
  8
0
 62
     7
 10
79.470031000000006
 20
92.475808999999998
 30
0.0
 40
0.6985960000000001
 50
270.45531399999999
 51
319.89255200000002
  0
ARC
  5
1B2
  8
0
 62
     7
 10
79.091293999999991
 20
92.868569999999991
 30
0.0
 40
1.2425740000000001
 50
317.29067400000002
 51
344.72193599999991
  0
ARC
  5
1B3
  8
0
 62
     7
 10
78.666652999999997
 20
93.021168999999986
 30
0.0
 40
1.692788
 50
343.5266529999999
 51
0.224856
  0
ARC
  5
1B4
  8
0
 62
     7
 10
89.405180000000001
 20
104.2775
 30
0.0
 40
0.7800660000000002
 50
359.99986200000001
 51
28.000482000000002
  0
ARC
  5
1B5
  8
0
 62
     7
 10
89.863556000000017
 20
104.517281
 30
0.0
 40
0.262797
 50
28.760324000000001
 51
82.334070999999994
  0
ARC
  5
1B6
  8
0
 62
     7
 10
84.593069999999997
 20
104.2743339999999
 30
0.0
 40
0.594525
 50
0.304991
 51
50.570019000000002
  0
ARC
  5
1B7
  8
0
 62
     7
 10
84.816593999999995
 20
104.487042
 30
0.0
 40
0.290697
 50
57.992097999999991
 51
89.533694999999994
  0
ARC
  5
1B8
  8
0
 62
     7
 10
79.367761000000002
 20
104.27347899999999
 30
0.0
 40
0.548984
 50
0.4194520000000001
 51
53.439032999999988
  0
ARC
  5
1B9
  8
0
 62
     7
 10
79.481518000000008
 20
104.386847
 30
0.0
 40
0.39089
 50
56.935937000000003
 51
89.658045999999999
  0
LINE
  5
1BA
  8
0
 62
     7
 10
90.590699999999998
 20
104.77799999999991
 30
0.0
 11
89.154799999999994
 21
104.77799999999991
 31
0.0
  0
ARC
  5
1BB
  8
0
 62
     7
 10
90.097682999999989
 20
104.2771749999999
 30
0.0
 40
0.780032
 50
0.023765
 51
28.028903
  0
ARC
  5
1BC
  8
0
 62
     7
 10
90.555582999999984
 20
104.5168529999999
 30
0.0
 40
0.263234
 50
28.814440999999992
 51
82.325598999999997
  0
ARC
  5
1BD
  8
0
 62
     7
 10
89.158845999999997
 20
104.5707979999999
 30
0.0
 40
0.206971
 50
91.117004000000009
 51
151.02851299999989
  0
ARC
  5
1BE
  8
0
 62
     7
 10
89.507024000000001
 20
104.311626
 30
0.0
 40
0.639757
 50
145.818738
 51
183.05787699999991
  0
LINE
  5
1BF
  8
0
 62
     7
 10
77.638300000000001
 20
91.777199999999979
 30
0.0
 11
77.638300000000001
 21
104.2769999999999
 31
0.0
  0
LINE
  5
1C0
  8
0
 62
     7
 10
84.086899999999986
 20
104.77799999999991
 30
0.0
 11
85.610499999999988
 21
104.77799999999991
 31
0.0
  0
ARC
  5
1C1
  8
0
 62
     7
 10
85.384585999999999
 20
104.2743339999999
 30
0.0
 40
0.594525
 50
0.304991
 51
50.570019000000002
  0
ARC
  5
1C2
  8
0
 62
     7
 10
85.608108999999985
 20
104.487042
 30
0.0
 40
0.290697
 50
57.992097999999991
 51
89.533694999999994
  0
ARC
  5
1C3
  8
0
 62
     7
 10
84.089289000000008
 20
104.477189
 30
0.0
 40
0.300551
 50
90.460877999999994
 51
138.90805599999999
  0
ARC
  5
1C4
  8
0
 62
     7
 10
84.272590000000008
 20
104.30071
 30
0.0
 40
0.5548310000000001
 50
137.61437599999991
 51
182.39772199999999
  0
LINE
  5
1C5
  8
0
 62
     7
 10
78.071200000000005
 20
104.77799999999991
 30
0.0
 11
79.926400000000001
 21
104.77799999999991
 31
0.0
  0
ARC
  5
1C6
  8
0
 62
     7
 10
79.810642000000001
 20
104.273476
 30
0.0
 40
0.5488
 50
0.419933
 51
53.465480999999997
  0
ARC
  5
1C7
  8
0
 62
     7
 10
79.924031999999997
 20
104.386664
 30
0.0
 40
0.3910719999999999
 50
56.943868999999992
 51
89.656552999999988
  0
ARC
  5
1C8
  8
0
 62
     7
 10
78.07821899999999
 20
104.361429
 30
0.0
 40
0.4163600000000001
 50
90.968582999999995
 51
155.8569949999999
  0
ARC
  5
1C9
  8
0
 62
     7
 10
78.196297999999999
 20
104.280045
 30
0.0
 40
0.5580020000000001
 50
153.189549
 51
180.26153299999999
  0
LINE
  5
1CA
  8
0
 62
     7
 10
73.388199999999998
 20
91.777899999999988
 30
0.0
 11
73.388199999999998
 21
104.2769999999999
 31
0.0
  0
LINE
  5
1CB
  8
0
 62
     7
 10
70.108099999999993
 20
104.77799999999991
 30
0.0
 11
72.918300000000002
 21
104.77799999999991
 31
0.0
  0
ARC
  5
1CC
  8
0
 62
     7
 10
72.869182999999992
 20
104.260739
 30
0.0
 40
0.51932
 50
1.8493120000000001
 51
84.570856999999975
  0
LINE
  5
1CD
  8
0
 62
     7
 10
69.638199999999998
 20
91.777199999999979
 30
0.0
 11
69.638199999999998
 21
104.2769999999999
 31
0.0
  0
ARC
  5
1CE
  8
0
 62
     7
 10
70.128578000000005
 20
104.2876939999999
 30
0.0
 40
0.490461
 50
92.388643000000016
 51
181.1911879999999
  0
LINE
  5
1CF
  8
0
 62
     7
 10
65.388199999999998
 20
91.777199999999979
 30
0.0
 11
65.388199999999998
 21
104.2769999999999
 31
0.0
  0
LINE
  5
1D0
  8
0
 62
     7
 10
61.636200000000002
 20
104.77799999999991
 30
0.0
 11
64.890000000000001
 21
104.77799999999991
 31
0.0
  0
ARC
  5
1D1
  8
0
 62
     7
 10
64.888956000000007
 20
104.2785319999999
 30
0.0
 40
0.4991990000000001
 50
359.88138500000002
 51
89.881356000000011
  0
LINE
  5
1D2
  8
0
 62
     7
 10
61.138100000000001
 20
91.777199999999979
 30
0.0
 11
61.138100000000001
 21
104.2769999999999
 31
0.0
  0
ARC
  5
1D3
  8
0
 62
     7
 10
61.637281999999992
 20
104.2785319999999
 30
0.0
 40
0.4991990000000001
 50
90.118625000000009
 51
180.1186349999999
  0
LINE
  5
1D4
  8
0
 62
     7
 10
65.388199999999998
 20
92.402199999999979
 30
0.0
 11
61.138100000000001
 21
92.402199999999979
 31
0.0
  0
LINE
  5
1D5
  8
0
 62
     7
 10
73.388099999999994
 20
92.402199999999979
 30
0.0
 11
69.638199999999998
 21
92.402199999999979
 31
0.0
  0
LINE
  5
1D6
  8
0
 62
     7
 10
52.638300000000001
 20
92.402199999999979
 30
0.0
 11
56.887999999999998
 21
92.402199999999979
 31
0.0
  0
LINE
  5
1D7
  8
0
 62
     7
 10
56.888199999999991
 20
91.777199999999979
 30
0.0
 11
56.888199999999991
 21
104.2769999999999
 31
0.0
  0
LINE
  5
1D8
  8
0
 62
     7
 10
53.138199999999991
 20
104.77799999999991
 30
0.0
 11
56.388100000000001
 21
104.77799999999991
 31
0.0
  0
ARC
  5
1D9
  8
0
 62
     7
 10
56.388043000000003
 20
104.277584
 30
0.0
 40
0.500145
 50
359.99014299999999
 51
89.990113000000008
  0
LINE
  5
1DA
  8
0
 62
     7
 10
52.638100000000001
 20
91.777199999999979
 30
0.0
 11
52.638100000000001
 21
104.2769999999999
 31
0.0
  0
ARC
  5
1DB
  8
0
 62
     7
 10
53.157220999999993
 20
104.2586339999999
 30
0.0
 40
0.519444
 50
92.100948999999986
 51
177.91875400000001
  0
LINE
  5
1DC
  8
0
 62
     7
 10
49.638100000000001
 20
91.777899999999988
 30
0.0
 11
49.638100000000001
 21
108.77799999999991
 31
0.0
  0
ARC
  5
1DD
  8
0
 62
     7
 10
50.157053999999988
 20
108.75881099999999
 30
0.0
 40
0.51928
 50
92.103113000000022
 51
177.93633099999991
  0
LINE
  5
1DE
  8
0
 62
     7
 10
82.064099999999996
 20
158.03499999999991
 30
0.0
 11
83.275499999999994
 21
156.8239999999999
 31
0.0
  0
LINE
  5
1DF
  8
0
 62
     7
 10
85.187600000000003
 20
159.10299999999989
 30
0.0
 11
82.505899999999997
 21
159.10299999999989
 31
0.0
  0
ARC
  5
1E0
  8
0
 62
     7
 10
82.505907999999991
 20
158.47780599999999
 30
0.0
 40
0.6249440000000001
 50
90.0
 51
179.99996999999991
  0
ARC
  5
1E1
  8
0
 62
     7
 10
82.514440000000008
 20
158.480953
 30
0.0
 40
0.6334840000000001
 50
180.284672
 51
224.68868199999989
  0
LINE
  5
1E2
  8
0
 62
     7
 10
88.137100000000004
 20
163.35299999999989
 30
0.0
 11
77.006
 21
163.35299999999989
 31
0.0
  0
LINE
  5
1E3
  8
0
 62
     7
 10
74.063999999999993
 20
166.03599999999989
 30
0.0
 11
76.563900000000004
 21
163.536
 31
0.0
  0
ARC
  5
1E4
  8
0
 62
     7
 10
77.009253999999999
 20
163.98608699999991
 30
0.0
 40
0.6334489999999999
 50
225.332097
 51
269.70116999999999
  0
LINE
  5
1E5
  8
0
 62
     7
 10
90.185599999999994
 20
167.10299999999989
 30
0.0
 11
74.505799999999994
 21
167.10299999999989
 31
0.0
  0
ARC
  5
1E6
  8
0
 62
     7
 10
74.529728000000006
 20
166.45381299999991
 30
0.0
 40
0.649284
 50
92.109486999999987
 51
177.89048299999999
  0
ARC
  5
1E7
  8
0
 62
     7
 10
74.513503
 20
166.480852
 30
0.0
 40
0.6326260000000001
 50
180.28431699999999
 51
224.720597
  0
LINE
  5
1E8
  8
0
 62
     7
 10
91.980800000000002
 20
171.35299999999989
 30
0.0
 11
69.005899999999997
 21
171.35299999999989
 31
0.0
  0
LINE
  5
1E9
  8
0
 62
     7
 10
65.563900000000004
 20
174.53599999999989
 30
0.0
 11
68.563900000000004
 21
171.53599999999989
 31
0.0
  0
ARC
  5
1EA
  8
0
 62
     7
 10
69.009811999999997
 20
171.98668399999991
 30
0.0
 40
0.634143
 50
225.3131039999999
 51
269.64393100000001
  0
LINE
  5
1EB
  8
0
 62
     7
 10
93.284800000000004
 20
175.602
 30
0.0
 11
66.005899999999997
 21
175.602
 31
0.0
  0
ARC
  5
1EC
  8
0
 62
     7
 10
66.005776999999995
 20
174.97742
 30
0.0
 40
0.625031
 50
89.992105000000009
 51
179.992075
  0
ARC
  5
1ED
  8
0
 62
     7
 10
66.012666999999993
 20
174.98070300000001
 30
0.0
 40
0.631929
 50
180.289862
 51
224.74665400000001
  0
LINE
  5
1EE
  8
0
 62
     7
 10
94.140899999999988
 20
179.85299999999989
 30
0.0
 11
60.505699999999997
 21
179.85299999999989
 31
0.0
  0
LINE
  5
1EF
  8
0
 62
     7
 10
57.06389999999999
 20
183.03599999999989
 30
0.0
 11
60.06389999999999
 21
180.03599999999989
 31
0.0
  0
ARC
  5
1F0
  8
0
 62
     7
 10
60.508802000000003
 20
180.48514299999999
 30
0.0
 40
0.632459
 50
225.29543499999991
 51
269.72204799999992
  0
LINE
  5
1F1
  8
0
 62
     7
 10
94.574700000000007
 20
184.10299999999989
 30
0.0
 11
57.50569999999999
 21
184.10299999999989
 31
0.0
  0
ARC
  5
1F2
  8
0
 62
     7
 10
57.529219999999988
 20
183.45432099999991
 30
0.0
 40
0.6488649999999999
 50
92.075085000000016
 51
177.92488499999999
  0
ARC
  5
1F3
  8
0
 62
     7
 10
57.513452000000001
 20
183.48097699999991
 30
0.0
 40
0.632679
 50
180.28628
 51
224.71863399999989
  0
LINE
  5
1F4
  8
0
 62
     7
 10
78.705299999999994
 20
154.67699999999999
 30
0.0
 11
79.916700000000006
 21
153.465
 31
0.0
  0
LINE
  5
1F5
  8
0
 62
     7
 10
77.638300000000001
 20
151.553
 30
0.0
 11
77.638300000000001
 21
154.23500000000001
 31
0.0
  0
ARC
  5
1F6
  8
0
 62
     7
 10
78.263245999999995
 20
154.20135500000001
 30
0.0
 40
0.649174
 50
47.087689999999988
 51
132.9122899999999
  0
ARC
  5
1F7
  8
0
 62
     7
 10
78.270204000000007
 20
154.23213200000001
 30
0.0
 40
0.6319090000000001
 50
135.27510599999991
 51
179.75810100000001
  0
LINE
  5
1F8
  8
0
 62
     7
 10
73.388199999999998
 20
148.6039999999999
 30
0.0
 11
73.388199999999998
 21
159.73500000000001
 31
0.0
  0
LINE
  5
1F9
  8
0
 62
     7
 10
70.705200000000005
 20
162.67699999999999
 30
0.0
 11
73.205100000000002
 21
160.17699999999999
 31
0.0
  0
ARC
  5
1FA
  8
0
 62
     7
 10
72.755533999999983
 20
159.73175699999999
 30
0.0
 40
0.632706
 50
0.287242
 51
44.717632000000002
  0
LINE
  5
1FB
  8
0
 62
     7
 10
69.638199999999998
 20
146.55500000000001
 30
0.0
 11
69.638199999999998
 21
162.23500000000001
 31
0.0
  0
ARC
  5
1FC
  8
0
 62
     7
 10
70.263253000000006
 20
162.201356
 30
0.0
 40
0.6490460000000001
 50
47.087564000000008
 51
132.91241599999989
  0
ARC
  5
1FD
  8
0
 62
     7
 10
70.269557999999989
 20
162.2320959999999
 30
0.0
 40
0.6313430000000001
 50
135.23160599999991
 51
179.73187899999999
  0
LINE
  5
1FE
  8
0
 62
     7
 10
65.388199999999998
 20
144.75999999999991
 30
0.0
 11
65.388199999999998
 21
167.73500000000001
 31
0.0
  0
LINE
  5
1FF
  8
0
 62
     7
 10
62.204999999999998
 20
171.17699999999999
 30
0.0
 11
65.204999999999998
 21
168.17699999999999
 31
0.0
  0
ARC
  5
200
  8
0
 62
     7
 10
64.756232999999995
 20
167.73198400000001
 30
0.0
 40
0.631929
 50
0.289842
 51
44.746633999999993
  0
LINE
  5
201
  8
0
 62
     7
 10
61.138100000000001
 20
143.45599999999999
 30
0.0
 11
61.138100000000001
 21
170.73500000000001
 31
0.0
  0
ARC
  5
202
  8
0
 62
     7
 10
61.763114999999999
 20
170.7346179999999
 30
0.0
 40
0.625194
 50
45.020229
 51
134.97975099999991
  0
ARC
  5
203
  8
0
 62
     7
 10
61.770575000000001
 20
170.73175499999991
 30
0.0
 40
0.6325
 50
135.27449499999989
 51
179.68898999999999
  0
LINE
  5
204
  8
0
 62
     7
 10
56.888199999999991
 20
142.59999999999991
 30
0.0
 11
56.888199999999991
 21
176.23500000000001
 31
0.0
  0
LINE
  5
205
  8
0
 62
     7
 10
53.705100000000002
 20
179.67699999999999
 30
0.0
 11
56.705100000000002
 21
176.67699999999999
 31
0.0
  0
ARC
  5
206
  8
0
 62
     7
 10
56.255568999999987
 20
176.23183499999999
 30
0.0
 40
0.6326260000000001
 50
0.284297
 51
44.720576999999999
  0
LINE
  5
207
  8
0
 62
     7
 10
52.638100000000001
 20
142.16599999999991
 30
0.0
 11
52.638100000000001
 21
179.23500000000001
 31
0.0
  0
ARC
  5
208
  8
0
 62
     7
 10
53.263148999999991
 20
179.20163199999999
 30
0.0
 40
0.6490460000000001
 50
47.087564000000008
 51
132.91241599999989
  0
ARC
  5
209
  8
0
 62
     7
 10
53.269466999999999
 20
179.23236900000001
 30
0.0
 40
0.6313530000000001
 50
135.2321959999999
 51
179.762891
  0
LINE
  5
20A
  8
0
 62
     7
 10
53.388100000000001
 20
187.10299999999989
 30
0.0
 11
95.260900000000007
 21
187.10299999999989
 31
0.0
  0
LINE
  5
20B
  8
0
 62
     7
 10
49.638100000000001
 20
141.48099999999991
 30
0.0
 11
49.638100000000001
 21
183.35299999999989
 31
0.0
  0
ARC
  5
20C
  8
0
 62
     7
 10
53.388121999999989
 20
183.35275799999991
 30
0.0
 40
3.7500110000000002
 50
90.0
 51
179.99996999999991
  0
LINE
  5
20D
  8
_________2
 62
     7
 10
205.30099999999999
 20
127.411
 30
0.0
 11
183.55000000000001
 21
127.411
 31
0.0
  0
LINE
  5
20E
  8
_________2
 62
     7
 10
100.2999999999999
 20
-4.0910799999999998
 30
0.0
 11
100.2999999999999
 21
-21.071400000000001
 31
0.0
  0
LINE
  5
20F
  8
_________2
 62
     7
 10
100.2999999999999
 20
275.93099999999993
 30
0.0
 11
100.2999999999999
 21
258.911
 31
0.0
  0
LINE
  5
210
  8
_________2
 62
     7
 10
17.049499999999998
 20
127.411
 30
0.0
 11
-4.70052
 21
127.411
 31
0.0
  0
LINE
  5
211
  8
_________2
 62
     7
 10
76.741
 20
29.8047
 30
0.0
 11
74.554699999999997
 21
29.8047
 31
0.0
  0
LINE
  5
212
  8
_________2
 62
     7
 10
77.233699999999999
 20
29.8047
 30
0.0
 11
76.981499999999997
 21
29.8047
 31
0.0
  0
LINE
  5
213
  8
_________2
 62
     7
 10
77.726299999999995
 20
29.8047
 30
0.0
 11
80.651200000000003
 21
29.8047
 31
0.0
  0
LINE
  5
214
  8
_________2
 62
     7
 10
77.233699999999999
 20
29.8047
 30
0.0
 11
77.485500000000002
 21
29.8047
 31
0.0
  0
LINE
  5
215
  8
_________2
 62
     7
 10
70.837100000000007
 20
29.8047
 30
0.0
 11
68.650499999999994
 21
29.8047
 31
0.0
  0
LINE
  5
216
  8
_________2
 62
     7
 10
71.329400000000007
 20
29.8047
 30
0.0
 11
71.077600000000004
 21
29.8047
 31
0.0
  0
LINE
  5
217
  8
_________2
 62
     7
 10
71.329400000000007
 20
30.2974
 30
0.0
 11
71.329400000000007
 21
32.484400000000001
 31
0.0
  0
LINE
  5
218
  8
_________2
 62
     7
 10
71.329400000000007
 20
29.8047
 30
0.0
 11
71.329400000000007
 21
30.056899999999992
 31
0.0
  0
LINE
  5
219
  8
_________2
 62
     7
 10
71.822100000000006
 20
29.8047
 30
0.0
 11
74.009
 21
29.8047
 31
0.0
  0
LINE
  5
21A
  8
_________2
 62
     7
 10
71.329400000000007
 20
29.8047
 30
0.0
 11
71.581599999999995
 21
29.8047
 31
0.0
  0
LINE
  5
21B
  8
_________2
 62
     7
 10
71.329400000000007
 20
29.312799999999999
 30
0.0
 11
71.329400000000007
 21
27.125800000000002
 31
0.0
  0
LINE
  5
21C
  8
_________2
 62
     7
 10
71.329400000000007
 20
29.8047
 30
0.0
 11
71.329400000000007
 21
29.5532
 31
0.0
  0
LINE
  5
21D
  8
_________2
 62
     7
 10
75.040499999999994
 20
28.5852
 30
0.0
 11
80.218500000000006
 21
27.720400000000001
 31
0.0
  0
LINE
  5
21E
  8
_________2
 62
     7
 10
75.040499999999994
 20
31.0243
 30
0.0
 11
80.218500000000006
 21
31.889700000000001
 31
0.0
  0
LINE
  5
21F
  8
_________2
 62
     7
 10
80.218500000000006
 20
27.720400000000001
 30
0.0
 11
80.218500000000006
 21
31.889700000000001
 31
0.0
  0
LINE
  5
220
  8
_________2
 62
     7
 10
75.040499999999994
 20
28.5852
 30
0.0
 11
75.040499999999994
 21
31.0243
 31
0.0
  0
ARC
  5
221
  8
_________2
 62
     7
 10
71.28285600000001
 20
29.757811
 30
0.0
 40
1.2673589999999999
 50
2.122214
 51
87.893958999999995
  0
ARC
  5
222
  8
_________2
 62
     7
 10
71.375959999999992
 20
29.758213000000001
 30
0.0
 40
1.2669559999999991
 50
92.104701000000006
 51
177.8952689999999
  0
ARC
  5
223
  8
_________2
 62
     7
 10
71.376357999999996
 20
29.851671
 30
0.0
 40
1.2673680000000001
 50
182.12203600000001
 51
267.877993
  0
ARC
  5
224
  8
_________2
 62
     7
 10
71.282531999999989
 20
29.851998999999989
 30
0.0
 40
1.267695999999999
 50
272.12015300000002
 51
357.863674
  0
ARC
  5
225
  8
_________2
 62
     7
 10
71.329430000000002
 20
29.804742999999998
 30
0.0
 40
2.0849849999999992
 50
0.00001
 51
89.999980000000008
  0
ARC
  5
226
  8
_________2
 62
     7
 10
71.329603000000006
 20
29.804915000000001
 30
0.0
 40
2.084813
 50
90.004733999999999
 51
180.00474399999999
  0
ARC
  5
227
  8
_________2
 62
     7
 10
71.409106000000008
 20
29.884775999999999
 30
0.0
 40
2.1657950000000001
 50
182.11776599999999
 51
267.89173399999999
  0
ARC
  5
228
  8
_________2
 62
     7
 10
71.249459000000002
 20
29.885429999999989
 30
0.0
 40
2.1664590000000001
 50
272.11546800000002
 51
357.86560400000002
  0
TEXT
  5
229
  8
_________2
 62
     7
 10
104.605
 20
1.6794899999999999
 30
0.0
 40
3.0923400000000001
  1
図番
 41
0.5
  0
LINE
  5
22A
  8
_________2
 62
     7
 10
103.55
 20
5.9087199999999989
 30
0.0
 11
183.55099999999999
 21
5.9087199999999989
 31
0.0
  0
TEXT
  5
22B
  8
_________2
 62
     7
 10
104.605
 20
11.679299999999991
 30
0.0
 40
3.0923400000000001
  1
品番
 41
0.5
  0
TEXT
  5
22C
  8
_________2
 62
     7
 10
104.605
 20
31.818100000000001
 30
0.0
 40
3.0923400000000001
  1
名称
 41
0.5
  0
TEXT
  5
22D
  8
_________2
 62
     7
 10
91.845058333333341
 20
26.821999999999989
 30
0.0
 40
3.6545800000000002
  1
mm
 41
0.5
 72
     1
 11
93.367800000000003
 21
26.821999999999989
 31
0.0
  0
TEXT
  5
22E
  8
_________2
 62
     7
 10
85.643199999999993
 20
31.818100000000001
 30
0.0
 40
3.0923400000000001
  1
単位
 41
0.5
  0
TEXT
  5
22F
  8
_________2
 62
     7
 10
85.643199999999993
 20
19.410799999999991
 30
0.0
 40
3.0923400000000001
  1
尺度
 41
0.5
  0
TEXT
  5
230
  8
_________2
 62
     7
 10
90.548758666666686
 20
13.2179
 30
0.0
 40
3.6545800000000002
  1
1 ： 4
 41
0.5
 72
     1
 11
93.959699999999998
 21
13.2179
 31
0.0
  0
TEXT
  5
231
  8
_________2
 62
     7
 10
136.00657499999991
 20
9.1078600000000005
 30
0.0
 40
3.9357000000000002
  1
EC.S17453
 41
0.5
 72
     1
 11
143.55000000000001
 21
9.1078600000000005
 31
0.0
  0
TEXT
  5
232
  8
_________2
 62
     7
 10
136.33455000000001
 20
-0.8926299999999999
 30
0.0
 40
3.9357000000000002
  1
ECS17453
 41
0.5
 72
     1
 11
143.55000000000001
 21
-0.8926299999999999
 31
0.0
  0
TEXT
  5
233
  8
_________2
 62
     7
 10
109.179
 20
24.2257
 30
0.0
 40
3.9357000000000002
  1
リエゾン　コーナーバスケット
 41
0.5
  0
TEXT
  5
234
  8
_________2
 62
     7
 10
39.364390666666658
 20
13.603
 30
0.0
 40
3.6545800000000002
  1
石原
 41
0.5
 72
     1
 11
41.313499999999998
 21
13.603
 31
0.0
  0
TEXT
  5
235
  8
_________2
 62
     7
 10
20.790090666666661
 20
13.603
 30
0.0
 40
3.6545800000000002
  1
菅原
 41
0.5
 72
     1
 11
22.73919999999999
 21
13.603
 31
0.0
  0
TEXT
  5
236
  8
_________2
 62
     7
 10
67.785399999999996
 20
13.2179
 30
0.0
 40
3.6545800000000002
  1
11.03.17
 41
0.5
  0
TEXT
  5
237
  8
_________2
 62
     7
 10
66.593100000000007
 20
19.410799999999991
 30
0.0
 40
3.0923400000000001
  1
日付
 41
0.5
  0
TEXT
  5
238
  8
_________2
 62
     7
 10
29.639399999999998
 20
19.410799999999991
 30
0.0
 40
3.0923400000000001
  1
検図
 41
0.5
  0
TEXT
  5
239
  8
_________2
 62
     7
 10
18.021100000000001
 20
5.21143
 30
0.0
 40
3.0923400000000001
  1
備考
 41
0.5
  0
TEXT
  5
23A
  8
_________2
 62
     7
 10
18.021100000000001
 20
19.410799999999991
 30
0.0
 40
3.0923400000000001
  1
製図
 41
0.5
  0
TEXT
  5
23B
  8
_________2
 62
     7
 10
23.788465333333338
 20
27.936800000000002
 30
0.0
 40
4.4979399999999989
  1
セラトレーディング株式会社
 41
0.5
 72
     1
 11
41.180500000000002
 21
27.936800000000002
 31
0.0
  0
LINE
  5
23C
  8
_________2
 62
     7
 10
183.55099999999999
 20
-4.0910799999999998
 30
0.0
 11
17.049499999999998
 21
-4.0910799999999998
 31
0.0
  0
LINE
  5
23D
  8
_________2
 62
     7
 10
17.049499999999998
 20
-4.0910799999999998
 30
0.0
 11
17.049499999999998
 21
258.911
 31
0.0
  0
LINE
  5
23E
  8
_________2
 62
     7
 10
17.049499999999998
 20
258.911
 30
0.0
 11
183.55099999999999
 21
258.911
 31
0.0
  0
LINE
  5
23F
  8
_________2
 62
     7
 10
183.55099999999999
 20
258.911
 30
0.0
 11
183.55099999999999
 21
-4.0910799999999998
 31
0.0
  0
LINE
  5
240
  8
_________2
 62
     7
 10
65.549599999999998
 20
9.4089600000000004
 30
0.0
 11
65.549599999999998
 21
35.908799999999999
 31
0.0
  0
LINE
  5
241
  8
_________2
 62
     7
 10
84.549700000000016
 20
9.4089600000000004
 30
0.0
 11
84.549700000000016
 21
35.908799999999999
 31
0.0
  0
LINE
  5
242
  8
_________2
 62
     7
 10
103.55
 20
-4.0910799999999998
 30
0.0
 11
103.55
 21
35.908799999999999
 31
0.0
  0
LINE
  5
243
  8
_________2
 62
     7
 10
28.549299999999992
 20
9.4089600000000004
 30
0.0
 11
28.549299999999992
 21
23.409199999999998
 31
0.0
  0
LINE
  5
244
  8
_________2
 62
     7
 10
17.049499999999998
 20
9.4089600000000004
 30
0.0
 11
103.55
 21
9.4089600000000004
 31
0.0
  0
LINE
  5
245
  8
_________2
 62
     7
 10
17.049499999999998
 20
23.409199999999998
 30
0.0
 11
103.55
 21
23.409199999999998
 31
0.0
  0
LINE
  5
246
  8
_________2
 62
     7
 10
103.55
 20
15.9085
 30
0.0
 11
183.55099999999999
 21
15.9085
 31
0.0
  0
LINE
  5
247
  8
_________2
 62
     7
 10
17.049499999999998
 20
35.908799999999999
 30
0.0
 11
183.55099999999999
 21
35.908799999999999
 31
0.0
  0
ENDSEC
  0
EOF
