  0
SECTION
  2
HEADER
  9
$ACADVER
  1
AC1015
  9
$ACADMAINTVER
 70
     6
  9
$DWGCODEPAGE
  3
ANSI_932
  9
$INSBASE
 10
0.0
 20
0.0
 30
0.0
  9
$EXTMIN
 10
-4.70103
 20
-21.07099999999999
 30
0.0
  9
$EXTMAX
 10
205.301
 20
275.9309999999999
 30
0.0
  9
$LIMMIN
 10
0.0
 20
0.0
  9
$LIMMAX
 10
12.0
 20
9.0
  9
$ORTHOMODE
 70
     0
  9
$REGENMODE
 70
     1
  9
$FILLMODE
 70
     1
  9
$QTEXTMODE
 70
     0
  9
$MIRRTEXT
 70
     1
  9
$LTSCALE
 40
1.0
  9
$ATTMODE
 70
     1
  9
$TEXTSIZE
 40
0.0
  9
$TRACEWID
 40
0.05
  9
$TEXTSTYLE
  7
STANDARD
  9
$CLAYER
  8
0
  9
$CELTYPE
  6
CONTINUOUS
  9
$CECOLOR
 62
   256
  9
$CELTSCALE
 40
1.0
  9
$DISPSILH
 70
     0
  9
$DIMSCALE
 40
1.0
  9
$DIMASZ
 40
0.18
  9
$DIMEXO
 40
0.0625
  9
$DIMDLI
 40
0.38
  9
$DIMRND
 40
0.0
  9
$DIMDLE
 40
0.0
  9
$DIMEXE
 40
0.18
  9
$DIMTP
 40
0.0
  9
$DIMTM
 40
0.0
  9
$DIMTXT
 40
0.18
  9
$DIMCEN
 40
0.09
  9
$DIMTSZ
 40
0.0
  9
$DIMTOL
 70
     0
  9
$DIMLIM
 70
     0
  9
$DIMTIH
 70
     1
  9
$DIMTOH
 70
     1
  9
$DIMSE1
 70
     0
  9
$DIMSE2
 70
     0
  9
$DIMTAD
 70
     0
  9
$DIMZIN
 70
     0
  9
$DIMBLK
  1

  9
$DIMASO
 70
     1
  9
$DIMSHO
 70
     1
  9
$DIMPOST
  1

  9
$DIMAPOST
  1

  9
$DIMALT
 70
     0
  9
$DIMALTD
 70
     2
  9
$DIMALTF
 40
25.4
  9
$DIMLFAC
 40
1.0
  9
$DIMTOFL
 70
     0
  9
$DIMTVP
 40
0.0
  9
$DIMTIX
 70
     0
  9
$DIMSOXD
 70
     0
  9
$DIMSAH
 70
     0
  9
$DIMBLK1
  1

  9
$DIMBLK2
  1

  9
$DIMSTYLE
  2
STANDARD
  9
$DIMCLRD
 70
     0
  9
$DIMCLRE
 70
     0
  9
$DIMCLRT
 70
     0
  9
$DIMTFAC
 40
1.0
  9
$DIMGAP
 40
0.09
  9
$DIMJUST
 70
     0
  9
$DIMSD1
 70
     0
  9
$DIMSD2
 70
     0
  9
$DIMTOLJ
 70
     1
  9
$DIMTZIN
 70
     0
  9
$DIMALTZ
 70
     0
  9
$DIMALTTZ
 70
     0
  9
$DIMUPT
 70
     0
  9
$DIMDEC
 70
     4
  9
$DIMTDEC
 70
     4
  9
$DIMALTU
 70
     2
  9
$DIMALTTD
 70
     2
  9
$DIMTXSTY
  7
STANDARD
  9
$DIMAUNIT
 70
     0
  9
$DIMADEC
 70
     0
  9
$DIMALTRND
 40
0.0
  9
$DIMAZIN
 70
     0
  9
$DIMDSEP
 70
    46
  9
$DIMATFIT
 70
     3
  9
$DIMFRAC
 70
     0
  9
$DIMLDRBLK
  1

  9
$DIMLUNIT
 70
     2
  9
$DIMLWD
 70
    -2
  9
$DIMLWE
 70
    -2
  9
$DIMTMOVE
 70
     0
  9
$LUNITS
 70
     2
  9
$LUPREC
 70
     4
  9
$SKETCHINC
 40
0.1
  9
$FILLETRAD
 40
0.0
  9
$AUNITS
 70
     0
  9
$AUPREC
 70
     0
  9
$MENU
  1
.
  9
$ELEVATION
 40
0.0
  9
$PELEVATION
 40
0.0
  9
$THICKNESS
 40
0.0
  9
$LIMCHECK
 70
     0
  9
$CHAMFERA
 40
0.0
  9
$CHAMFERB
 40
0.0
  9
$CHAMFERC
 40
0.0
  9
$CHAMFERD
 40
0.0
  9
$SKPOLY
 70
     0
  9
$TDCREATE
 40
2444972.375000000
  9
$TDUCREATE
 40
2444972.000000000
  9
$TDUPDATE
 40
2455216.788369653
  9
$TDUUPDATE
 40
2455216.413369653
  9
$TDINDWG
 40
0.0134043981
  9
$TDUSRTIMER
 40
0.0134043981
  9
$USRTIMER
 70
     1
  9
$ANGBASE
 50
0.0
  9
$ANGDIR
 70
     0
  9
$PDMODE
 70
     0
  9
$PDSIZE
 40
0.0
  9
$PLINEWID
 40
0.0
  9
$SPLFRAME
 70
     0
  9
$SPLINETYPE
 70
     6
  9
$SPLINESEGS
 70
     8
  9
$HANDSEED
  5
137
  9
$SURFTAB1
 70
     6
  9
$SURFTAB2
 70
     6
  9
$SURFTYPE
 70
     6
  9
$SURFU
 70
     6
  9
$SURFV
 70
     6
  9
$UCSBASE
  2

  9
$UCSNAME
  2

  9
$UCSORG
 10
0.0
 20
0.0
 30
0.0
  9
$UCSXDIR
 10
1.0
 20
0.0
 30
0.0
  9
$UCSYDIR
 10
0.0
 20
1.0
 30
0.0
  9
$UCSORTHOREF
  2

  9
$UCSORTHOVIEW
 70
     0
  9
$UCSORGTOP
 10
0.0
 20
0.0
 30
0.0
  9
$UCSORGBOTTOM
 10
0.0
 20
0.0
 30
0.0
  9
$UCSORGLEFT
 10
0.0
 20
0.0
 30
0.0
  9
$UCSORGRIGHT
 10
0.0
 20
0.0
 30
0.0
  9
$UCSORGFRONT
 10
0.0
 20
0.0
 30
0.0
  9
$UCSORGBACK
 10
0.0
 20
0.0
 30
0.0
  9
$PUCSBASE
  2

  9
$PUCSNAME
  2

  9
$PUCSORG
 10
0.0
 20
0.0
 30
0.0
  9
$PUCSXDIR
 10
1.0
 20
0.0
 30
0.0
  9
$PUCSYDIR
 10
0.0
 20
1.0
 30
0.0
  9
$PUCSORTHOREF
  2

  9
$PUCSORTHOVIEW
 70
     0
  9
$PUCSORGTOP
 10
0.0
 20
0.0
 30
0.0
  9
$PUCSORGBOTTOM
 10
0.0
 20
0.0
 30
0.0
  9
$PUCSORGLEFT
 10
0.0
 20
0.0
 30
0.0
  9
$PUCSORGRIGHT
 10
0.0
 20
0.0
 30
0.0
  9
$PUCSORGFRONT
 10
0.0
 20
0.0
 30
0.0
  9
$PUCSORGBACK
 10
0.0
 20
0.0
 30
0.0
  9
$USERI1
 70
     0
  9
$USERI2
 70
     0
  9
$USERI3
 70
     0
  9
$USERI4
 70
     0
  9
$USERI5
 70
     0
  9
$USERR1
 40
0.0
  9
$USERR2
 40
0.0
  9
$USERR3
 40
0.0
  9
$USERR4
 40
0.0
  9
$USERR5
 40
0.0
  9
$WORLDVIEW
 70
     1
  9
$SHADEDGE
 70
     3
  9
$SHADEDIF
 70
    70
  9
$TILEMODE
 70
     1
  9
$MAXACTVP
 70
    48
  9
$PINSBASE
 10
0.0
 20
0.0
 30
0.0
  9
$PLIMCHECK
 70
     0
  9
$PEXTMIN
 10
1.000000000000000E+20
 20
1.000000000000000E+20
 30
1.000000000000000E+20
  9
$PEXTMAX
 10
-1.000000000000000E+20
 20
-1.000000000000000E+20
 30
-1.000000000000000E+20
  9
$PLIMMIN
 10
0.0
 20
0.0
  9
$PLIMMAX
 10
12.0
 20
9.0
  9
$UNITMODE
 70
     0
  9
$VISRETAIN
 70
     1
  9
$PLINEGEN
 70
     0
  9
$PSLTSCALE
 70
     1
  9
$TREEDEPTH
 70
  3020
  9
$CMLSTYLE
  2
STANDARD
  9
$CMLJUST
 70
     0
  9
$CMLSCALE
 40
1.0
  9
$PROXYGRAPHICS
 70
     1
  9
$MEASUREMENT
 70
     0
  9
$CELWEIGHT
370
    -1
  9
$ENDCAPS
280
     0
  9
$JOINSTYLE
280
     0
  9
$LWDISPLAY
290
     0
  9
$INSUNITS
 70
     0
  9
$HYPERLINKBASE
  1

  9
$STYLESHEET
  1

  9
$XEDIT
290
     1
  9
$CEPSNTYPE
380
     0
  9
$PSTYLEMODE
290
     1
  9
$FINGERPRINTGUID
  2
{7629914B-9361-4971-97BC-0EE86FBEEEF4}
  9
$VERSIONGUID
  2
{AB8F6DB4-9318-4312-B452-F3D0DFF322CF}
  9
$EXTNAMES
290
     1
  9
$PSVPSCALE
 40
0.0
  9
$OLESTARTUP
290
     0
  0
ENDSEC
  0
SECTION
  2
CLASSES
  0
CLASS
  1
ACDBDICTIONARYWDFLT
  2
AcDbDictionaryWithDefault
  3
AutoCAD 2000
 90
        0
280
     0
281
     0
  0
CLASS
  1
ACDBPLACEHOLDER
  2
AcDbPlaceHolder
  3
AutoCAD 2000
 90
        0
280
     0
281
     0
  0
CLASS
  1
LAYOUT
  2
AcDbLayout
  3
AutoCAD 2000
 90
        0
280
     0
281
     0
  0
ENDSEC
  0
SECTION
  2
TABLES
  0
TABLE
  2
VPORT
  5
8
330
0
100
AcDbSymbolTable
 70
     2
  0
VPORT
  5
136
330
8
100
AcDbSymbolTableRecord
100
AcDbViewportTableRecord
  2
*Active
 70
     0
 10
0.0
 20
0.0
 11
1.0
 21
1.0
 12
138.8711095848293
 22
127.4299999999999
 13
0.0
 23
0.0
 14
1.0
 24
1.0
 15
0.0
 25
0.0
 16
0.0
 26
0.0
 36
1.0
 17
0.0
 27
0.0
 37
0.0
 40
299.4592397057876
 41
1.912109375
 42
50.0
 43
0.0
 44
0.0
 50
0.0
 51
0.0
 71
     0
 72
   100
 73
     1
 74
     1
 75
     0
 76
     0
 77
     0
 78
     0
281
     0
 65
     1
110
0.0
120
0.0
130
0.0
111
1.0
121
0.0
131
0.0
112
0.0
122
1.0
132
0.0
 79
     0
146
0.0
  0
ENDTAB
  0
TABLE
  2
LTYPE
  5
5
330
0
100
AcDbSymbolTable
 70
     3
  0
LTYPE
  5
12
330
5
100
AcDbSymbolTableRecord
100
AcDbLinetypeTableRecord
  2
BYBLOCK
 70
     0
  3

 72
    65
 73
     0
 40
0.0
  0
LTYPE
  5
13
330
5
100
AcDbSymbolTableRecord
100
AcDbLinetypeTableRecord
  2
BYLAYER
 70
     0
  3

 72
    65
 73
     0
 40
0.0
  0
LTYPE
  5
14
330
5
100
AcDbSymbolTableRecord
100
AcDbLinetypeTableRecord
  2
CONTINUOUS
 70
     0
  3
Solid line
 72
    65
 73
     0
 40
0.0
  0
LTYPE
  5
1F
330
5
100
AcDbSymbolTableRecord
100
AcDbLinetypeTableRecord
  2
AIGENLINE001
 70
     0
  3
generate AI->DXF Converter
 72
    65
 73
     2
 40
1.552229999999999
 49
0.776115
 74
     0
 49
-0.776115
 74
     0
  0
LTYPE
  5
20
330
5
100
AcDbSymbolTableRecord
100
AcDbLinetypeTableRecord
  2
AIGENLINE002
 70
     0
  3
generate AI->DXF Converter
 72
    65
 73
     4
 40
5.856144999999999
 49
3.5278
 74
     0
 49
-0.776115
 74
     0
 49
0.776115
 74
     0
 49
-0.776115
 74
     0
  0
ENDTAB
  0
TABLE
  2
LAYER
  5
2
330
0
100
AcDbSymbolTable
 70
     2
  0
LAYER
  5
E
330
2
100
AcDbSymbolTableRecord
100
AcDbLayerTableRecord
  2
0
 70
     0
 62
     7
  6
CONTINUOUS
370
    -3
390
12E
  0
LAYER
  5
21
330
2
100
AcDbSymbolTableRecord
100
AcDbLayerTableRecord
  2
_________2
 70
     0
 62
     7
  6
CONTINUOUS
370
    -3
390
12E
  0
ENDTAB
  0
TABLE
  2
STYLE
  5
3
330
0
100
AcDbSymbolTable
 70
     1
  0
STYLE
  5
F
330
3
100
AcDbSymbolTableRecord
100
AcDbTextStyleTableRecord
  2
STANDARD
 70
     0
 40
0.0
 41
0.0
 50
0.0
 71
     0
 42
0.0
  3
TXT
  4
BIGFONT
  0
ENDTAB
  0
TABLE
  2
VIEW
  5
6
330
0
100
AcDbSymbolTable
 70
     0
  0
ENDTAB
  0
TABLE
  2
UCS
  5
7
330
0
100
AcDbSymbolTable
 70
     0
  0
ENDTAB
  0
TABLE
  2
APPID
  5
9
330
0
100
AcDbSymbolTable
 70
     1
  0
APPID
  5
10
330
9
100
AcDbSymbolTableRecord
100
AcDbRegAppTableRecord
  2
ACAD
 70
     0
  0
ENDTAB
  0
TABLE
  2
DIMSTYLE
  5
A
330
0
100
AcDbSymbolTable
 70
     1
100
AcDbDimStyleTable
 71
     0
  0
DIMSTYLE
105
12A
330
A
100
AcDbSymbolTableRecord
100
AcDbDimStyleTableRecord
  2
STANDARD
 70
     0
340
F
  0
ENDTAB
  0
TABLE
  2
BLOCK_RECORD
  5
1
330
0
100
AcDbSymbolTable
 70
     0
  0
BLOCK_RECORD
  5
18
330
1
100
AcDbSymbolTableRecord
100
AcDbBlockTableRecord
  2
*MODEL_SPACE
340
131
  0
BLOCK_RECORD
  5
15
330
1
100
AcDbSymbolTableRecord
100
AcDbBlockTableRecord
  2
*PAPER_SPACE
340
132
  0
ENDTAB
  0
ENDSEC
  0
SECTION
  2
BLOCKS
  0
BLOCK
  5
19
330
18
100
AcDbEntity
  8
0
100
AcDbBlockBegin
  2
*MODEL_SPACE
 70
     0
 10
0.0
 20
0.0
 30
0.0
  3
*MODEL_SPACE
  1

  0
ENDBLK
  5
1A
330
18
100
AcDbEntity
  8
0
100
AcDbBlockEnd
  0
BLOCK
  5
16
330
15
100
AcDbEntity
 67
     1
  8
0
100
AcDbBlockBegin
  2
*PAPER_SPACE
 70
     0
 10
0.0
 20
0.0
 30
0.0
  3
*PAPER_SPACE
  1

  0
ENDBLK
  5
17
330
15
100
AcDbEntity
 67
     1
  8
0
100
AcDbBlockEnd
  0
ENDSEC
  0
SECTION
  2
ENTITIES
  0
TEXT
  5
23
330
18
100
AcDbEntity
  8
0
100
AcDbText
 10
136.350918
 20
232.2209999999999
 30
0.0
 40
3.09234
  1
（%%c6×35 樹脂プラグ付）
 41
0.5
 72
     2
 11
158.925
 21
232.2209999999999
 31
0.0
100
AcDbText
  0
TEXT
  5
24
330
18
100
AcDbEntity
  8
0
100
AcDbText
 10
130.2150749999999
 20
237.517
 30
0.0
 40
3.09234
  1
%%c3.8×50 十字穴付SUS丸木ねじ
 41
0.5
 72
     2
 11
159.85
 21
237.517
 31
0.0
100
AcDbText
  0
TEXT
  5
25
330
18
100
AcDbEntity
  8
0
100
AcDbText
 10
127.326
 20
65.783525
 30
0.0
 40
3.09234
  1
22
 50
90.0
 41
0.5
 72
     1
 11
127.326
 21
67.072
 31
0.0
100
AcDbText
  0
TEXT
  5
26
330
18
100
AcDbEntity
  8
0
100
AcDbText
 10
134.7669999999999
 20
126.5714399999999
 30
0.0
 40
3.09234
  1
678
 50
90.0
 41
0.5
 72
     1
 11
134.7669999999999
 21
128.6329999999999
 31
0.0
100
AcDbText
  0
TEXT
  5
27
330
18
100
AcDbEntity
  8
0
100
AcDbText
 10
65.33472499999999
 20
56.2178
 30
0.0
 40
3.09234
  1
66
 41
0.5
 72
     1
 11
66.6232
 21
56.2178
 31
0.0
100
AcDbText
  0
TEXT
  5
28
330
18
100
AcDbEntity
  8
0
100
AcDbText
 10
115.313525
 20
55.9528
 30
0.0
 40
3.09234
  1
38
 41
0.5
 72
     1
 11
116.602
 21
55.9528
 31
0.0
100
AcDbText
  0
LINE
  5
29
330
18
100
AcDbEntity
  8
0
100
AcDbLine
 10
50.7886
 20
69.56999999999999
 30
0.0
 11
51.1533
 21
68.81
 31
0.0
  0
LINE
  5
2A
330
18
100
AcDbEntity
  8
0
100
AcDbLine
 10
51.3676
 20
69.56999999999999
 30
0.0
 11
51.7321
 21
68.81
 31
0.0
  0
LINE
  5
2B
330
18
100
AcDbEntity
  8
0
100
AcDbLine
 10
51.9463
 20
69.56999999999999
 30
0.0
 11
52.3108
 21
68.81
 31
0.0
  0
LINE
  5
2C
330
18
100
AcDbEntity
  8
0
100
AcDbLine
 10
52.5251
 20
69.56999999999999
 30
0.0
 11
52.8896
 21
68.81
 31
0.0
  0
LINE
  5
2D
330
18
100
AcDbEntity
  8
0
100
AcDbLine
 10
53.1039
 20
69.56999999999999
 30
0.0
 11
53.4684
 21
68.81
 31
0.0
  0
LINE
  5
2E
330
18
100
AcDbEntity
  8
0
100
AcDbLine
 10
53.68269999999999
 20
69.56999999999999
 30
0.0
 11
54.0472
 21
68.81
 31
0.0
  0
LINE
  5
2F
330
18
100
AcDbEntity
  8
0
100
AcDbLine
 10
54.26149999999999
 20
69.56999999999999
 30
0.0
 11
54.62600000000001
 21
68.81
 31
0.0
  0
LINE
  5
30
330
18
100
AcDbEntity
  8
0
100
AcDbLine
 10
54.84020000000001
 20
69.56999999999999
 30
0.0
 11
55.2047
 21
68.81
 31
0.0
  0
LINE
  5
31
330
18
100
AcDbEntity
  8
0
100
AcDbLine
 10
55.419
 20
69.56999999999999
 30
0.0
 11
55.7835
 21
68.81
 31
0.0
  0
LINE
  5
32
330
18
100
AcDbEntity
  8
0
100
AcDbLine
 10
55.99779999999999
 20
69.56999999999999
 30
0.0
 11
56.3623
 21
68.81
 31
0.0
  0
LINE
  5
33
330
18
100
AcDbEntity
  8
0
  6
AIGENLINE002
100
AcDbLine
 10
49.6953
 20
69.19
 30
0.0
 11
60.8644
 21
69.19
 31
0.0
  0
LINE
  5
34
330
18
100
AcDbEntity
  8
0
100
AcDbLine
 10
50.7371
 20
69.4043
 30
0.0
 11
50.1106
 21
69.19
 31
0.0
  0
LINE
  5
35
330
18
100
AcDbEntity
  8
0
100
AcDbLine
 10
50.7371
 20
68.9757
 30
0.0
 11
50.1106
 21
69.19
 31
0.0
  0
LINE
  5
36
330
18
100
AcDbEntity
  8
0
100
AcDbLine
 10
50.7371
 20
69.4043
 30
0.0
 11
60.1106
 21
69.4043
 31
0.0
  0
LINE
  5
37
330
18
100
AcDbEntity
  8
0
100
AcDbLine
 10
50.7371
 20
68.9757
 30
0.0
 11
60.1106
 21
68.9757
 31
0.0
  0
LINE
  5
38
330
18
100
AcDbEntity
  8
0
100
AcDbLine
 10
59.4706
 20
69.56999999999999
 30
0.0
 11
59.835
 21
68.81
 31
0.0
  0
LINE
  5
39
330
18
100
AcDbEntity
  8
0
100
AcDbLine
 10
58.8919
 20
69.56999999999999
 30
0.0
 11
59.2562
 21
68.81
 31
0.0
  0
LINE
  5
3A
330
18
100
AcDbEntity
  8
0
100
AcDbLine
 10
58.3131
 20
69.56999999999999
 30
0.0
 11
58.6774
 21
68.81
 31
0.0
  0
LINE
  5
3B
330
18
100
AcDbEntity
  8
0
100
AcDbLine
 10
57.7343
 20
69.56999999999999
 30
0.0
 11
58.0986
 21
68.81
 31
0.0
  0
LINE
  5
3C
330
18
100
AcDbEntity
  8
0
100
AcDbLine
 10
57.1555
 20
69.56999999999999
 30
0.0
 11
57.5199
 21
68.81
 31
0.0
  0
LINE
  5
3D
330
18
100
AcDbEntity
  8
0
100
AcDbLine
 10
56.5767
 20
69.56999999999999
 30
0.0
 11
56.9411
 21
68.81
 31
0.0
  0
LINE
  5
3E
330
18
100
AcDbEntity
  8
0
100
AcDbLine
 10
50.7886
 20
65.16989999999999
 30
0.0
 11
51.1533
 21
64.40989999999999
 31
0.0
  0
LINE
  5
3F
330
18
100
AcDbEntity
  8
0
100
AcDbLine
 10
51.3676
 20
65.16989999999999
 30
0.0
 11
51.7321
 21
64.40989999999999
 31
0.0
  0
LINE
  5
40
330
18
100
AcDbEntity
  8
0
100
AcDbLine
 10
51.9463
 20
65.16989999999999
 30
0.0
 11
52.3108
 21
64.40989999999999
 31
0.0
  0
LINE
  5
41
330
18
100
AcDbEntity
  8
0
100
AcDbLine
 10
52.5251
 20
65.16989999999999
 30
0.0
 11
52.8896
 21
64.40989999999999
 31
0.0
  0
LINE
  5
42
330
18
100
AcDbEntity
  8
0
100
AcDbLine
 10
53.1039
 20
65.16989999999999
 30
0.0
 11
53.4684
 21
64.40989999999999
 31
0.0
  0
LINE
  5
43
330
18
100
AcDbEntity
  8
0
100
AcDbLine
 10
53.68269999999999
 20
65.16989999999999
 30
0.0
 11
54.0472
 21
64.40989999999999
 31
0.0
  0
LINE
  5
44
330
18
100
AcDbEntity
  8
0
100
AcDbLine
 10
54.26149999999999
 20
65.16989999999999
 30
0.0
 11
54.62600000000001
 21
64.40989999999999
 31
0.0
  0
LINE
  5
45
330
18
100
AcDbEntity
  8
0
100
AcDbLine
 10
54.84020000000001
 20
65.16989999999999
 30
0.0
 11
55.2047
 21
64.40989999999999
 31
0.0
  0
LINE
  5
46
330
18
100
AcDbEntity
  8
0
100
AcDbLine
 10
55.419
 20
65.16989999999999
 30
0.0
 11
55.7835
 21
64.40989999999999
 31
0.0
  0
LINE
  5
47
330
18
100
AcDbEntity
  8
0
100
AcDbLine
 10
55.99779999999999
 20
65.16989999999999
 30
0.0
 11
56.3623
 21
64.40989999999999
 31
0.0
  0
LINE
  5
48
330
18
100
AcDbEntity
  8
0
  6
AIGENLINE002
100
AcDbLine
 10
49.6953
 20
64.7899
 30
0.0
 11
60.8644
 21
64.7899
 31
0.0
  0
LINE
  5
49
330
18
100
AcDbEntity
  8
0
100
AcDbLine
 10
50.7371
 20
65.0042
 30
0.0
 11
50.1106
 21
64.7899
 31
0.0
  0
LINE
  5
4A
330
18
100
AcDbEntity
  8
0
100
AcDbLine
 10
50.7371
 20
64.57559999999999
 30
0.0
 11
50.1106
 21
64.7899
 31
0.0
  0
LINE
  5
4B
330
18
100
AcDbEntity
  8
0
100
AcDbLine
 10
50.7371
 20
65.0042
 30
0.0
 11
60.1106
 21
65.0042
 31
0.0
  0
LINE
  5
4C
330
18
100
AcDbEntity
  8
0
100
AcDbLine
 10
50.7371
 20
64.57559999999999
 30
0.0
 11
60.1106
 21
64.57559999999999
 31
0.0
  0
LINE
  5
4D
330
18
100
AcDbEntity
  8
0
100
AcDbLine
 10
59.4706
 20
65.16989999999999
 30
0.0
 11
59.835
 21
64.40989999999999
 31
0.0
  0
LINE
  5
4E
330
18
100
AcDbEntity
  8
0
100
AcDbLine
 10
58.8919
 20
65.16989999999999
 30
0.0
 11
59.2562
 21
64.40989999999999
 31
0.0
  0
LINE
  5
4F
330
18
100
AcDbEntity
  8
0
100
AcDbLine
 10
58.3131
 20
65.16989999999999
 30
0.0
 11
58.6774
 21
64.40989999999999
 31
0.0
  0
LINE
  5
50
330
18
100
AcDbEntity
  8
0
100
AcDbLine
 10
57.7343
 20
65.16989999999999
 30
0.0
 11
58.0986
 21
64.40989999999999
 31
0.0
  0
LINE
  5
51
330
18
100
AcDbEntity
  8
0
100
AcDbLine
 10
57.1555
 20
65.16989999999999
 30
0.0
 11
57.5199
 21
64.40989999999999
 31
0.0
  0
LINE
  5
52
330
18
100
AcDbEntity
  8
0
100
AcDbLine
 10
56.5767
 20
65.16989999999999
 30
0.0
 11
56.9411
 21
64.40989999999999
 31
0.0
  0
LINE
  5
53
330
18
100
AcDbEntity
  8
0
100
AcDbLine
 10
50.7886
 20
197.7709999999999
 30
0.0
 11
51.1533
 21
197.011
 31
0.0
  0
LINE
  5
54
330
18
100
AcDbEntity
  8
0
100
AcDbLine
 10
51.3676
 20
197.7709999999999
 30
0.0
 11
51.7321
 21
197.011
 31
0.0
  0
LINE
  5
55
330
18
100
AcDbEntity
  8
0
100
AcDbLine
 10
51.9463
 20
197.7709999999999
 30
0.0
 11
52.3108
 21
197.011
 31
0.0
  0
LINE
  5
56
330
18
100
AcDbEntity
  8
0
100
AcDbLine
 10
52.5251
 20
197.7709999999999
 30
0.0
 11
52.8896
 21
197.011
 31
0.0
  0
LINE
  5
57
330
18
100
AcDbEntity
  8
0
100
AcDbLine
 10
53.1039
 20
197.7709999999999
 30
0.0
 11
53.4684
 21
197.011
 31
0.0
  0
LINE
  5
58
330
18
100
AcDbEntity
  8
0
100
AcDbLine
 10
53.68269999999999
 20
197.7709999999999
 30
0.0
 11
54.0472
 21
197.011
 31
0.0
  0
LINE
  5
59
330
18
100
AcDbEntity
  8
0
100
AcDbLine
 10
54.26149999999999
 20
197.7709999999999
 30
0.0
 11
54.62600000000001
 21
197.011
 31
0.0
  0
LINE
  5
5A
330
18
100
AcDbEntity
  8
0
100
AcDbLine
 10
54.84020000000001
 20
197.7709999999999
 30
0.0
 11
55.2047
 21
197.011
 31
0.0
  0
LINE
  5
5B
330
18
100
AcDbEntity
  8
0
100
AcDbLine
 10
55.419
 20
197.7709999999999
 30
0.0
 11
55.7835
 21
197.011
 31
0.0
  0
LINE
  5
5C
330
18
100
AcDbEntity
  8
0
100
AcDbLine
 10
55.99779999999999
 20
197.7709999999999
 30
0.0
 11
56.3623
 21
197.011
 31
0.0
  0
LINE
  5
5D
330
18
100
AcDbEntity
  8
0
  6
AIGENLINE002
100
AcDbLine
 10
49.6953
 20
197.391
 30
0.0
 11
60.8644
 21
197.391
 31
0.0
  0
LINE
  5
5E
330
18
100
AcDbEntity
  8
0
100
AcDbLine
 10
50.7371
 20
197.6049999999999
 30
0.0
 11
50.1106
 21
197.391
 31
0.0
  0
LINE
  5
5F
330
18
100
AcDbEntity
  8
0
100
AcDbLine
 10
50.7371
 20
197.177
 30
0.0
 11
50.1106
 21
197.391
 31
0.0
  0
LINE
  5
60
330
18
100
AcDbEntity
  8
0
100
AcDbLine
 10
50.7371
 20
197.6049999999999
 30
0.0
 11
60.1106
 21
197.6049999999999
 31
0.0
  0
LINE
  5
61
330
18
100
AcDbEntity
  8
0
100
AcDbLine
 10
50.7371
 20
197.177
 30
0.0
 11
60.1106
 21
197.177
 31
0.0
  0
LINE
  5
62
330
18
100
AcDbEntity
  8
0
100
AcDbLine
 10
59.4706
 20
197.7709999999999
 30
0.0
 11
59.835
 21
197.011
 31
0.0
  0
LINE
  5
63
330
18
100
AcDbEntity
  8
0
100
AcDbLine
 10
58.8919
 20
197.7709999999999
 30
0.0
 11
59.2562
 21
197.011
 31
0.0
  0
LINE
  5
64
330
18
100
AcDbEntity
  8
0
100
AcDbLine
 10
58.3131
 20
197.7709999999999
 30
0.0
 11
58.6774
 21
197.011
 31
0.0
  0
LINE
  5
65
330
18
100
AcDbEntity
  8
0
100
AcDbLine
 10
57.7343
 20
197.7709999999999
 30
0.0
 11
58.0986
 21
197.011
 31
0.0
  0
LINE
  5
66
330
18
100
AcDbEntity
  8
0
100
AcDbLine
 10
57.1555
 20
197.7709999999999
 30
0.0
 11
57.5199
 21
197.011
 31
0.0
  0
LINE
  5
67
330
18
100
AcDbEntity
  8
0
100
AcDbLine
 10
56.5767
 20
197.7709999999999
 30
0.0
 11
56.9411
 21
197.011
 31
0.0
  0
LINE
  5
68
330
18
100
AcDbEntity
  8
0
100
AcDbLine
 10
50.7886
 20
193.3709999999999
 30
0.0
 11
51.1533
 21
192.6109999999999
 31
0.0
  0
LINE
  5
69
330
18
100
AcDbEntity
  8
0
100
AcDbLine
 10
51.3676
 20
193.3709999999999
 30
0.0
 11
51.7321
 21
192.6109999999999
 31
0.0
  0
LINE
  5
6A
330
18
100
AcDbEntity
  8
0
100
AcDbLine
 10
51.9463
 20
193.3709999999999
 30
0.0
 11
52.3108
 21
192.6109999999999
 31
0.0
  0
LINE
  5
6B
330
18
100
AcDbEntity
  8
0
100
AcDbLine
 10
52.5251
 20
193.3709999999999
 30
0.0
 11
52.8896
 21
192.6109999999999
 31
0.0
  0
LINE
  5
6C
330
18
100
AcDbEntity
  8
0
100
AcDbLine
 10
53.1039
 20
193.3709999999999
 30
0.0
 11
53.4684
 21
192.6109999999999
 31
0.0
  0
LINE
  5
6D
330
18
100
AcDbEntity
  8
0
100
AcDbLine
 10
53.68269999999999
 20
193.3709999999999
 30
0.0
 11
54.0472
 21
192.6109999999999
 31
0.0
  0
LINE
  5
6E
330
18
100
AcDbEntity
  8
0
100
AcDbLine
 10
54.26149999999999
 20
193.3709999999999
 30
0.0
 11
54.62600000000001
 21
192.6109999999999
 31
0.0
  0
LINE
  5
6F
330
18
100
AcDbEntity
  8
0
100
AcDbLine
 10
54.84020000000001
 20
193.3709999999999
 30
0.0
 11
55.2047
 21
192.6109999999999
 31
0.0
  0
LINE
  5
70
330
18
100
AcDbEntity
  8
0
100
AcDbLine
 10
55.419
 20
193.3709999999999
 30
0.0
 11
55.7835
 21
192.6109999999999
 31
0.0
  0
LINE
  5
71
330
18
100
AcDbEntity
  8
0
100
AcDbLine
 10
55.99779999999999
 20
193.3709999999999
 30
0.0
 11
56.3623
 21
192.6109999999999
 31
0.0
  0
LINE
  5
72
330
18
100
AcDbEntity
  8
0
  6
AIGENLINE002
100
AcDbLine
 10
49.6953
 20
192.9909999999999
 30
0.0
 11
60.8644
 21
192.9909999999999
 31
0.0
  0
LINE
  5
73
330
18
100
AcDbEntity
  8
0
100
AcDbLine
 10
50.7371
 20
193.205
 30
0.0
 11
50.1106
 21
192.9909999999999
 31
0.0
  0
LINE
  5
74
330
18
100
AcDbEntity
  8
0
100
AcDbLine
 10
50.7371
 20
192.777
 30
0.0
 11
50.1106
 21
192.9909999999999
 31
0.0
  0
LINE
  5
75
330
18
100
AcDbEntity
  8
0
100
AcDbLine
 10
50.7371
 20
193.205
 30
0.0
 11
60.1106
 21
193.205
 31
0.0
  0
LINE
  5
76
330
18
100
AcDbEntity
  8
0
100
AcDbLine
 10
50.7371
 20
192.777
 30
0.0
 11
60.1106
 21
192.777
 31
0.0
  0
LINE
  5
77
330
18
100
AcDbEntity
  8
0
100
AcDbLine
 10
59.4706
 20
193.3709999999999
 30
0.0
 11
59.835
 21
192.6109999999999
 31
0.0
  0
LINE
  5
78
330
18
100
AcDbEntity
  8
0
100
AcDbLine
 10
58.8919
 20
193.3709999999999
 30
0.0
 11
59.2562
 21
192.6109999999999
 31
0.0
  0
LINE
  5
79
330
18
100
AcDbEntity
  8
0
100
AcDbLine
 10
58.3131
 20
193.3709999999999
 30
0.0
 11
58.6774
 21
192.6109999999999
 31
0.0
  0
LINE
  5
7A
330
18
100
AcDbEntity
  8
0
100
AcDbLine
 10
57.7343
 20
193.3709999999999
 30
0.0
 11
58.0986
 21
192.6109999999999
 31
0.0
  0
LINE
  5
7B
330
18
100
AcDbEntity
  8
0
100
AcDbLine
 10
57.1555
 20
193.3709999999999
 30
0.0
 11
57.5199
 21
192.6109999999999
 31
0.0
  0
LINE
  5
7C
330
18
100
AcDbEntity
  8
0
100
AcDbLine
 10
56.5767
 20
193.3709999999999
 30
0.0
 11
56.9411
 21
192.6109999999999
 31
0.0
  0
LINE
  5
7D
330
18
100
AcDbEntity
  8
0
100
AcDbLine
 10
116.9079999999999
 20
234.942
 30
0.0
 11
116.148
 21
234.5769999999999
 31
0.0
  0
LINE
  5
7E
330
18
100
AcDbEntity
  8
0
100
AcDbLine
 10
116.9079999999999
 20
234.363
 30
0.0
 11
116.148
 21
233.998
 31
0.0
  0
LINE
  5
7F
330
18
100
AcDbEntity
  8
0
100
AcDbLine
 10
116.9079999999999
 20
233.784
 30
0.0
 11
116.148
 21
233.4189999999999
 31
0.0
  0
LINE
  5
80
330
18
100
AcDbEntity
  8
0
100
AcDbLine
 10
116.9079999999999
 20
233.205
 30
0.0
 11
116.148
 21
232.8409999999999
 31
0.0
  0
LINE
  5
81
330
18
100
AcDbEntity
  8
0
100
AcDbLine
 10
116.9079999999999
 20
232.6259999999999
 30
0.0
 11
116.148
 21
232.262
 31
0.0
  0
LINE
  5
82
330
18
100
AcDbEntity
  8
0
100
AcDbLine
 10
116.9079999999999
 20
232.0479999999999
 30
0.0
 11
116.148
 21
231.6829999999999
 31
0.0
  0
LINE
  5
83
330
18
100
AcDbEntity
  8
0
100
AcDbLine
 10
116.9079999999999
 20
231.469
 30
0.0
 11
116.148
 21
231.104
 31
0.0
  0
LINE
  5
84
330
18
100
AcDbEntity
  8
0
100
AcDbLine
 10
116.9079999999999
 20
230.8899999999999
 30
0.0
 11
116.148
 21
230.526
 31
0.0
  0
LINE
  5
85
330
18
100
AcDbEntity
  8
0
100
AcDbLine
 10
116.9079999999999
 20
230.3109999999999
 30
0.0
 11
116.148
 21
229.9469999999999
 31
0.0
  0
LINE
  5
86
330
18
100
AcDbEntity
  8
0
100
AcDbLine
 10
116.9079999999999
 20
229.732
 30
0.0
 11
116.148
 21
229.368
 31
0.0
  0
LINE
  5
87
330
18
100
AcDbEntity
  8
0
  6
AIGENLINE002
100
AcDbLine
 10
116.5289999999999
 20
236.0349999999999
 30
0.0
 11
116.5289999999999
 21
224.866
 31
0.0
  0
LINE
  5
88
330
18
100
AcDbEntity
  8
0
100
AcDbLine
 10
116.7429999999999
 20
234.993
 30
0.0
 11
116.5289999999999
 21
235.62
 31
0.0
  0
LINE
  5
89
330
18
100
AcDbEntity
  8
0
100
AcDbLine
 10
116.314
 20
234.993
 30
0.0
 11
116.5289999999999
 21
235.62
 31
0.0
  0
LINE
  5
8A
330
18
100
AcDbEntity
  8
0
100
AcDbLine
 10
116.7429999999999
 20
234.993
 30
0.0
 11
116.7429999999999
 21
225.62
 31
0.0
  0
LINE
  5
8B
330
18
100
AcDbEntity
  8
0
100
AcDbLine
 10
116.314
 20
234.993
 30
0.0
 11
116.314
 21
225.62
 31
0.0
  0
LINE
  5
8C
330
18
100
AcDbEntity
  8
0
100
AcDbLine
 10
116.9079999999999
 20
226.2599999999999
 30
0.0
 11
116.148
 21
225.895
 31
0.0
  0
LINE
  5
8D
330
18
100
AcDbEntity
  8
0
100
AcDbLine
 10
116.9079999999999
 20
226.838
 30
0.0
 11
116.148
 21
226.474
 31
0.0
  0
LINE
  5
8E
330
18
100
AcDbEntity
  8
0
100
AcDbLine
 10
116.9079999999999
 20
227.417
 30
0.0
 11
116.148
 21
227.0529999999999
 31
0.0
  0
LINE
  5
8F
330
18
100
AcDbEntity
  8
0
100
AcDbLine
 10
116.9079999999999
 20
227.9959999999999
 30
0.0
 11
116.148
 21
227.632
 31
0.0
  0
LINE
  5
90
330
18
100
AcDbEntity
  8
0
100
AcDbLine
 10
116.9079999999999
 20
228.5749999999999
 30
0.0
 11
116.148
 21
228.21
 31
0.0
  0
LINE
  5
91
330
18
100
AcDbEntity
  8
0
100
AcDbLine
 10
116.9079999999999
 20
229.154
 30
0.0
 11
116.148
 21
228.789
 31
0.0
  0
LINE
  5
92
330
18
100
AcDbEntity
  8
0
100
AcDbLine
 10
160.0119999999999
 20
236.2179999999999
 30
0.0
 11
124.445
 21
236.2179999999999
 31
0.0
  0
LINE
  5
93
330
18
100
AcDbEntity
  8
0
100
AcDbLine
 10
118.2839999999999
 20
232.14
 30
0.0
 11
116.9079999999999
 21
230.3109999999999
 31
0.0
  0
LINE
  5
94
330
18
100
AcDbEntity
  8
0
100
AcDbLine
 10
116.9079999999999
 20
230.3109999999999
 30
0.0
 11
119.015
 21
231.2069999999999
 31
0.0
  0
LINE
  5
95
330
18
100
AcDbEntity
  8
0
100
AcDbLine
 10
119.015
 20
231.2069999999999
 30
0.0
 11
118.2839999999999
 21
232.14
 31
0.0
  0
LINE
  5
96
330
18
100
AcDbEntity
  8
0
100
AcDbLine
 10
124.445
 20
236.2179999999999
 30
0.0
 11
116.904
 21
230.317
 31
0.0
  0
LINE
  5
97
330
18
100
AcDbEntity
  8
0
100
AcDbLine
 10
73.3109
 20
198.8909999999999
 30
0.0
 11
60.1106
 21
198.8909999999999
 31
0.0
  0
LINE
  5
98
330
18
100
AcDbEntity
  8
0
  6
AIGENLINE001
100
AcDbLine
 10
116.3779999999999
 20
193.4409999999999
 30
0.0
 11
116.6789999999999
 21
193.4409999999999
 31
0.0
  0
LINE
  5
99
330
18
100
AcDbEntity
  8
0
100
AcDbLine
 10
116.3779999999999
 20
192.541
 30
0.0
 11
116.6789999999999
 21
192.541
 31
0.0
  0
ARC
  5
9A
330
18
100
AcDbEntity
  8
0
  6
AIGENLINE001
100
AcDbCircle
 10
116.3954149999999
 20
193.0079399999999
 30
0.0
 40
0.4671890000000001
100
AcDbArc
 50
182.1002329999999
 51
267.9217359999999
  0
ARC
  5
9B
330
18
100
AcDbEntity
  8
0
  6
AIGENLINE001
100
AcDbCircle
 10
116.396035
 20
192.9736139999999
 30
0.0
 40
0.4678110000000001
100
AcDbArc
 50
92.15147800000002
 51
177.892346
  0
ARC
  5
9C
330
18
100
AcDbEntity
  8
0
  6
AIGENLINE001
100
AcDbCircle
 10
116.661835
 20
192.9741229999999
 30
0.0
 40
0.4672830000000001
100
AcDbArc
 50
2.047463999999999
 51
87.90867099999999
  0
ARC
  5
9D
330
18
100
AcDbEntity
  8
0
  6
AIGENLINE001
100
AcDbCircle
 10
116.661813
 20
193.008071
 30
0.0
 40
0.467325
100
AcDbArc
 50
272.093818
 51
357.884252
  0
LINE
  5
9E
330
18
100
AcDbEntity
  8
0
  6
AIGENLINE002
100
AcDbLine
 10
115.471
 20
192.9909999999999
 30
0.0
 11
117.576
 21
192.9909999999999
 31
0.0
  0
LINE
  5
9F
330
18
100
AcDbEntity
  8
0
  6
AIGENLINE002
100
AcDbLine
 10
116.5289999999999
 20
194.2309999999999
 30
0.0
 11
116.5289999999999
 21
191.903
 31
0.0
  0
LINE
  5
A0
330
18
100
AcDbEntity
  8
0
  6
AIGENLINE001
100
AcDbLine
 10
116.979
 20
197.541
 30
0.0
 11
116.979
 21
197.2409999999999
 31
0.0
  0
LINE
  5
A1
330
18
100
AcDbEntity
  8
0
100
AcDbLine
 10
116.0789999999999
 20
197.541
 30
0.0
 11
116.0789999999999
 21
197.2409999999999
 31
0.0
  0
ARC
  5
A2
330
18
100
AcDbEntity
  8
0
  6
AIGENLINE001
100
AcDbCircle
 10
116.5458889999999
 20
197.5235749999999
 30
0.0
 40
0.4674590000000001
100
AcDbArc
 50
92.10980300000001
 51
177.8901669999999
  0
ARC
  5
A3
330
18
100
AcDbEntity
  8
0
  6
AIGENLINE001
100
AcDbCircle
 10
116.51199
 20
197.5240949999999
 30
0.0
 40
0.46692
100
AcDbArc
 50
2.048404999999999
 51
87.95158499999999
  0
ARC
  5
A4
330
18
100
AcDbEntity
  8
0
  6
AIGENLINE001
100
AcDbCircle
 10
116.511409
 20
197.257986
 30
0.0
 40
0.4675220000000001
100
AcDbArc
 50
272.1170829999999
 51
357.882927
  0
ARC
  5
A5
330
18
100
AcDbEntity
  8
0
  6
AIGENLINE001
100
AcDbCircle
 10
116.545635
 20
197.2576699999999
 30
0.0
 40
0.467195
100
AcDbArc
 50
182.079762
 51
267.920268
  0
LINE
  5
A6
330
18
100
AcDbEntity
  8
0
  6
AIGENLINE002
100
AcDbLine
 10
116.5289999999999
 20
198.449
 30
0.0
 11
116.5289999999999
 21
196.344
 31
0.0
  0
LINE
  5
A7
330
18
100
AcDbEntity
  8
0
  6
AIGENLINE002
100
AcDbLine
 10
117.7679999999999
 20
197.391
 30
0.0
 11
115.44
 21
197.391
 31
0.0
  0
LINE
  5
A8
330
18
100
AcDbEntity
  8
0
100
AcDbLine
 10
128.532
 20
62.5792
 30
0.0
 11
127.94
 21
64.7899
 31
0.0
  0
LINE
  5
A9
330
18
100
AcDbEntity
  8
0
100
AcDbLine
 10
127.94
 20
64.7899
 30
0.0
 11
127.3479999999999
 21
62.5792
 31
0.0
  0
LINE
  5
AA
330
18
100
AcDbEntity
  8
0
100
AcDbLine
 10
127.3479999999999
 20
62.5792
 30
0.0
 11
128.532
 21
62.5792
 31
0.0
  0
LINE
  5
AB
330
18
100
AcDbEntity
  8
0
100
AcDbLine
 10
127.362
 20
71.4001
 30
0.0
 11
127.9539999999999
 21
69.1893
 31
0.0
  0
LINE
  5
AC
330
18
100
AcDbEntity
  8
0
100
AcDbLine
 10
127.9539999999999
 20
69.1893
 30
0.0
 11
128.5469999999999
 21
71.4001
 31
0.0
  0
LINE
  5
AD
330
18
100
AcDbEntity
  8
0
100
AcDbLine
 10
128.5469999999999
 20
71.4001
 30
0.0
 11
127.362
 21
71.4001
 31
0.0
  0
LINE
  5
AE
330
18
100
AcDbEntity
  8
0
100
AcDbLine
 10
127.94
 20
72.25
 30
0.0
 11
127.94
 21
61.16839999999999
 31
0.0
  0
LINE
  5
AF
330
18
100
AcDbEntity
  8
0
  6
AIGENLINE001
100
AcDbLine
 10
116.979
 20
64.9398
 30
0.0
 11
116.979
 21
64.6397
 31
0.0
  0
LINE
  5
B0
330
18
100
AcDbEntity
  8
0
100
AcDbLine
 10
116.0789999999999
 20
64.9398
 30
0.0
 11
116.0789999999999
 21
64.6397
 31
0.0
  0
ARC
  5
B1
330
18
100
AcDbEntity
  8
0
  6
AIGENLINE001
100
AcDbCircle
 10
116.5459
 20
64.92255199999999
 30
0.0
 40
0.467469
100
AcDbArc
 50
92.11100900000001
 51
177.888962
  0
ARC
  5
B2
330
18
100
AcDbEntity
  8
0
  6
AIGENLINE001
100
AcDbCircle
 10
116.512011
 20
64.923102
 30
0.0
 40
0.4668989999999999
100
AcDbArc
 50
2.045981999999999
 51
87.95400800000001
  0
ARC
  5
B3
330
18
100
AcDbEntity
  8
0
  6
AIGENLINE001
100
AcDbCircle
 10
116.5114399999999
 20
64.656942
 30
0.0
 40
0.467491
100
AcDbArc
 50
272.1134579999999
 51
357.8865519999999
  0
ARC
  5
B4
330
18
100
AcDbEntity
  8
0
  6
AIGENLINE001
100
AcDbCircle
 10
116.545767
 20
64.656789
 30
0.0
 40
0.467332
100
AcDbArc
 50
182.095399
 51
267.9046309999999
  0
LINE
  5
B5
330
18
100
AcDbEntity
  8
0
  6
AIGENLINE002
100
AcDbLine
 10
116.5289999999999
 20
65.8476
 30
0.0
 11
116.5289999999999
 21
63.7426
 31
0.0
  0
LINE
  5
B6
330
18
100
AcDbEntity
  8
0
100
AcDbLine
 10
128.6399999999999
 20
64.7899
 30
0.0
 11
118.5189999999999
 21
64.7899
 31
0.0
  0
LINE
  5
B7
330
18
100
AcDbEntity
  8
0
100
AcDbLine
 10
128.6399999999999
 20
69.19
 30
0.0
 11
118.5189999999999
 21
69.19
 31
0.0
  0
LINE
  5
B8
330
18
100
AcDbEntity
  8
0
  6
AIGENLINE002
100
AcDbLine
 10
117.7679999999999
 20
64.7899
 30
0.0
 11
115.44
 21
64.7899
 31
0.0
  0
LINE
  5
B9
330
18
100
AcDbEntity
  8
0
  6
AIGENLINE001
100
AcDbLine
 10
116.3779999999999
 20
69.63989999999999
 30
0.0
 11
116.6789999999999
 21
69.63989999999999
 31
0.0
  0
LINE
  5
BA
330
18
100
AcDbEntity
  8
0
100
AcDbLine
 10
116.3779999999999
 20
68.7401
 30
0.0
 11
116.6789999999999
 21
68.7401
 31
0.0
  0
ARC
  5
BB
330
18
100
AcDbEntity
  8
0
  6
AIGENLINE001
100
AcDbCircle
 10
116.3955599999999
 20
69.20709999999999
 30
0.0
 40
0.467332
100
AcDbArc
 50
182.095399
 51
267.9046309999999
  0
ARC
  5
BC
330
18
100
AcDbEntity
  8
0
  6
AIGENLINE001
100
AcDbCircle
 10
116.3956919999999
 20
69.172793
 30
0.0
 40
0.467469
100
AcDbArc
 50
92.11100900000001
 51
177.888962
  0
ARC
  5
BD
330
18
100
AcDbEntity
  8
0
  6
AIGENLINE001
100
AcDbCircle
 10
116.661962
 20
69.173088
 30
0.0
 40
0.467164
100
AcDbArc
 50
2.076241
 51
87.923749
  0
ARC
  5
BE
330
18
100
AcDbEntity
  8
0
  6
AIGENLINE001
100
AcDbCircle
 10
116.661667
 20
69.20723199999999
 30
0.0
 40
0.467469
100
AcDbArc
 50
272.1110459999999
 51
357.8889639999999
  0
LINE
  5
BF
330
18
100
AcDbEntity
  8
0
  6
AIGENLINE002
100
AcDbLine
 10
115.471
 20
69.19
 30
0.0
 11
117.576
 21
69.19
 31
0.0
  0
LINE
  5
C0
330
18
100
AcDbEntity
  8
0
  6
AIGENLINE002
100
AcDbLine
 10
116.5289999999999
 20
70.42959999999999
 30
0.0
 11
116.5289999999999
 21
68.1014
 31
0.0
  0
LINE
  5
C1
330
18
100
AcDbEntity
  8
0
100
AcDbLine
 10
120.3289999999999
 20
70.68999999999999
 30
0.0
 11
112.729
 21
70.68999999999999
 31
0.0
  0
LINE
  5
C2
330
18
100
AcDbEntity
  8
0
100
AcDbLine
 10
136.3499999999999
 20
63.28990000000001
 30
0.0
 11
121.4089999999999
 21
63.28990000000001
 31
0.0
  0
LINE
  5
C3
330
18
100
AcDbEntity
  8
0
100
AcDbLine
 10
60.1106
 20
54.8769
 30
0.0
 11
60.1106
 21
62.5427
 31
0.0
  0
LINE
  5
C4
330
18
100
AcDbEntity
  8
0
100
AcDbLine
 10
73.3109
 20
54.7832
 30
0.0
 11
73.3109
 21
62.5055
 31
0.0
  0
LINE
  5
C5
330
18
100
AcDbEntity
  8
0
100
AcDbLine
 10
62.321
 20
55.8147
 30
0.0
 11
60.1106
 21
55.2221
 31
0.0
  0
LINE
  5
C6
330
18
100
AcDbEntity
  8
0
100
AcDbLine
 10
60.1106
 20
55.2221
 30
0.0
 11
62.321
 21
54.63029999999999
 31
0.0
  0
LINE
  5
C7
330
18
100
AcDbEntity
  8
0
100
AcDbLine
 10
62.321
 20
54.63029999999999
 30
0.0
 11
62.321
 21
55.8147
 31
0.0
  0
LINE
  5
C8
330
18
100
AcDbEntity
  8
0
100
AcDbLine
 10
71.0998
 20
54.6447
 30
0.0
 11
73.3109
 21
55.2366
 31
0.0
  0
LINE
  5
C9
330
18
100
AcDbEntity
  8
0
100
AcDbLine
 10
73.3109
 20
55.2366
 30
0.0
 11
71.0998
 21
55.8292
 31
0.0
  0
LINE
  5
CA
330
18
100
AcDbEntity
  8
0
100
AcDbLine
 10
71.0998
 20
55.8292
 30
0.0
 11
71.0998
 21
54.6447
 31
0.0
  0
LINE
  5
CB
330
18
100
AcDbEntity
  8
0
100
AcDbLine
 10
60.1106
 20
55.2297
 30
0.0
 11
73.3109
 21
55.2297
 31
0.0
  0
LINE
  5
CC
330
18
100
AcDbEntity
  8
0
100
AcDbLine
 10
72.1106
 20
197.6909999999999
 30
0.0
 11
60.1106
 21
197.6909999999999
 31
0.0
  0
LINE
  5
CD
330
18
100
AcDbEntity
  8
0
100
AcDbLine
 10
60.1106
 20
191.4909999999999
 30
0.0
 11
60.1106
 21
198.8909999999999
 31
0.0
  0
LINE
  5
CE
330
18
100
AcDbEntity
  8
0
100
AcDbLine
 10
73.3109
 20
191.4909999999999
 30
0.0
 11
60.1106
 21
191.4909999999999
 31
0.0
  0
LINE
  5
CF
330
18
100
AcDbEntity
  8
0
100
AcDbLine
 10
120.3289999999999
 20
54.4435
 30
0.0
 11
120.3289999999999
 21
62.7221
 31
0.0
  0
LINE
  5
D0
330
18
100
AcDbEntity
  8
0
100
AcDbLine
 10
112.729
 20
54.4435
 30
0.0
 11
112.729
 21
62.7221
 31
0.0
  0
LINE
  5
D1
330
18
100
AcDbEntity
  8
0
100
AcDbLine
 10
114.9389999999999
 20
55.4784
 30
0.0
 11
112.729
 21
54.8862
 31
0.0
  0
LINE
  5
D2
330
18
100
AcDbEntity
  8
0
100
AcDbLine
 10
112.729
 20
54.8862
 30
0.0
 11
114.9389999999999
 21
54.294
 31
0.0
  0
LINE
  5
D3
330
18
100
AcDbEntity
  8
0
100
AcDbLine
 10
114.9389999999999
 20
54.294
 30
0.0
 11
114.9389999999999
 21
55.4784
 31
0.0
  0
LINE
  5
D4
330
18
100
AcDbEntity
  8
0
100
AcDbLine
 10
118.1179999999999
 20
54.3085
 30
0.0
 11
120.3289999999999
 21
54.9007
 31
0.0
  0
LINE
  5
D5
330
18
100
AcDbEntity
  8
0
100
AcDbLine
 10
120.3289999999999
 20
54.9007
 30
0.0
 11
118.1179999999999
 21
55.4929
 31
0.0
  0
LINE
  5
D6
330
18
100
AcDbEntity
  8
0
100
AcDbLine
 10
118.1179999999999
 20
55.4929
 30
0.0
 11
118.1179999999999
 21
54.3085
 31
0.0
  0
LINE
  5
D7
330
18
100
AcDbEntity
  8
0
100
AcDbLine
 10
112.729
 20
54.8935
 30
0.0
 11
120.3289999999999
 21
54.8935
 31
0.0
  0
LINE
  5
D8
330
18
100
AcDbEntity
  8
0
100
AcDbLine
 10
112.729
 20
63.28990000000001
 30
0.0
 11
120.3289999999999
 21
63.28990000000001
 31
0.0
  0
LINE
  5
D9
330
18
100
AcDbEntity
  8
0
100
AcDbLine
 10
136.3499999999999
 20
198.8909999999999
 30
0.0
 11
121.4089999999999
 21
198.8909999999999
 31
0.0
  0
LINE
  5
DA
330
18
100
AcDbEntity
  8
0
100
AcDbLine
 10
134.982
 20
196.68
 30
0.0
 11
135.5739999999999
 21
198.8909999999999
 31
0.0
  0
LINE
  5
DB
330
18
100
AcDbEntity
  8
0
100
AcDbLine
 10
135.5739999999999
 20
198.8909999999999
 30
0.0
 11
136.1669999999999
 21
196.68
 31
0.0
  0
LINE
  5
DC
330
18
100
AcDbEntity
  8
0
100
AcDbLine
 10
136.1669999999999
 20
196.68
 30
0.0
 11
134.982
 21
196.68
 31
0.0
  0
LINE
  5
DD
330
18
100
AcDbEntity
  8
0
100
AcDbLine
 10
136.152
 20
65.50060000000001
 30
0.0
 11
135.56
 21
63.28990000000001
 31
0.0
  0
LINE
  5
DE
330
18
100
AcDbEntity
  8
0
100
AcDbLine
 10
135.56
 20
63.28990000000001
 30
0.0
 11
134.9679999999999
 21
65.50060000000001
 31
0.0
  0
LINE
  5
DF
330
18
100
AcDbEntity
  8
0
100
AcDbLine
 10
134.9679999999999
 20
65.50060000000001
 30
0.0
 11
136.152
 21
65.50060000000001
 31
0.0
  0
LINE
  5
E0
330
18
100
AcDbEntity
  8
0
100
AcDbLine
 10
135.567
 20
198.8909999999999
 30
0.0
 11
135.567
 21
63.28990000000001
 31
0.0
  0
LINE
  5
E1
330
18
100
AcDbEntity
  8
0
100
AcDbLine
 10
120.3289999999999
 20
225.62
 30
0.0
 11
120.3289999999999
 21
212.42
 31
0.0
  0
LINE
  5
E2
330
18
100
AcDbEntity
  8
0
100
AcDbLine
 10
112.729
 20
225.62
 30
0.0
 11
112.729
 21
212.42
 31
0.0
  0
LINE
  5
E3
330
18
100
AcDbEntity
  8
0
100
AcDbLine
 10
112.729
 20
225.62
 30
0.0
 11
120.3289999999999
 21
225.62
 31
0.0
  0
LINE
  5
E4
330
18
100
AcDbEntity
  8
0
100
AcDbLine
 10
112.729
 20
212.42
 30
0.0
 11
120.3289999999999
 21
212.42
 31
0.0
  0
LINE
  5
E5
330
18
100
AcDbEntity
  8
0
100
AcDbLine
 10
112.729
 20
191.4909999999999
 30
0.0
 11
120.3289999999999
 21
191.4909999999999
 31
0.0
  0
LINE
  5
E6
330
18
100
AcDbEntity
  8
0
100
AcDbLine
 10
120.3289999999999
 20
198.8909999999999
 30
0.0
 11
112.729
 21
198.8909999999999
 31
0.0
  0
LINE
  5
E7
330
18
100
AcDbEntity
  8
0
100
AcDbLine
 10
112.729
 20
198.8909999999999
 30
0.0
 11
112.729
 21
63.28990000000001
 31
0.0
  0
LINE
  5
E8
330
18
100
AcDbEntity
  8
0
100
AcDbLine
 10
120.3289999999999
 20
198.8909999999999
 30
0.0
 11
120.3289999999999
 21
63.28990000000001
 31
0.0
  0
LINE
  5
E9
330
18
100
AcDbEntity
  8
0
100
AcDbLine
 10
72.1106
 20
64.4898
 30
0.0
 11
60.1106
 21
64.4898
 31
0.0
  0
LINE
  5
EA
330
18
100
AcDbEntity
  8
0
100
AcDbLine
 10
60.1106
 20
70.6904
 30
0.0
 11
60.1106
 21
63.29019999999999
 31
0.0
  0
LINE
  5
EB
330
18
100
AcDbEntity
  8
0
100
AcDbLine
 10
73.3109
 20
70.6904
 30
0.0
 11
60.1106
 21
70.6904
 31
0.0
  0
LINE
  5
EC
330
18
100
AcDbEntity
  8
0
100
AcDbLine
 10
73.3109
 20
63.29019999999999
 30
0.0
 11
60.1106
 21
63.29019999999999
 31
0.0
  0
LINE
  5
ED
330
18
100
AcDbEntity
  8
0
100
AcDbLine
 10
72.1106
 20
64.4898
 30
0.0
 11
72.1106
 21
197.6909999999999
 31
0.0
  0
LINE
  5
EE
330
18
100
AcDbEntity
  8
0
100
AcDbLine
 10
73.3109
 20
63.29019999999999
 30
0.0
 11
73.3109
 21
198.8909999999999
 31
0.0
  0
LINE
  5
EF
330
18
100
AcDbEntity
  8
_________2
100
AcDbLine
 10
205.301
 20
127.411
 30
0.0
 11
183.551
 21
127.411
 31
0.0
  0
LINE
  5
F0
330
18
100
AcDbEntity
  8
_________2
100
AcDbLine
 10
100.2999999999999
 20
-4.09108
 30
0.0
 11
100.2999999999999
 21
-21.07099999999999
 31
0.0
  0
LINE
  5
F1
330
18
100
AcDbEntity
  8
_________2
100
AcDbLine
 10
100.2999999999999
 20
275.9309999999999
 30
0.0
 11
100.2999999999999
 21
258.911
 31
0.0
  0
LINE
  5
F2
330
18
100
AcDbEntity
  8
_________2
100
AcDbLine
 10
17.04939999999999
 20
127.411
 30
0.0
 11
-4.70103
 21
127.411
 31
0.0
  0
LINE
  5
F3
330
18
100
AcDbEntity
  8
_________2
100
AcDbLine
 10
76.7408
 20
29.8047
 30
0.0
 11
74.55459999999999
 21
29.8047
 31
0.0
  0
LINE
  5
F4
330
18
100
AcDbEntity
  8
_________2
100
AcDbLine
 10
77.2335
 20
29.8047
 30
0.0
 11
76.9813
 21
29.8047
 31
0.0
  0
LINE
  5
F5
330
18
100
AcDbEntity
  8
_________2
100
AcDbLine
 10
77.7262
 20
29.8047
 30
0.0
 11
80.6511
 21
29.8047
 31
0.0
  0
LINE
  5
F6
330
18
100
AcDbEntity
  8
_________2
100
AcDbLine
 10
77.2335
 20
29.8047
 30
0.0
 11
77.48569999999999
 21
29.8047
 31
0.0
  0
LINE
  5
F7
330
18
100
AcDbEntity
  8
_________2
100
AcDbLine
 10
70.8373
 20
29.8047
 30
0.0
 11
68.6503
 21
29.8047
 31
0.0
  0
LINE
  5
F8
330
18
100
AcDbEntity
  8
_________2
100
AcDbLine
 10
71.3293
 20
29.8047
 30
0.0
 11
71.07779999999999
 21
29.8047
 31
0.0
  0
LINE
  5
F9
330
18
100
AcDbEntity
  8
_________2
100
AcDbLine
 10
71.3293
 20
30.2974
 30
0.0
 11
71.3293
 21
32.4844
 31
0.0
  0
LINE
  5
FA
330
18
100
AcDbEntity
  8
_________2
100
AcDbLine
 10
71.3293
 20
29.8047
 30
0.0
 11
71.3293
 21
30.0573
 31
0.0
  0
LINE
  5
FB
330
18
100
AcDbEntity
  8
_________2
100
AcDbLine
 10
71.8219
 20
29.8047
 30
0.0
 11
74.0089
 21
29.8047
 31
0.0
  0
LINE
  5
FC
330
18
100
AcDbEntity
  8
_________2
100
AcDbLine
 10
71.3293
 20
29.8047
 30
0.0
 11
71.5814
 21
29.8047
 31
0.0
  0
LINE
  5
FD
330
18
100
AcDbEntity
  8
_________2
100
AcDbLine
 10
71.3293
 20
29.3128
 30
0.0
 11
71.3293
 21
27.1262
 31
0.0
  0
LINE
  5
FE
330
18
100
AcDbEntity
  8
_________2
100
AcDbLine
 10
71.3293
 20
29.8047
 30
0.0
 11
71.3293
 21
29.5532
 31
0.0
  0
LINE
  5
FF
330
18
100
AcDbEntity
  8
_________2
100
AcDbLine
 10
75.0403
 20
28.5852
 30
0.0
 11
80.21829999999999
 21
27.7204
 31
0.0
  0
LINE
  5
100
330
18
100
AcDbEntity
  8
_________2
100
AcDbLine
 10
75.0403
 20
31.0247
 30
0.0
 11
80.21829999999999
 21
31.8901
 31
0.0
  0
LINE
  5
101
330
18
100
AcDbEntity
  8
_________2
100
AcDbLine
 10
80.21829999999999
 20
27.7204
 30
0.0
 11
80.21829999999999
 21
31.8901
 31
0.0
  0
LINE
  5
102
330
18
100
AcDbEntity
  8
_________2
100
AcDbLine
 10
75.0403
 20
28.5852
 30
0.0
 11
75.0403
 21
31.0247
 31
0.0
  0
ARC
  5
103
330
18
100
AcDbEntity
  8
_________2
100
AcDbCircle
 10
71.282674
 20
29.757801
 30
0.0
 40
1.267714
100
AcDbArc
 50
2.122084
 51
87.89408399999999
  0
ARC
  5
104
330
18
100
AcDbEntity
  8
_________2
100
AcDbCircle
 10
71.37581299999999
 20
29.758546
 30
0.0
 40
1.266968
100
AcDbArc
 50
92.10578299999999
 51
177.91037
  0
ARC
  5
105
330
18
100
AcDbEntity
  8
_________2
100
AcDbCircle
 10
71.376186
 20
29.851671
 30
0.0
 40
1.267368
100
AcDbArc
 50
182.122036
 51
267.877993
  0
ARC
  5
106
330
18
100
AcDbEntity
  8
_________2
100
AcDbCircle
 10
71.28236899999999
 20
29.852348
 30
0.0
 40
1.268043999999999
100
AcDbArc
 50
272.119164
 51
357.8484849999999
  0
ARC
  5
107
330
18
100
AcDbEntity
  8
_________2
100
AcDbCircle
 10
71.24889
 20
29.72473199999999
 30
0.0
 40
2.166831
100
AcDbArc
 50
2.116143999999999
 51
87.874379
  0
ARC
  5
108
330
18
100
AcDbEntity
  8
_________2
100
AcDbCircle
 10
71.408928
 20
29.726146
 30
0.0
 40
2.165392999999999
100
AcDbArc
 50
92.108509
 51
177.919865
  0
ARC
  5
109
330
18
100
AcDbEntity
  8
_________2
100
AcDbCircle
 10
71.409267
 20
29.884752
 30
0.0
 40
2.165783
100
AcDbArc
 50
182.117133
 51
267.882897
  0
ARC
  5
10A
330
18
100
AcDbEntity
  8
_________2
100
AcDbCircle
 10
71.24928699999999
 20
29.88542999999999
 30
0.0
 40
2.166459
100
AcDbArc
 50
272.115468
 51
357.865604
  0
TEXT
  5
10B
330
18
100
AcDbEntity
  8
_________2
100
AcDbText
 10
104.605
 20
1.67949
 30
0.0
 40
3.09234
  1
図番
 41
0.5
100
AcDbText
  0
LINE
  5
10C
330
18
100
AcDbEntity
  8
_________2
100
AcDbLine
 10
103.55
 20
5.908719999999999
 30
0.0
 11
183.551
 21
5.908719999999999
 31
0.0
  0
TEXT
  5
10D
330
18
100
AcDbEntity
  8
_________2
100
AcDbText
 10
104.605
 20
11.67929999999999
 30
0.0
 40
3.09234
  1
品番
 41
0.5
100
AcDbText
  0
TEXT
  5
10E
330
18
100
AcDbEntity
  8
_________2
100
AcDbText
 10
104.605
 20
31.8184
 30
0.0
 40
3.09234
  1
名称
 41
0.5
100
AcDbText
  0
TEXT
  5
10F
330
18
100
AcDbEntity
  8
_________2
100
AcDbText
 10
91.84495833333334
 20
26.8223
 30
0.0
 40
3.65458
  1
mm
 41
0.5
 72
     1
 11
93.36769999999999
 21
26.8223
 31
0.0
100
AcDbText
  0
TEXT
  5
110
330
18
100
AcDbEntity
  8
_________2
100
AcDbText
 10
85.64299999999999
 20
31.8184
 30
0.0
 40
3.09234
  1
単位
 41
0.5
100
AcDbText
  0
TEXT
  5
111
330
18
100
AcDbEntity
  8
_________2
100
AcDbText
 10
85.64299999999999
 20
19.41079999999999
 30
0.0
 40
3.09234
  1
尺度
 41
0.5
100
AcDbText
  0
TEXT
  5
112
330
18
100
AcDbEntity
  8
_________2
100
AcDbText
 10
90.54855866666668
 20
13.21819999999999
 30
0.0
 40
3.65458
  1
1 ： 5
 41
0.5
 72
     1
 11
93.9595
 21
13.21819999999999
 31
0.0
100
AcDbText
  0
TEXT
  5
113
330
18
100
AcDbEntity
  8
_________2
100
AcDbText
 10
136.1705625
 20
9.1082
 30
0.0
 40
3.9357
  1
EC.S1760R
 41
0.5
 72
     1
 11
143.55
 21
9.1082
 31
0.0
100
AcDbText
  0
TEXT
  5
114
330
18
100
AcDbEntity
  8
_________2
100
AcDbText
 10
136.4985375
 20
-0.8926299999999999
 30
0.0
 40
3.9357
  1
ECS1760R
 41
0.5
 72
     1
 11
143.55
 21
-0.8926299999999999
 31
0.0
100
AcDbText
  0
TEXT
  5
115
330
18
100
AcDbEntity
  8
_________2
100
AcDbText
 10
109.179
 20
24.2261
 30
0.0
 40
3.9357
  1
タオルバー
 41
0.5
100
AcDbText
  0
TEXT
  5
116
330
18
100
AcDbEntity
  8
_________2
100
AcDbText
 10
39.303281
 20
13.6034
 30
0.0
 40
3.65458
  1
田尻
 41
0.5
 72
     1
 11
41.3133
 21
13.6034
 31
0.0
100
AcDbText
  0
TEXT
  5
117
330
18
100
AcDbEntity
  8
_________2
100
AcDbText
 10
20.79019066666667
 20
13.6034
 30
0.0
 40
3.65458
  1
石原
 41
0.5
 72
     1
 11
22.7393
 21
13.6034
 31
0.0
100
AcDbText
  0
TEXT
  5
118
330
18
100
AcDbEntity
  8
_________2
100
AcDbText
 10
67.7856
 20
13.21819999999999
 30
0.0
 40
3.65458
  1
09.07.15
 41
0.5
100
AcDbText
  0
TEXT
  5
119
330
18
100
AcDbEntity
  8
_________2
100
AcDbText
 10
66.5929
 20
19.41079999999999
 30
0.0
 40
3.09234
  1
日付
 41
0.5
100
AcDbText
  0
TEXT
  5
11A
330
18
100
AcDbEntity
  8
_________2
100
AcDbText
 10
29.63919999999999
 20
19.41079999999999
 30
0.0
 40
3.09234
  1
検図
 41
0.5
100
AcDbText
  0
TEXT
  5
11B
330
18
100
AcDbEntity
  8
_________2
100
AcDbText
 10
18.0209
 20
5.21143
 30
0.0
 40
3.09234
  1
備考
 41
0.5
100
AcDbText
  0
TEXT
  5
11C
330
18
100
AcDbEntity
  8
_________2
100
AcDbText
 10
18.0209
 20
19.41079999999999
 30
0.0
 40
3.09234
  1
製図
 41
0.5
100
AcDbText
  0
TEXT
  5
11D
330
18
100
AcDbEntity
  8
_________2
100
AcDbText
 10
23.863231
 20
27.9368
 30
0.0
 40
4.497939999999999
  1
セラトレーディング株式会社
 41
0.5
 72
     1
 11
41.1803
 21
27.9368
 31
0.0
100
AcDbText
  0
LINE
  5
11E
330
18
100
AcDbEntity
  8
_________2
100
AcDbLine
 10
183.551
 20
-4.09108
 30
0.0
 11
17.04939999999999
 21
-4.09108
 31
0.0
  0
LINE
  5
11F
330
18
100
AcDbEntity
  8
_________2
100
AcDbLine
 10
17.04939999999999
 20
-4.09108
 30
0.0
 11
17.04939999999999
 21
258.911
 31
0.0
  0
LINE
  5
120
330
18
100
AcDbEntity
  8
_________2
100
AcDbLine
 10
17.04939999999999
 20
258.911
 30
0.0
 11
183.551
 21
258.911
 31
0.0
  0
LINE
  5
121
330
18
100
AcDbEntity
  8
_________2
100
AcDbLine
 10
183.551
 20
258.911
 30
0.0
 11
183.551
 21
-4.09108
 31
0.0
  0
LINE
  5
122
330
18
100
AcDbEntity
  8
_________2
100
AcDbLine
 10
65.5497
 20
9.409299999999999
 30
0.0
 11
65.5497
 21
35.9091
 31
0.0
  0
LINE
  5
123
330
18
100
AcDbEntity
  8
_________2
100
AcDbLine
 10
84.54959999999999
 20
9.409299999999999
 30
0.0
 11
84.54959999999999
 21
35.9091
 31
0.0
  0
LINE
  5
124
330
18
100
AcDbEntity
  8
_________2
100
AcDbLine
 10
103.55
 20
-4.09108
 30
0.0
 11
103.55
 21
35.9091
 31
0.0
  0
LINE
  5
125
330
18
100
AcDbEntity
  8
_________2
100
AcDbLine
 10
28.54919999999999
 20
9.409299999999999
 30
0.0
 11
28.54919999999999
 21
23.4092
 31
0.0
  0
LINE
  5
126
330
18
100
AcDbEntity
  8
_________2
100
AcDbLine
 10
17.04939999999999
 20
9.409299999999999
 30
0.0
 11
103.55
 21
9.409299999999999
 31
0.0
  0
LINE
  5
127
330
18
100
AcDbEntity
  8
_________2
100
AcDbLine
 10
17.04939999999999
 20
23.4092
 30
0.0
 11
103.55
 21
23.4092
 31
0.0
  0
LINE
  5
128
330
18
100
AcDbEntity
  8
_________2
100
AcDbLine
 10
103.55
 20
15.9085
 30
0.0
 11
183.551
 21
15.9085
 31
0.0
  0
LINE
  5
129
330
18
100
AcDbEntity
  8
_________2
100
AcDbLine
 10
17.04939999999999
 20
35.9091
 30
0.0
 11
183.551
 21
35.9091
 31
0.0
  0
ENDSEC
  0
SECTION
  2
OBJECTS
  0
DICTIONARY
  5
C
330
0
100
AcDbDictionary
281
     1
  3
ACAD_GROUP
350
D
  3
ACAD_MLINESTYLE
350
1B
  3
ACAD_PLOTSTYLENAME
350
12D
  3
ACAD_LAYOUT
350
12F
  3
ACAD_PLOTSETTINGS
350
130
  0
DICTIONARY
  5
D
102
{ACAD_REACTORS
330
C
102
}
330
C
100
AcDbDictionary
281
     1
  0
DICTIONARY
  5
1B
102
{ACAD_REACTORS
330
C
102
}
330
C
100
AcDbDictionary
281
     1
  3
STANDARD
350
1C
  0
ACDBDICTIONARYWDFLT
  5
12D
102
{ACAD_REACTORS
330
C
102
}
330
C
100
AcDbDictionary
281
     1
  3
Normal
350
12E
100
AcDbDictionaryWithDefault
340
12E
  0
DICTIONARY
  5
12F
102
{ACAD_REACTORS
330
C
102
}
330
C
100
AcDbDictionary
281
     1
  3
Model
350
131
  3
ﾚｲｱｳﾄ1
350
132
  0
DICTIONARY
  5
130
102
{ACAD_REACTORS
330
C
102
}
330
C
100
AcDbDictionary
281
     1
  0
MLINESTYLE
  5
1C
102
{ACAD_REACTORS
330
1B
102
}
330
1B
100
AcDbMlineStyle
  2
STANDARD
 70
     0
  3

 62
   256
 51
90.0
 52
90.0
 71
     2
 49
0.5
 62
   256
  6
BYLAYER
 49
-0.5
 62
   256
  6
BYLAYER
  0
ACDBPLACEHOLDER
  5
12E
102
{ACAD_REACTORS
330
12D
102
}
330
12D
  0
LAYOUT
  5
131
102
{ACAD_REACTORS
330
12F
102
}
330
12F
100
AcDbPlotSettings
  1

  2
Canon LASER SHOT LBP-880
  4

  6

 40
0.0
 41
0.0
 42
0.0
 43
0.0
 44
0.0
 45
0.0
 46
0.0
 47
0.0
 48
0.0
 49
0.0
140
0.0
141
0.0
142
1.0
143
1.0
 70
  1712
 72
     0
 73
     0
 74
     0
  7

 75
     0
147
1.0
148
0.0
149
0.0
100
AcDbLayout
  1
Model
 70
     1
 71
     0
 10
0.0
 20
0.0
 11
12.0
 21
9.0
 12
0.0
 22
0.0
 32
0.0
 14
0.0
 24
0.0
 34
0.0
 15
0.0
 25
0.0
 35
0.0
146
0.0
 13
0.0
 23
0.0
 33
0.0
 16
1.0
 26
0.0
 36
0.0
 17
0.0
 27
1.0
 37
0.0
 76
     0
330
18
  0
LAYOUT
  5
132
102
{ACAD_REACTORS
330
12F
102
}
330
12F
100
AcDbPlotSettings
  1

  2
Canon LASER SHOT LBP-880
  4

  6

 40
0.0
 41
0.0
 42
0.0
 43
0.0
 44
0.0
 45
0.0
 46
0.0
 47
0.0
 48
0.0
 49
0.0
140
0.0
141
0.0
142
1.0
143
1.0
 70
   688
 72
     0
 73
     0
 74
     5
  7

 75
    16
147
1.0
148
0.0
149
0.0
100
AcDbLayout
  1
ﾚｲｱｳﾄ1
 70
     1
 71
     1
 10
0.0
 20
0.0
 11
12.0
 21
9.0
 12
0.0
 22
0.0
 32
0.0
 14
1.000000000000000E+20
 24
1.000000000000000E+20
 34
1.000000000000000E+20
 15
-1.000000000000000E+20
 25
-1.000000000000000E+20
 35
-1.000000000000000E+20
146
0.0
 13
0.0
 23
0.0
 33
0.0
 16
1.0
 26
0.0
 36
0.0
 17
0.0
 27
1.0
 37
0.0
 76
     0
330
15
  0
ENDSEC
  0
EOF
